0
SECTION
2
HEADER
9
$EXTMIN
10
-570.000000000001
20
-570
30
0
9
$EXTMAX
10
4570
20
2750
30
0
0
ENDSEC
0
SECTION
2
TABLES
0
TABLE
2
LAYER
5
2
70
3
0
LAYER
5
14
2
layer0
5
14
70
0
62
7
6
CONTINUOUS
0
ENDTAB
0
TABLE
2
DIMSTYLE
70
2
0
DIMSTYLE
2
PFDIMSTYLE
70
0
3

4

5

6

7

40
1
41
30
42
0
43
0
44
1
45
0
46
0
47
0
48
0
71
0
72
0
73
0
74
0
75
0
76
0
77
2
78
12
140
30
141
0
142
0
143
1
144
1
145
0
146
1
147
5
170
0
171
1
172
0
173
1
174
0
175
0
176
7
177
7
178
7
0
ENDTAB
0
ENDSEC
0
SECTION
2
BLOCKS
0
BLOCK
8
layer0
2
PF_OBJECT0
70
0
10
0
20
0
30
0
0
LINE
8
layer0
10
3499.10161513775
20
1325.27820916122
30
0
11
3499.10161513775
21
-969.689110867545
31
0
0
LINE
8
layer0
10
3499.10161513775
20
-969.689110867545
30
0
11
-25.6217782649107
21
47.8108891324554
31
0
0
LINE
8
layer0
10
-25.6217782649107
20
47.8108891324554
30
0
11
-25.6217782649108
21
2342.77820916122
31
0
0
LINE
8
layer0
10
-25.6217782649108
20
2342.77820916122
30
0
11
3499.10161513775
21
1325.27820916122
31
0
0
LINE
8
layer0
10
3464.10161513775
20
1294.96732002876
30
0
11
3499.10161513775
21
1325.27820916122
31
0
0
LINE
8
layer0
10
3499.10161513775
20
1325.27820916122
30
0
11
-25.6217782649107
21
2342.77820916122
31
0
0
LINE
8
layer0
10
-25.6217782649107
20
2342.77820916122
30
0
11
-2.46139223857096E-14
21
2294.96732002876
31
0
0
LINE
8
layer0
10
-2.46139223857096E-14
20
2294.96732002876
30
0
11
3464.10161513775
21
1294.96732002876
31
0
0
LINE
8
layer0
10
0
20
0
30
0
11
-25.6217782649108
21
47.8108891324554
31
0
0
LINE
8
layer0
10
-25.6217782649108
20
47.8108891324554
30
0
11
3499.10161513775
21
-969.689110867545
31
0
0
LINE
8
layer0
10
3499.10161513775
20
-969.689110867545
30
0
11
3464.10161513775
21
-1000
31
0
0
LINE
8
layer0
10
3464.10161513775
20
-1000
30
0
11
0
21
0
31
0
0
LINE
8
layer0
10
3464.10161513775
20
1294.96732002876
30
0
11
3464.10161513775
21
-1000
31
0
0
LINE
8
layer0
10
3464.10161513775
20
-1000
30
0
11
3499.10161513775
21
-969.689110867545
31
0
0
LINE
8
layer0
10
3499.10161513775
20
-969.689110867545
30
0
11
3499.10161513775
21
1325.27820916122
31
0
0
LINE
8
layer0
10
3499.10161513775
20
1325.27820916122
30
0
11
3464.10161513775
21
1294.96732002876
31
0
0
LINE
8
layer0
10
-25.6217782649108
20
2342.77820916122
30
0
11
-25.6217782649108
21
47.8108891324554
31
0
0
LINE
8
layer0
10
-25.6217782649108
20
47.8108891324554
30
0
11
-3.69208835785644E-14
21
1.06581410364015E-14
31
0
0
LINE
8
layer0
10
-3.69208835785644E-14
20
1.06581410364015E-14
30
0
11
-2.46139223857096E-14
21
2294.96732002876
31
0
0
LINE
8
layer0
10
-2.46139223857096E-14
20
2294.96732002876
30
0
11
-25.6217782649108
21
2342.77820916122
31
0
0
LINE
8
layer0
10
0
20
2294.96732002876
30
0
11
-2.46139223857096E-14
21
7.105427357601E-15
31
0
0
LINE
8
layer0
10
-2.46139223857096E-14
20
7.105427357601E-15
30
0
11
3464.10161513775
21
-1000
31
0
0
LINE
8
layer0
10
3464.10161513775
20
-1000
30
0
11
3464.10161513775
21
1294.96732002876
31
0
0
LINE
8
layer0
10
3464.10161513775
20
1294.96732002876
30
0
11
0
21
2294.96732002876
31
0
0
ENDBLK
0
BLOCK
8
layer0
2
PF_OBJECT1
70
0
10
0
20
0
30
0
0
LINE
8
layer0
10
-25.621778264911
20
2342.77820916122
30
0
11
-25.621778264911
21
47.8108891324557
31
0
0
LINE
8
layer0
10
-25.621778264911
20
47.8108891324557
30
0
11
-1560.62177826491
21
-1281.53810567666
31
0
0
LINE
8
layer0
10
-1560.62177826491
20
-1281.53810567666
30
0
11
-1560.62177826491
21
1013.4292143521
31
0
0
LINE
8
layer0
10
-1560.62177826491
20
1013.4292143521
30
0
11
-25.621778264911
21
2342.77820916122
31
0
0
LINE
8
layer0
10
-2.27373675443232E-13
20
2294.96732002876
30
0
11
-25.621778264911
21
2342.77820916122
31
0
0
LINE
8
layer0
10
-25.621778264911
20
2342.77820916122
30
0
11
-1560.62177826491
21
1013.4292143521
31
0
0
LINE
8
layer0
10
-1560.62177826491
20
1013.4292143521
30
0
11
-1500
21
995.929214352105
31
0
0
LINE
8
layer0
10
-1500
20
995.929214352105
30
0
11
-2.27373675443232E-13
21
2294.96732002876
31
0
0
LINE
8
layer0
10
-1500
20
-1299.03810567666
30
0
11
-1560.62177826491
21
-1281.53810567666
31
0
0
LINE
8
layer0
10
-1560.62177826491
20
-1281.53810567666
30
0
11
-25.621778264911
21
47.8108891324557
31
0
0
LINE
8
layer0
10
-25.621778264911
20
47.8108891324557
30
0
11
-2.27373675443232E-13
21
4.54747350886464E-13
31
0
0
LINE
8
layer0
10
-2.27373675443232E-13
20
4.54747350886464E-13
30
0
11
-1500
21
-1299.03810567666
31
0
0
LINE
8
layer0
10
-1560.62177826491
20
1013.4292143521
30
0
11
-1560.62177826491
21
-1281.53810567666
31
0
0
LINE
8
layer0
10
-1560.62177826491
20
-1281.53810567666
30
0
11
-1500
21
-1299.03810567666
31
0
0
LINE
8
layer0
10
-1500
20
-1299.03810567666
30
0
11
-1500
21
995.929214352105
31
0
0
LINE
8
layer0
10
-1500
20
995.929214352105
30
0
11
-1560.62177826491
21
1013.4292143521
31
0
0
LINE
8
layer0
10
-4.54747350886464E-13
20
2294.96732002876
30
0
11
-4.54747350886464E-13
21
2.27373675443232E-13
31
0
0
LINE
8
layer0
10
-4.54747350886464E-13
20
2.27373675443232E-13
30
0
11
-25.6217782649112
21
47.8108891324555
31
0
0
LINE
8
layer0
10
-25.6217782649112
20
47.8108891324555
30
0
11
-25.6217782649112
21
2342.77820916122
31
0
0
LINE
8
layer0
10
-25.6217782649112
20
2342.77820916122
30
0
11
-4.54747350886464E-13
21
2294.96732002876
31
0
0
LINE
8
layer0
10
-1500
20
995.929214352105
30
0
11
-1500
21
-1299.03810567666
31
0
0
LINE
8
layer0
10
-1500
20
-1299.03810567666
30
0
11
-2.27373675443232E-13
21
4.54747350886464E-13
31
0
0
LINE
8
layer0
10
-2.27373675443232E-13
20
4.54747350886464E-13
30
0
11
-2.27373675443232E-13
21
2294.96732002876
31
0
0
LINE
8
layer0
10
-2.27373675443232E-13
20
2294.96732002876
30
0
11
-1500
21
995.929214352105
31
0
0
ENDBLK
0
BLOCK
8
layer0
2
PF_OBJECT2
70
0
10
0
20
0
30
0
0
LINE
8
layer0
10
0
20
0
30
0
11
-1500
21
-1299.03810567666
31
0
0
LINE
8
layer0
10
-1500
20
-1299.03810567666
30
0
11
1964.10161513776
21
-2299.03810567666
31
0
0
LINE
8
layer0
10
1964.10161513776
20
-2299.03810567666
30
0
11
3464.10161513775
21
-1000
31
0
0
LINE
8
layer0
10
3464.10161513775
20
-1000
30
0
11
0
21
0
31
0
0
LINE
8
layer0
10
0
20
0
30
0
11
3464.10161513775
21
-1000
31
0
0
LINE
8
layer0
10
3464.10161513775
20
-1000
30
0
11
-1500
21
-1299.03810567666
31
0
0
LINE
8
layer0
10
-1500
20
-1299.03810567666
30
0
11
0
21
0
31
0
0
LINE
8
layer0
10
3464.10161513775
20
-1000
30
0
11
1964.10161513776
21
-2299.03810567666
31
0
0
LINE
8
layer0
10
1964.10161513776
20
-2299.03810567666
30
0
11
-1500
21
-1299.03810567666
31
0
0
LINE
8
layer0
10
-1500
20
-1299.03810567666
30
0
11
3464.10161513775
21
-1000
31
0
0
ENDBLK
0
BLOCK
8
layer0
2
PF_OBJECT3
70
0
10
0
20
0
30
0
0
LINE
8
layer0
10
1041.67534827
20
-201.978875334514
30
0
11
549.772918920436
21
-59.978875334514
31
0
0
LINE
8
layer0
10
549.772918920436
20
-59.978875334514
30
0
11
549.772918920436
21
-46.122468873963
31
0
0
LINE
8
layer0
10
549.772918920436
20
-46.122468873963
30
0
11
1041.67534827
21
-188.122468873963
31
0
0
LINE
8
layer0
10
1041.67534827
20
-188.122468873963
30
0
11
1041.67534827
21
-201.978875334514
31
0
0
LINE
8
layer0
10
294.272918920436
20
-281.248366001438
30
0
11
786.175348269997
21
-423.248366001438
31
0
0
LINE
8
layer0
10
786.175348269997
20
-423.248366001438
30
0
11
786.175348269997
21
-409.391959540887
31
0
0
LINE
8
layer0
10
786.175348269997
20
-409.391959540887
30
0
11
294.272918920436
21
-267.391959540887
31
0
0
LINE
8
layer0
10
294.272918920436
20
-267.391959540887
30
0
11
294.272918920436
21
-281.248366001438
31
0
0
LINE
8
layer0
10
549.772918920436
20
-59.978875334514
30
0
11
294.272918920436
21
-281.248366001438
31
0
0
LINE
8
layer0
10
294.272918920436
20
-281.248366001438
30
0
11
294.272918920436
21
-267.391959540887
31
0
0
LINE
8
layer0
10
294.272918920436
20
-267.391959540887
30
0
11
549.772918920436
21
-46.122468873963
31
0
0
LINE
8
layer0
10
549.772918920436
20
-46.122468873963
30
0
11
549.772918920436
21
-59.978875334514
31
0
0
LINE
8
layer0
10
786.175348269997
20
-423.248366001438
30
0
11
1041.67534827
21
-201.978875334514
31
0
0
LINE
8
layer0
10
1041.67534827
20
-201.978875334514
30
0
11
1041.67534827
21
-188.122468873963
31
0
0
LINE
8
layer0
10
1041.67534827
20
-188.122468873963
30
0
11
786.175348269997
21
-409.391959540887
31
0
0
LINE
8
layer0
10
786.175348269997
20
-409.391959540887
30
0
11
786.175348269997
21
-423.248366001438
31
0
0
LINE
8
layer0
10
1041.67534827
20
-188.122468873963
30
0
11
549.772918920436
21
-46.122468873963
31
0
0
LINE
8
layer0
10
549.772918920436
20
-46.122468873963
30
0
11
294.272918920436
21
-267.391959540887
31
0
0
LINE
8
layer0
10
294.272918920436
20
-267.391959540887
30
0
11
786.175348269997
21
-409.391959540887
31
0
0
LINE
8
layer0
10
786.175348269997
20
-409.391959540887
30
0
11
1041.67534827
21
-188.122468873963
31
0
0
LINE
8
layer0
10
549.772918920436
20
-59.978875334514
30
0
11
1041.67534827
21
-201.978875334514
31
0
0
LINE
8
layer0
10
1041.67534827
20
-201.978875334514
30
0
11
786.175348269997
21
-423.248366001438
31
0
0
LINE
8
layer0
10
786.175348269997
20
-423.248366001438
30
0
11
294.272918920436
21
-281.248366001438
31
0
0
LINE
8
layer0
10
294.272918920436
20
-281.248366001438
30
0
11
549.772918920436
21
-59.978875334514
31
0
0
ENDBLK
0
BLOCK
8
layer0
2
PF_OBJECT4
70
0
10
0
20
0
30
0
0
LINE
8
layer0
10
1043.67534827
20
-200.246824526945
30
0
11
551.772918920436
21
-58.2468245269451
31
0
0
LINE
8
layer0
10
551.772918920436
20
-58.2468245269451
30
0
11
551.772918920436
21
439.717782649107
31
0
0
LINE
8
layer0
10
551.772918920436
20
439.717782649107
30
0
11
1043.67534827
21
297.717782649107
31
0
0
LINE
8
layer0
10
1043.67534827
20
297.717782649107
30
0
11
1043.67534827
21
-200.246824526945
31
0
0
LINE
8
layer0
10
549.772918920436
20
-59.978875334514
30
0
11
1041.67534827
21
-201.978875334514
31
0
0
LINE
8
layer0
10
1041.67534827
20
-201.978875334514
30
0
11
1041.67534827
21
295.985731841538
31
0
0
LINE
8
layer0
10
1041.67534827
20
295.985731841538
30
0
11
549.772918920436
21
437.985731841538
31
0
0
LINE
8
layer0
10
549.772918920436
20
437.985731841538
30
0
11
549.772918920436
21
-59.978875334514
31
0
0
LINE
8
layer0
10
551.772918920436
20
-58.2468245269451
30
0
11
549.772918920436
21
-59.978875334514
31
0
0
LINE
8
layer0
10
549.772918920436
20
-59.978875334514
30
0
11
549.772918920436
21
437.985731841538
31
0
0
LINE
8
layer0
10
549.772918920436
20
437.985731841538
30
0
11
551.772918920436
21
439.717782649107
31
0
0
LINE
8
layer0
10
551.772918920436
20
439.717782649107
30
0
11
551.772918920436
21
-58.2468245269451
31
0
0
LINE
8
layer0
10
1041.67534827
20
-201.978875334514
30
0
11
1043.67534827
21
-200.246824526945
31
0
0
LINE
8
layer0
10
1043.67534827
20
-200.246824526945
30
0
11
1043.67534827
21
297.717782649107
31
0
0
LINE
8
layer0
10
1043.67534827
20
297.717782649107
30
0
11
1041.67534827
21
295.985731841538
31
0
0
LINE
8
layer0
10
1041.67534827
20
295.985731841538
30
0
11
1041.67534827
21
-201.978875334514
31
0
0
LINE
8
layer0
10
1043.67534827
20
297.717782649107
30
0
11
551.772918920436
21
439.717782649107
31
0
0
LINE
8
layer0
10
551.772918920436
20
439.717782649107
30
0
11
549.772918920436
21
437.985731841538
31
0
0
LINE
8
layer0
10
549.772918920436
20
437.985731841538
30
0
11
1041.67534827
21
295.985731841538
31
0
0
LINE
8
layer0
10
1041.67534827
20
295.985731841538
30
0
11
1043.67534827
21
297.717782649107
31
0
0
LINE
8
layer0
10
551.772918920436
20
-58.2468245269451
30
0
11
1043.67534827
21
-200.246824526945
31
0
0
LINE
8
layer0
10
1043.67534827
20
-200.246824526945
30
0
11
1041.67534827
21
-201.978875334514
31
0
0
LINE
8
layer0
10
1041.67534827
20
-201.978875334514
30
0
11
549.772918920436
21
-59.978875334514
31
0
0
LINE
8
layer0
10
549.772918920436
20
-59.978875334514
30
0
11
551.772918920436
21
-58.2468245269451
31
0
0
ENDBLK
0
BLOCK
8
layer0
2
PF_OBJECT5
70
0
10
0
20
0
30
0
0
LINE
8
layer0
10
1016.67534827
20
274.335096746927
30
0
11
524.772918920436
21
416.335096746927
31
0
0
LINE
8
layer0
10
524.772918920436
20
416.335096746927
30
0
11
524.772918920436
21
402.478690286376
31
0
0
LINE
8
layer0
10
524.772918920436
20
402.478690286376
30
0
11
1016.67534827
21
260.478690286376
31
0
0
LINE
8
layer0
10
1016.67534827
20
260.478690286376
30
0
11
1016.67534827
21
274.335096746927
31
0
0
LINE
8
layer0
10
549.772918920436
20
437.985731841538
30
0
11
1041.67534827
21
295.985731841538
31
0
0
LINE
8
layer0
10
1041.67534827
20
295.985731841538
30
0
11
1041.67534827
21
282.129325380987
31
0
0
LINE
8
layer0
10
1041.67534827
20
282.129325380987
30
0
11
549.772918920436
21
424.129325380987
31
0
0
LINE
8
layer0
10
549.772918920436
20
424.129325380987
30
0
11
549.772918920436
21
437.985731841538
31
0
0
LINE
8
layer0
10
524.772918920436
20
416.335096746927
30
0
11
549.772918920436
21
437.985731841538
31
0
0
LINE
8
layer0
10
549.772918920436
20
437.985731841538
30
0
11
549.772918920436
21
424.129325380987
31
0
0
LINE
8
layer0
10
549.772918920436
20
424.129325380987
30
0
11
524.772918920436
21
402.478690286376
31
0
0
LINE
8
layer0
10
524.772918920436
20
402.478690286376
30
0
11
524.772918920436
21
416.335096746927
31
0
0
LINE
8
layer0
10
1041.67534827
20
295.985731841538
30
0
11
1016.67534827
21
274.335096746927
31
0
0
LINE
8
layer0
10
1016.67534827
20
274.335096746927
30
0
11
1016.67534827
21
260.478690286376
31
0
0
LINE
8
layer0
10
1016.67534827
20
260.478690286376
30
0
11
1041.67534827
21
282.129325380987
31
0
0
LINE
8
layer0
10
1041.67534827
20
282.129325380987
30
0
11
1041.67534827
21
295.985731841538
31
0
0
LINE
8
layer0
10
1016.67534827
20
260.478690286376
30
0
11
524.772918920436
21
402.478690286376
31
0
0
LINE
8
layer0
10
524.772918920436
20
402.478690286376
30
0
11
549.772918920436
21
424.129325380987
31
0
0
LINE
8
layer0
10
549.772918920436
20
424.129325380987
30
0
11
1041.67534827
21
282.129325380987
31
0
0
LINE
8
layer0
10
1041.67534827
20
282.129325380987
30
0
11
1016.67534827
21
260.478690286376
31
0
0
LINE
8
layer0
10
524.772918920436
20
416.335096746927
30
0
11
1016.67534827
21
274.335096746927
31
0
0
LINE
8
layer0
10
1016.67534827
20
274.335096746927
30
0
11
1041.67534827
21
295.985731841538
31
0
0
LINE
8
layer0
10
1041.67534827
20
295.985731841538
30
0
11
549.772918920436
21
437.985731841538
31
0
0
LINE
8
layer0
10
549.772918920436
20
437.985731841538
30
0
11
524.772918920436
21
416.335096746927
31
0
0
ENDBLK
0
BLOCK
8
layer0
2
PF_OBJECT6
70
0
10
0
20
0
30
0
0
LINE
8
layer0
10
319.272918920436
20
224.510469808674
30
0
11
811.175348269997
21
82.5104698086741
31
0
0
LINE
8
layer0
10
811.175348269997
20
82.5104698086741
30
0
11
786.175348269997
21
60.8598347140631
31
0
0
LINE
8
layer0
10
786.175348269997
20
60.8598347140631
30
0
11
294.272918920436
21
202.859834714063
31
0
0
LINE
8
layer0
10
294.272918920436
20
202.859834714063
30
0
11
319.272918920436
21
224.510469808674
31
0
0
LINE
8
layer0
10
811.175348269997
20
96.3668762692251
30
0
11
319.272918920436
21
238.366876269225
31
0
0
LINE
8
layer0
10
319.272918920436
20
238.366876269225
30
0
11
294.272918920436
21
216.716241174614
31
0
0
LINE
8
layer0
10
294.272918920436
20
216.716241174614
30
0
11
786.175348269997
21
74.7162411746141
31
0
0
LINE
8
layer0
10
786.175348269997
20
74.7162411746141
30
0
11
811.175348269997
21
96.3668762692251
31
0
0
LINE
8
layer0
10
786.175348269997
20
60.8598347140631
30
0
11
811.175348269997
21
82.5104698086741
31
0
0
LINE
8
layer0
10
811.175348269997
20
82.5104698086741
30
0
11
811.175348269997
21
96.3668762692251
31
0
0
LINE
8
layer0
10
811.175348269997
20
96.3668762692251
30
0
11
786.175348269997
21
74.7162411746141
31
0
0
LINE
8
layer0
10
786.175348269997
20
74.7162411746141
30
0
11
786.175348269997
21
60.8598347140631
31
0
0
LINE
8
layer0
10
319.272918920436
20
224.510469808674
30
0
11
294.272918920436
21
202.859834714063
31
0
0
LINE
8
layer0
10
294.272918920436
20
202.859834714063
30
0
11
294.272918920436
21
216.716241174614
31
0
0
LINE
8
layer0
10
294.272918920436
20
216.716241174614
30
0
11
319.272918920436
21
238.366876269225
31
0
0
LINE
8
layer0
10
319.272918920436
20
238.366876269225
30
0
11
319.272918920436
21
224.510469808674
31
0
0
LINE
8
layer0
10
294.272918920436
20
202.859834714063
30
0
11
786.175348269997
21
60.8598347140631
31
0
0
LINE
8
layer0
10
786.175348269997
20
60.8598347140631
30
0
11
786.175348269997
21
74.7162411746141
31
0
0
LINE
8
layer0
10
786.175348269997
20
74.7162411746141
30
0
11
294.272918920436
21
216.716241174614
31
0
0
LINE
8
layer0
10
294.272918920436
20
216.716241174614
30
0
11
294.272918920436
21
202.859834714063
31
0
0
LINE
8
layer0
10
811.175348269997
20
82.5104698086741
30
0
11
319.272918920436
21
224.510469808674
31
0
0
LINE
8
layer0
10
319.272918920436
20
224.510469808674
30
0
11
319.272918920436
21
238.366876269225
31
0
0
LINE
8
layer0
10
319.272918920436
20
238.366876269225
30
0
11
811.175348269997
21
96.3668762692251
31
0
0
LINE
8
layer0
10
811.175348269997
20
96.3668762692251
30
0
11
811.175348269997
21
82.5104698086741
31
0
0
LINE
8
layer0
10
1068.67534827
20
-178.596189432334
30
0
11
1082.53175473055
21
-182.596189432334
31
0
0
LINE
8
layer0
10
1082.53175473055
20
-182.596189432334
30
0
11
799.531754730549
21
-427.68137870333
31
0
0
LINE
8
layer0
10
799.531754730549
20
-427.68137870333
30
0
11
785.675348269997
21
-423.68137870333
31
0
0
LINE
8
layer0
10
785.675348269997
20
-423.68137870333
30
0
11
1068.67534827
21
-178.596189432334
31
0
0
LINE
8
layer0
10
1082.53175473055
20
315.368417743718
30
0
11
1068.67534827
21
319.368417743718
31
0
0
LINE
8
layer0
10
1068.67534827
20
319.368417743718
30
0
11
785.675348269997
21
74.2832284727219
31
0
0
LINE
8
layer0
10
785.675348269997
20
74.2832284727219
30
0
11
799.531754730549
21
70.2832284727219
31
0
0
LINE
8
layer0
10
799.531754730549
20
70.2832284727219
30
0
11
1082.53175473055
21
315.368417743718
31
0
0
LINE
8
layer0
10
799.531754730549
20
-427.68137870333
30
0
11
1082.53175473055
21
-182.596189432334
31
0
0
LINE
8
layer0
10
1082.53175473055
20
-182.596189432334
30
0
11
1082.53175473055
21
315.368417743718
31
0
0
LINE
8
layer0
10
1082.53175473055
20
315.368417743718
30
0
11
799.531754730549
21
70.2832284727219
31
0
0
LINE
8
layer0
10
799.531754730549
20
70.2832284727219
30
0
11
799.531754730549
21
-427.68137870333
31
0
0
LINE
8
layer0
10
1068.67534827
20
-178.596189432334
30
0
11
785.675348269997
21
-423.68137870333
31
0
0
LINE
8
layer0
10
785.675348269997
20
-423.68137870333
30
0
11
785.675348269997
21
74.2832284727219
31
0
0
LINE
8
layer0
10
785.675348269997
20
74.2832284727219
30
0
11
1068.67534827
21
319.368417743718
31
0
0
LINE
8
layer0
10
1068.67534827
20
319.368417743718
30
0
11
1068.67534827
21
-178.596189432334
31
0
0
LINE
8
layer0
10
785.675348269997
20
-423.68137870333
30
0
11
799.531754730549
21
-427.68137870333
31
0
0
LINE
8
layer0
10
799.531754730549
20
-427.68137870333
30
0
11
799.531754730549
21
70.2832284727219
31
0
0
LINE
8
layer0
10
799.531754730549
20
70.2832284727219
30
0
11
785.675348269997
21
74.2832284727219
31
0
0
LINE
8
layer0
10
785.675348269997
20
74.2832284727219
30
0
11
785.675348269997
21
-423.68137870333
31
0
0
LINE
8
layer0
10
1082.53175473055
20
-182.596189432334
30
0
11
1068.67534827
21
-178.596189432334
31
0
0
LINE
8
layer0
10
1068.67534827
20
-178.596189432334
30
0
11
1068.67534827
21
319.368417743718
31
0
0
LINE
8
layer0
10
1068.67534827
20
319.368417743718
30
0
11
1082.53175473055
21
315.368417743718
31
0
0
LINE
8
layer0
10
1082.53175473055
20
315.368417743718
30
0
11
1082.53175473055
21
-182.596189432334
31
0
0
LINE
8
layer0
10
562.916512459885
20
-32.5961894323342
30
0
11
576.772918920436
21
-36.5961894323342
31
0
0
LINE
8
layer0
10
576.772918920436
20
-36.5961894323342
30
0
11
293.772918920436
21
-281.68137870333
31
0
0
LINE
8
layer0
10
293.772918920436
20
-281.68137870333
30
0
11
279.916512459885
21
-277.68137870333
31
0
0
LINE
8
layer0
10
279.916512459885
20
-277.68137870333
30
0
11
562.916512459885
21
-32.5961894323342
31
0
0
LINE
8
layer0
10
576.772918920436
20
461.368417743718
30
0
11
562.916512459885
21
465.368417743718
31
0
0
LINE
8
layer0
10
562.916512459885
20
465.368417743718
30
0
11
279.916512459885
21
220.283228472722
31
0
0
LINE
8
layer0
10
279.916512459885
20
220.283228472722
30
0
11
293.772918920436
21
216.283228472722
31
0
0
LINE
8
layer0
10
293.772918920436
20
216.283228472722
30
0
11
576.772918920436
21
461.368417743718
31
0
0
LINE
8
layer0
10
293.772918920436
20
-281.68137870333
30
0
11
576.772918920436
21
-36.5961894323342
31
0
0
LINE
8
layer0
10
576.772918920436
20
-36.5961894323342
30
0
11
576.772918920436
21
461.368417743718
31
0
0
LINE
8
layer0
10
576.772918920436
20
461.368417743718
30
0
11
293.772918920436
21
216.283228472722
31
0
0
LINE
8
layer0
10
293.772918920436
20
216.283228472722
30
0
11
293.772918920436
21
-281.68137870333
31
0
0
LINE
8
layer0
10
562.916512459885
20
-32.5961894323342
30
0
11
279.916512459885
21
-277.68137870333
31
0
0
LINE
8
layer0
10
279.916512459885
20
-277.68137870333
30
0
11
279.916512459885
21
220.283228472722
31
0
0
LINE
8
layer0
10
279.916512459885
20
220.283228472722
30
0
11
562.916512459885
21
465.368417743718
31
0
0
LINE
8
layer0
10
562.916512459885
20
465.368417743718
30
0
11
562.916512459885
21
-32.5961894323342
31
0
0
LINE
8
layer0
10
279.916512459885
20
-277.68137870333
30
0
11
293.772918920436
21
-281.68137870333
31
0
0
LINE
8
layer0
10
293.772918920436
20
-281.68137870333
30
0
11
293.772918920436
21
216.283228472722
31
0
0
LINE
8
layer0
10
293.772918920436
20
216.283228472722
30
0
11
279.916512459885
21
220.283228472722
31
0
0
LINE
8
layer0
10
279.916512459885
20
220.283228472722
30
0
11
279.916512459885
21
-277.68137870333
31
0
0
LINE
8
layer0
10
576.772918920436
20
-36.5961894323342
30
0
11
562.916512459885
21
-32.5961894323342
31
0
0
LINE
8
layer0
10
562.916512459885
20
-32.5961894323342
30
0
11
562.916512459885
21
465.368417743718
31
0
0
LINE
8
layer0
10
562.916512459885
20
465.368417743718
30
0
11
576.772918920436
21
461.368417743718
31
0
0
LINE
8
layer0
10
576.772918920436
20
461.368417743718
30
0
11
576.772918920436
21
-36.5961894323342
31
0
0
ENDBLK
0
BLOCK
8
layer0
2
PF_OBJECT7
70
0
10
0
20
0
30
0
0
LINE
8
layer0
10
625.646999809885
20
57.455205369853
30
0
11
623.879232856918
21
57.1925391210568
31
0
0
LINE
8
layer0
10
623.879232856918
20
57.1925391210568
30
0
11
752.050992617015
21
20.1925391210568
31
0
0
LINE
8
layer0
10
752.050992617015
20
20.1925391210568
30
0
11
753.818759569982
21
20.455205369853
31
0
0
LINE
8
layer0
10
753.818759569982
20
20.455205369853
30
0
11
625.646999809885
21
57.455205369853
31
0
0
LINE
8
layer0
10
626.379232856918
20
55.0274756115957
30
0
11
625.646999809885
21
57.455205369853
31
0
0
LINE
8
layer0
10
625.646999809885
20
57.455205369853
30
0
11
753.818759569982
21
20.455205369853
31
0
0
LINE
8
layer0
10
753.818759569982
20
20.455205369853
30
0
11
754.550992617015
21
18.0274756115957
31
0
0
LINE
8
layer0
10
754.550992617015
20
18.0274756115957
30
0
11
626.379232856918
21
55.0274756115957
31
0
0
LINE
8
layer0
10
625.646999809885
20
51.3314810128951
30
0
11
626.379232856918
21
55.0274756115957
31
0
0
LINE
8
layer0
10
626.379232856918
20
55.0274756115957
30
0
11
754.550992617015
21
18.0274756115957
31
0
0
LINE
8
layer0
10
754.550992617015
20
18.0274756115957
30
0
11
753.818759569982
21
14.3314810128951
31
0
0
LINE
8
layer0
10
753.818759569982
20
14.3314810128951
30
0
11
625.646999809885
21
51.3314810128951
31
0
0
LINE
8
layer0
10
623.879232856918
20
48.5322850832124
30
0
11
625.646999809885
21
51.3314810128951
31
0
0
LINE
8
layer0
10
625.646999809885
20
51.3314810128951
30
0
11
753.818759569982
21
14.3314810128951
31
0
0
LINE
8
layer0
10
753.818759569982
20
14.3314810128951
30
0
11
752.050992617015
21
11.5322850832124
31
0
0
LINE
8
layer0
10
752.050992617015
20
11.5322850832124
30
0
11
623.879232856918
21
48.5322850832124
31
0
0
LINE
8
layer0
10
622.111465903952
20
48.2696188344161
30
0
11
623.879232856918
21
48.5322850832124
31
0
0
LINE
8
layer0
10
623.879232856918
20
48.5322850832124
30
0
11
752.050992617015
21
11.5322850832124
31
0
0
LINE
8
layer0
10
752.050992617015
20
11.5322850832124
30
0
11
750.283225664049
21
11.2696188344161
31
0
0
LINE
8
layer0
10
750.283225664049
20
11.2696188344161
30
0
11
622.111465903952
21
48.2696188344161
31
0
0
LINE
8
layer0
10
621.379232856918
20
50.6973485926735
30
0
11
622.111465903952
21
48.2696188344161
31
0
0
LINE
8
layer0
10
622.111465903952
20
48.2696188344161
30
0
11
750.283225664049
21
11.2696188344161
31
0
0
LINE
8
layer0
10
750.283225664049
20
11.2696188344161
30
0
11
749.550992617015
21
13.6973485926735
31
0
0
LINE
8
layer0
10
749.550992617015
20
13.6973485926735
30
0
11
621.379232856918
21
50.6973485926735
31
0
0
LINE
8
layer0
10
622.111465903952
20
54.393343191374
30
0
11
621.379232856918
21
50.6973485926735
31
0
0
LINE
8
layer0
10
621.379232856918
20
50.6973485926735
30
0
11
749.550992617015
21
13.6973485926735
31
0
0
LINE
8
layer0
10
749.550992617015
20
13.6973485926735
30
0
11
750.283225664049
21
17.393343191374
31
0
0
LINE
8
layer0
10
750.283225664049
20
17.393343191374
30
0
11
622.111465903952
21
54.393343191374
31
0
0
LINE
8
layer0
10
623.879232856918
20
57.1925391210568
30
0
11
622.111465903952
21
54.393343191374
31
0
0
LINE
8
layer0
10
622.111465903952
20
54.393343191374
30
0
11
750.283225664049
21
17.393343191374
31
0
0
LINE
8
layer0
10
750.283225664049
20
17.393343191374
30
0
11
752.050992617015
21
20.1925391210568
31
0
0
LINE
8
layer0
10
752.050992617015
20
20.1925391210568
30
0
11
623.879232856918
21
57.1925391210568
31
0
0
LINE
8
layer0
10
752.050992617015
20
20.1925391210568
30
0
11
750.283225664049
21
17.393343191374
31
0
0
LINE
8
layer0
10
750.283225664049
20
17.393343191374
30
0
11
749.550992617015
21
13.6973485926735
31
0
0
LINE
8
layer0
10
749.550992617015
20
13.6973485926735
30
0
11
750.283225664049
21
11.2696188344161
31
0
0
LINE
8
layer0
10
750.283225664049
20
11.2696188344161
30
0
11
752.050992617015
21
11.5322850832124
31
0
0
LINE
8
layer0
10
752.050992617015
20
11.5322850832124
30
0
11
753.818759569982
21
14.3314810128951
31
0
0
LINE
8
layer0
10
753.818759569982
20
14.3314810128951
30
0
11
754.550992617015
21
18.0274756115957
31
0
0
LINE
8
layer0
10
754.550992617015
20
18.0274756115957
30
0
11
753.818759569982
21
20.455205369853
31
0
0
LINE
8
layer0
10
753.818759569982
20
20.455205369853
30
0
11
752.050992617015
21
20.1925391210568
31
0
0
LINE
8
layer0
10
622.111465903952
20
54.393343191374
30
0
11
623.879232856918
21
57.1925391210568
31
0
0
LINE
8
layer0
10
623.879232856918
20
57.1925391210568
30
0
11
625.646999809885
21
57.455205369853
31
0
0
LINE
8
layer0
10
625.646999809885
20
57.455205369853
30
0
11
626.379232856918
21
55.0274756115957
31
0
0
LINE
8
layer0
10
626.379232856918
20
55.0274756115957
30
0
11
625.646999809885
21
51.3314810128951
31
0
0
LINE
8
layer0
10
625.646999809885
20
51.3314810128951
30
0
11
623.879232856918
21
48.5322850832124
31
0
0
LINE
8
layer0
10
623.879232856918
20
48.5322850832124
30
0
11
622.111465903952
21
48.2696188344161
31
0
0
LINE
8
layer0
10
622.111465903952
20
48.2696188344161
30
0
11
621.379232856918
21
50.6973485926735
31
0
0
LINE
8
layer0
10
621.379232856918
20
50.6973485926735
30
0
11
622.111465903952
21
54.393343191374
31
0
0
ENDBLK
0
BLOCK
8
layer0
2
PF_OBJECT8
70
0
10
0
20
0
30
0
0
LINE
8
layer0
10
651.199740932607
20
52.1925391210568
30
0
11
633.879232856918
21
57.1925391210568
31
0
0
LINE
8
layer0
10
633.879232856918
20
57.1925391210568
30
0
11
633.879232856918
21
65.8527931589012
31
0
0
LINE
8
layer0
10
633.879232856918
20
65.8527931589012
30
0
11
651.199740932607
21
60.8527931589012
31
0
0
LINE
8
layer0
10
651.199740932607
20
60.8527931589012
30
0
11
651.199740932607
21
52.1925391210568
31
0
0
LINE
8
layer0
10
623.879232856918
20
48.5322850832124
30
0
11
641.199740932607
21
43.5322850832124
31
0
0
LINE
8
layer0
10
641.199740932607
20
43.5322850832124
30
0
11
641.199740932607
21
52.1925391210568
31
0
0
LINE
8
layer0
10
641.199740932607
20
52.1925391210568
30
0
11
623.879232856918
21
57.1925391210568
31
0
0
LINE
8
layer0
10
623.879232856918
20
57.1925391210568
30
0
11
623.879232856918
21
48.5322850832124
31
0
0
LINE
8
layer0
10
633.879232856918
20
57.1925391210568
30
0
11
623.879232856918
21
48.5322850832124
31
0
0
LINE
8
layer0
10
623.879232856918
20
48.5322850832124
30
0
11
623.879232856918
21
57.1925391210568
31
0
0
LINE
8
layer0
10
623.879232856918
20
57.1925391210568
30
0
11
633.879232856918
21
65.8527931589012
31
0
0
LINE
8
layer0
10
633.879232856918
20
65.8527931589012
30
0
11
633.879232856918
21
57.1925391210568
31
0
0
LINE
8
layer0
10
641.199740932607
20
43.5322850832124
30
0
11
651.199740932607
21
52.1925391210568
31
0
0
LINE
8
layer0
10
651.199740932607
20
52.1925391210568
30
0
11
651.199740932607
21
60.8527931589012
31
0
0
LINE
8
layer0
10
651.199740932607
20
60.8527931589012
30
0
11
641.199740932607
21
52.1925391210568
31
0
0
LINE
8
layer0
10
641.199740932607
20
52.1925391210568
30
0
11
641.199740932607
21
43.5322850832124
31
0
0
LINE
8
layer0
10
651.199740932607
20
60.8527931589012
30
0
11
633.879232856918
21
65.8527931589012
31
0
0
LINE
8
layer0
10
633.879232856918
20
65.8527931589012
30
0
11
623.879232856918
21
57.1925391210568
31
0
0
LINE
8
layer0
10
623.879232856918
20
57.1925391210568
30
0
11
641.199740932607
21
52.1925391210568
31
0
0
LINE
8
layer0
10
641.199740932607
20
52.1925391210568
30
0
11
651.199740932607
21
60.8527931589012
31
0
0
LINE
8
layer0
10
633.879232856918
20
57.1925391210568
30
0
11
651.199740932607
21
52.1925391210568
31
0
0
LINE
8
layer0
10
651.199740932607
20
52.1925391210568
30
0
11
641.199740932607
21
43.5322850832124
31
0
0
LINE
8
layer0
10
641.199740932607
20
43.5322850832124
30
0
11
623.879232856918
21
48.5322850832124
31
0
0
LINE
8
layer0
10
623.879232856918
20
48.5322850832124
30
0
11
633.879232856918
21
57.1925391210568
31
0
0
ENDBLK
0
BLOCK
8
layer0
2
PF_OBJECT9
70
0
10
0
20
0
30
0
0
LINE
8
layer0
10
762.050992617015
20
20.1925391210568
30
0
11
744.730484541327
21
25.1925391210568
31
0
0
LINE
8
layer0
10
744.730484541327
20
25.1925391210568
30
0
11
744.730484541327
21
33.8527931589012
31
0
0
LINE
8
layer0
10
744.730484541327
20
33.8527931589012
30
0
11
762.050992617015
21
28.8527931589012
31
0
0
LINE
8
layer0
10
762.050992617015
20
28.8527931589012
30
0
11
762.050992617015
21
20.1925391210568
31
0
0
LINE
8
layer0
10
734.730484541327
20
16.5322850832124
30
0
11
752.050992617015
21
11.5322850832124
31
0
0
LINE
8
layer0
10
752.050992617015
20
11.5322850832124
30
0
11
752.050992617015
21
20.1925391210568
31
0
0
LINE
8
layer0
10
752.050992617015
20
20.1925391210568
30
0
11
734.730484541327
21
25.1925391210568
31
0
0
LINE
8
layer0
10
734.730484541327
20
25.1925391210568
30
0
11
734.730484541327
21
16.5322850832124
31
0
0
LINE
8
layer0
10
744.730484541327
20
25.1925391210568
30
0
11
734.730484541327
21
16.5322850832124
31
0
0
LINE
8
layer0
10
734.730484541327
20
16.5322850832124
30
0
11
734.730484541327
21
25.1925391210568
31
0
0
LINE
8
layer0
10
734.730484541327
20
25.1925391210568
30
0
11
744.730484541327
21
33.8527931589012
31
0
0
LINE
8
layer0
10
744.730484541327
20
33.8527931589012
30
0
11
744.730484541327
21
25.1925391210568
31
0
0
LINE
8
layer0
10
752.050992617015
20
11.5322850832124
30
0
11
762.050992617015
21
20.1925391210568
31
0
0
LINE
8
layer0
10
762.050992617015
20
20.1925391210568
30
0
11
762.050992617015
21
28.8527931589012
31
0
0
LINE
8
layer0
10
762.050992617015
20
28.8527931589012
30
0
11
752.050992617015
21
20.1925391210568
31
0
0
LINE
8
layer0
10
752.050992617015
20
20.1925391210568
30
0
11
752.050992617015
21
11.5322850832124
31
0
0
LINE
8
layer0
10
762.050992617015
20
28.8527931589012
30
0
11
744.730484541327
21
33.8527931589012
31
0
0
LINE
8
layer0
10
744.730484541327
20
33.8527931589012
30
0
11
734.730484541327
21
25.1925391210568
31
0
0
LINE
8
layer0
10
734.730484541327
20
25.1925391210568
30
0
11
752.050992617015
21
20.1925391210568
31
0
0
LINE
8
layer0
10
752.050992617015
20
20.1925391210568
30
0
11
762.050992617015
21
28.8527931589012
31
0
0
LINE
8
layer0
10
744.730484541327
20
25.1925391210568
30
0
11
762.050992617015
21
20.1925391210568
31
0
0
LINE
8
layer0
10
762.050992617015
20
20.1925391210568
30
0
11
752.050992617015
21
11.5322850832124
31
0
0
LINE
8
layer0
10
752.050992617015
20
11.5322850832124
30
0
11
734.730484541327
21
16.5322850832124
31
0
0
LINE
8
layer0
10
734.730484541327
20
16.5322850832124
30
0
11
744.730484541327
21
25.1925391210568
31
0
0
ENDBLK
0
BLOCK
8
layer0
2
PF_OBJECT10
70
0
10
0
20
0
30
0
0
LINE
8
layer0
10
795.433678519195
20
-425.632340597654
30
0
11
281.014588671239
21
-277.132340597654
31
0
0
LINE
8
layer0
10
281.014588671239
20
-277.132340597654
30
0
11
281.014588671239
21
212.172012540554
31
0
0
LINE
8
layer0
10
281.014588671239
20
212.172012540554
30
0
11
795.433678519195
21
63.6720125405542
31
0
0
LINE
8
layer0
10
795.433678519195
20
63.6720125405542
30
0
11
795.433678519195
21
-425.632340597654
31
0
0
LINE
8
layer0
10
271.014588671239
20
-285.792594635498
30
0
11
785.433678519195
21
-434.292594635498
31
0
0
LINE
8
layer0
10
785.433678519195
20
-434.292594635498
30
0
11
785.433678519195
21
55.0117585027098
31
0
0
LINE
8
layer0
10
785.433678519195
20
55.0117585027098
30
0
11
271.014588671239
21
203.51175850271
31
0
0
LINE
8
layer0
10
271.014588671239
20
203.51175850271
30
0
11
271.014588671239
21
-285.792594635498
31
0
0
LINE
8
layer0
10
281.014588671239
20
-277.132340597654
30
0
11
271.014588671239
21
-285.792594635498
31
0
0
LINE
8
layer0
10
271.014588671239
20
-285.792594635498
30
0
11
271.014588671239
21
203.51175850271
31
0
0
LINE
8
layer0
10
271.014588671239
20
203.51175850271
30
0
11
281.014588671239
21
212.172012540554
31
0
0
LINE
8
layer0
10
281.014588671239
20
212.172012540554
30
0
11
281.014588671239
21
-277.132340597654
31
0
0
LINE
8
layer0
10
785.433678519195
20
-434.292594635498
30
0
11
795.433678519195
21
-425.632340597654
31
0
0
LINE
8
layer0
10
795.433678519195
20
-425.632340597654
30
0
11
795.433678519195
21
63.6720125405542
31
0
0
LINE
8
layer0
10
795.433678519195
20
63.6720125405542
30
0
11
785.433678519195
21
55.0117585027098
31
0
0
LINE
8
layer0
10
785.433678519195
20
55.0117585027098
30
0
11
785.433678519195
21
-434.292594635498
31
0
0
LINE
8
layer0
10
795.433678519195
20
63.6720125405542
30
0
11
281.014588671239
21
212.172012540554
31
0
0
LINE
8
layer0
10
281.014588671239
20
212.172012540554
30
0
11
271.014588671239
21
203.51175850271
31
0
0
LINE
8
layer0
10
271.014588671239
20
203.51175850271
30
0
11
785.433678519195
21
55.0117585027098
31
0
0
LINE
8
layer0
10
785.433678519195
20
55.0117585027098
30
0
11
795.433678519195
21
63.6720125405542
31
0
0
LINE
8
layer0
10
281.014588671239
20
-277.132340597654
30
0
11
795.433678519195
21
-425.632340597654
31
0
0
LINE
8
layer0
10
795.433678519195
20
-425.632340597654
30
0
11
785.433678519195
21
-434.292594635498
31
0
0
LINE
8
layer0
10
785.433678519195
20
-434.292594635498
30
0
11
271.014588671239
21
-285.792594635498
31
0
0
LINE
8
layer0
10
271.014588671239
20
-285.792594635498
30
0
11
281.014588671239
21
-277.132340597654
31
0
0
ENDBLK
0
BLOCK
8
layer0
2
PF_OBJECT11
70
0
10
0
20
0
30
0
0
LINE
8
layer0
10
590.858798800485
20
-228.301270189222
30
0
11
556.217782649107
21
-218.301270189222
31
0
0
LINE
8
layer0
10
556.217782649107
20
-218.301270189222
30
0
11
556.217782649107
21
-88.3974596215561
31
0
0
LINE
8
layer0
10
556.217782649107
20
-88.3974596215561
30
0
11
590.858798800485
21
-98.3974596215561
31
0
0
LINE
8
layer0
10
590.858798800485
20
-98.3974596215561
30
0
11
590.858798800485
21
-228.301270189222
31
0
0
LINE
8
layer0
10
536.217782649107
20
-235.621778264911
30
0
11
570.858798800485
21
-245.621778264911
31
0
0
LINE
8
layer0
10
570.858798800485
20
-245.621778264911
30
0
11
570.858798800485
21
-115.717967697245
31
0
0
LINE
8
layer0
10
570.858798800485
20
-115.717967697245
30
0
11
536.217782649107
21
-105.717967697245
31
0
0
LINE
8
layer0
10
536.217782649107
20
-105.717967697245
30
0
11
536.217782649107
21
-235.621778264911
31
0
0
LINE
8
layer0
10
556.217782649107
20
-218.301270189222
30
0
11
536.217782649107
21
-235.621778264911
31
0
0
LINE
8
layer0
10
536.217782649107
20
-235.621778264911
30
0
11
536.217782649107
21
-105.717967697245
31
0
0
LINE
8
layer0
10
536.217782649107
20
-105.717967697245
30
0
11
556.217782649107
21
-88.3974596215561
31
0
0
LINE
8
layer0
10
556.217782649107
20
-88.3974596215561
30
0
11
556.217782649107
21
-218.301270189222
31
0
0
LINE
8
layer0
10
570.858798800485
20
-245.621778264911
30
0
11
590.858798800485
21
-228.301270189222
31
0
0
LINE
8
layer0
10
590.858798800485
20
-228.301270189222
30
0
11
590.858798800485
21
-98.3974596215561
31
0
0
LINE
8
layer0
10
590.858798800485
20
-98.3974596215561
30
0
11
570.858798800485
21
-115.717967697245
31
0
0
LINE
8
layer0
10
570.858798800485
20
-115.717967697245
30
0
11
570.858798800485
21
-245.621778264911
31
0
0
LINE
8
layer0
10
590.858798800485
20
-98.3974596215561
30
0
11
556.217782649107
21
-88.3974596215561
31
0
0
LINE
8
layer0
10
556.217782649107
20
-88.3974596215561
30
0
11
536.217782649107
21
-105.717967697245
31
0
0
LINE
8
layer0
10
536.217782649107
20
-105.717967697245
30
0
11
570.858798800485
21
-115.717967697245
31
0
0
LINE
8
layer0
10
570.858798800485
20
-115.717967697245
30
0
11
590.858798800485
21
-98.3974596215561
31
0
0
LINE
8
layer0
10
556.217782649107
20
-218.301270189222
30
0
11
590.858798800485
21
-228.301270189222
31
0
0
LINE
8
layer0
10
590.858798800485
20
-228.301270189222
30
0
11
570.858798800485
21
-245.621778264911
31
0
0
LINE
8
layer0
10
570.858798800485
20
-245.621778264911
30
0
11
536.217782649107
21
-235.621778264911
31
0
0
LINE
8
layer0
10
536.217782649107
20
-235.621778264911
30
0
11
556.217782649107
21
-218.301270189222
31
0
0
ENDBLK
0
BLOCK
8
layer0
2
PF_OBJECT12
70
0
10
0
20
0
30
0
0
LINE
8
layer0
10
432.858798800485
20
-365.133283987163
30
0
11
398.217782649107
21
-355.133283987163
31
0
0
LINE
8
layer0
10
398.217782649107
20
-355.133283987163
30
0
11
398.217782649107
21
-225.229473419497
31
0
0
LINE
8
layer0
10
398.217782649107
20
-225.229473419497
30
0
11
432.858798800485
21
-235.229473419497
31
0
0
LINE
8
layer0
10
432.858798800485
20
-235.229473419497
30
0
11
432.858798800485
21
-365.133283987163
31
0
0
LINE
8
layer0
10
378.217782649107
20
-372.453792062852
30
0
11
412.858798800485
21
-382.453792062852
31
0
0
LINE
8
layer0
10
412.858798800485
20
-382.453792062852
30
0
11
412.858798800485
21
-252.549981495186
31
0
0
LINE
8
layer0
10
412.858798800485
20
-252.549981495186
30
0
11
378.217782649107
21
-242.549981495186
31
0
0
LINE
8
layer0
10
378.217782649107
20
-242.549981495186
30
0
11
378.217782649107
21
-372.453792062852
31
0
0
LINE
8
layer0
10
398.217782649107
20
-355.133283987163
30
0
11
378.217782649107
21
-372.453792062852
31
0
0
LINE
8
layer0
10
378.217782649107
20
-372.453792062852
30
0
11
378.217782649107
21
-242.549981495186
31
0
0
LINE
8
layer0
10
378.217782649107
20
-242.549981495186
30
0
11
398.217782649107
21
-225.229473419497
31
0
0
LINE
8
layer0
10
398.217782649107
20
-225.229473419497
30
0
11
398.217782649107
21
-355.133283987163
31
0
0
LINE
8
layer0
10
412.858798800485
20
-382.453792062852
30
0
11
432.858798800485
21
-365.133283987163
31
0
0
LINE
8
layer0
10
432.858798800485
20
-365.133283987163
30
0
11
432.858798800485
21
-235.229473419497
31
0
0
LINE
8
layer0
10
432.858798800485
20
-235.229473419497
30
0
11
412.858798800485
21
-252.549981495186
31
0
0
LINE
8
layer0
10
412.858798800485
20
-252.549981495186
30
0
11
412.858798800485
21
-382.453792062852
31
0
0
LINE
8
layer0
10
432.858798800485
20
-235.229473419497
30
0
11
398.217782649107
21
-225.229473419497
31
0
0
LINE
8
layer0
10
398.217782649107
20
-225.229473419497
30
0
11
378.217782649107
21
-242.549981495186
31
0
0
LINE
8
layer0
10
378.217782649107
20
-242.549981495186
30
0
11
412.858798800485
21
-252.549981495186
31
0
0
LINE
8
layer0
10
412.858798800485
20
-252.549981495186
30
0
11
432.858798800485
21
-235.229473419497
31
0
0
LINE
8
layer0
10
398.217782649107
20
-355.133283987163
30
0
11
432.858798800485
21
-365.133283987163
31
0
0
LINE
8
layer0
10
432.858798800485
20
-365.133283987163
30
0
11
412.858798800485
21
-382.453792062852
31
0
0
LINE
8
layer0
10
412.858798800485
20
-382.453792062852
30
0
11
378.217782649107
21
-372.453792062852
31
0
0
LINE
8
layer0
10
378.217782649107
20
-372.453792062852
30
0
11
398.217782649107
21
-355.133283987163
31
0
0
ENDBLK
0
BLOCK
8
layer0
2
PF_OBJECT13
70
0
10
0
20
0
30
0
0
LINE
8
layer0
10
989.230484541327
20
-343.301270189222
30
0
11
954.589468389949
21
-333.301270189222
31
0
0
LINE
8
layer0
10
954.589468389949
20
-333.301270189222
30
0
11
954.589468389949
21
-203.397459621556
31
0
0
LINE
8
layer0
10
954.589468389949
20
-203.397459621556
30
0
11
989.230484541327
21
-213.397459621556
31
0
0
LINE
8
layer0
10
989.230484541327
20
-213.397459621556
30
0
11
989.230484541327
21
-343.301270189222
31
0
0
LINE
8
layer0
10
934.589468389949
20
-350.621778264911
30
0
11
969.230484541327
21
-360.621778264911
31
0
0
LINE
8
layer0
10
969.230484541327
20
-360.621778264911
30
0
11
969.230484541327
21
-230.717967697245
31
0
0
LINE
8
layer0
10
969.230484541327
20
-230.717967697245
30
0
11
934.589468389949
21
-220.717967697245
31
0
0
LINE
8
layer0
10
934.589468389949
20
-220.717967697245
30
0
11
934.589468389949
21
-350.621778264911
31
0
0
LINE
8
layer0
10
954.589468389949
20
-333.301270189222
30
0
11
934.589468389949
21
-350.621778264911
31
0
0
LINE
8
layer0
10
934.589468389949
20
-350.621778264911
30
0
11
934.589468389949
21
-220.717967697245
31
0
0
LINE
8
layer0
10
934.589468389949
20
-220.717967697245
30
0
11
954.589468389949
21
-203.397459621556
31
0
0
LINE
8
layer0
10
954.589468389949
20
-203.397459621556
30
0
11
954.589468389949
21
-333.301270189222
31
0
0
LINE
8
layer0
10
969.230484541327
20
-360.621778264911
30
0
11
989.230484541327
21
-343.301270189222
31
0
0
LINE
8
layer0
10
989.230484541327
20
-343.301270189222
30
0
11
989.230484541327
21
-213.397459621556
31
0
0
LINE
8
layer0
10
989.230484541327
20
-213.397459621556
30
0
11
969.230484541327
21
-230.717967697245
31
0
0
LINE
8
layer0
10
969.230484541327
20
-230.717967697245
30
0
11
969.230484541327
21
-360.621778264911
31
0
0
LINE
8
layer0
10
989.230484541327
20
-213.397459621556
30
0
11
954.589468389949
21
-203.397459621556
31
0
0
LINE
8
layer0
10
954.589468389949
20
-203.397459621556
30
0
11
934.589468389949
21
-220.717967697245
31
0
0
LINE
8
layer0
10
934.589468389949
20
-220.717967697245
30
0
11
969.230484541327
21
-230.717967697245
31
0
0
LINE
8
layer0
10
969.230484541327
20
-230.717967697245
30
0
11
989.230484541327
21
-213.397459621556
31
0
0
LINE
8
layer0
10
954.589468389949
20
-333.301270189222
30
0
11
989.230484541327
21
-343.301270189222
31
0
0
LINE
8
layer0
10
989.230484541327
20
-343.301270189222
30
0
11
969.230484541327
21
-360.621778264911
31
0
0
LINE
8
layer0
10
969.230484541327
20
-360.621778264911
30
0
11
934.589468389949
21
-350.621778264911
31
0
0
LINE
8
layer0
10
934.589468389949
20
-350.621778264911
30
0
11
954.589468389949
21
-333.301270189222
31
0
0
ENDBLK
0
BLOCK
8
layer0
2
PF_OBJECT14
70
0
10
0
20
0
30
0
0
LINE
8
layer0
10
831.230484541327
20
-480.133283987163
30
0
11
796.589468389949
21
-470.133283987163
31
0
0
LINE
8
layer0
10
796.589468389949
20
-470.133283987163
30
0
11
796.589468389949
21
-340.229473419497
31
0
0
LINE
8
layer0
10
796.589468389949
20
-340.229473419497
30
0
11
831.230484541327
21
-350.229473419497
31
0
0
LINE
8
layer0
10
831.230484541327
20
-350.229473419497
30
0
11
831.230484541327
21
-480.133283987163
31
0
0
LINE
8
layer0
10
776.589468389949
20
-487.453792062852
30
0
11
811.230484541327
21
-497.453792062852
31
0
0
LINE
8
layer0
10
811.230484541327
20
-497.453792062852
30
0
11
811.230484541327
21
-367.549981495186
31
0
0
LINE
8
layer0
10
811.230484541327
20
-367.549981495186
30
0
11
776.589468389949
21
-357.549981495186
31
0
0
LINE
8
layer0
10
776.589468389949
20
-357.549981495186
30
0
11
776.589468389949
21
-487.453792062852
31
0
0
LINE
8
layer0
10
796.589468389949
20
-470.133283987163
30
0
11
776.589468389949
21
-487.453792062852
31
0
0
LINE
8
layer0
10
776.589468389949
20
-487.453792062852
30
0
11
776.589468389949
21
-357.549981495186
31
0
0
LINE
8
layer0
10
776.589468389949
20
-357.549981495186
30
0
11
796.589468389949
21
-340.229473419497
31
0
0
LINE
8
layer0
10
796.589468389949
20
-340.229473419497
30
0
11
796.589468389949
21
-470.133283987163
31
0
0
LINE
8
layer0
10
811.230484541327
20
-497.453792062852
30
0
11
831.230484541327
21
-480.133283987163
31
0
0
LINE
8
layer0
10
831.230484541327
20
-480.133283987163
30
0
11
831.230484541327
21
-350.229473419497
31
0
0
LINE
8
layer0
10
831.230484541327
20
-350.229473419497
30
0
11
811.230484541327
21
-367.549981495186
31
0
0
LINE
8
layer0
10
811.230484541327
20
-367.549981495186
30
0
11
811.230484541327
21
-497.453792062852
31
0
0
LINE
8
layer0
10
831.230484541327
20
-350.229473419497
30
0
11
796.589468389949
21
-340.229473419497
31
0
0
LINE
8
layer0
10
796.589468389949
20
-340.229473419497
30
0
11
776.589468389949
21
-357.549981495186
31
0
0
LINE
8
layer0
10
776.589468389949
20
-357.549981495186
30
0
11
811.230484541327
21
-367.549981495186
31
0
0
LINE
8
layer0
10
811.230484541327
20
-367.549981495186
30
0
11
831.230484541327
21
-350.229473419497
31
0
0
LINE
8
layer0
10
796.589468389949
20
-470.133283987163
30
0
11
831.230484541327
21
-480.133283987163
31
0
0
LINE
8
layer0
10
831.230484541327
20
-480.133283987163
30
0
11
811.230484541327
21
-497.453792062852
31
0
0
LINE
8
layer0
10
811.230484541327
20
-497.453792062852
30
0
11
776.589468389949
21
-487.453792062852
31
0
0
LINE
8
layer0
10
776.589468389949
20
-487.453792062852
30
0
11
796.589468389949
21
-470.133283987163
31
0
0
ENDBLK
0
BLOCK
8
layer0
70
0
10
0
20
0
30
0
2
PF_SKETCH15
0
LINE
8
layer0
10
515.749845793219
20
424.520886198552
30
0
11
468.583179126552
21
383.673354653386
31
0
0
ENDBLK
0
BLOCK
8
layer0
70
0
10
0
20
0
30
0
2
PF_SKETCH16
0
LINE
8
layer0
10
1035.36508806388
20
274.520886198552
30
0
11
988.198421397215
21
233.673354653386
31
0
0
ENDBLK
0
BLOCK
8
layer0
70
0
10
0
20
0
30
0
2
PF_SKETCH17
0
LINE
8
layer0
10
421.416512459885
20
342.82582310822
30
0
11
374.249845793219
21
301.978291563054
31
0
0
ENDBLK
0
BLOCK
8
layer0
70
0
10
0
20
0
30
0
2
PF_SKETCH18
0
LINE
8
layer0
10
941.031754730548
20
192.82582310822
30
0
11
893.865088063882
21
151.978291563054
31
0
0
ENDBLK
0
BLOCK
8
layer0
70
0
10
0
20
0
30
0
2
PF_SKETCH19
0
LINE
8
layer0
10
327.083179126552
20
261.130760017888
30
0
11
279.916512459885
21
220.283228472722
31
0
0
ENDBLK
0
BLOCK
8
layer0
70
0
10
0
20
0
30
0
2
PF_SKETCH20
0
LINE
8
layer0
10
846.698421397215
20
111.130760017888
30
0
11
799.531754730549
21
70.2832284727219
31
0
0
ENDBLK
0
BLOCK
8
layer0
2
PF_OBJECT21
70
0
10
0
20
0
30
0
0
LINE
8
layer0
10
2080.90583281132
20
-501.978875334514
30
0
11
1069.3881611911
21
-209.978875334514
31
0
0
LINE
8
layer0
10
1069.3881611911
20
-209.978875334514
30
0
11
1069.3881611911
21
-196.122468873963
31
0
0
LINE
8
layer0
10
1069.3881611911
20
-196.122468873963
30
0
11
2080.90583281132
21
-488.122468873963
31
0
0
LINE
8
layer0
10
2080.90583281132
20
-488.122468873963
30
0
11
2080.90583281132
21
-501.978875334514
31
0
0
LINE
8
layer0
10
813.888161191099
20
-431.248366001438
30
0
11
1825.40583281132
21
-723.248366001438
31
0
0
LINE
8
layer0
10
1825.40583281132
20
-723.248366001438
30
0
11
1825.40583281132
21
-709.391959540887
31
0
0
LINE
8
layer0
10
1825.40583281132
20
-709.391959540887
30
0
11
813.888161191099
21
-417.391959540887
31
0
0
LINE
8
layer0
10
813.888161191099
20
-417.391959540887
30
0
11
813.888161191099
21
-431.248366001438
31
0
0
LINE
8
layer0
10
1069.3881611911
20
-209.978875334514
30
0
11
813.888161191099
21
-431.248366001438
31
0
0
LINE
8
layer0
10
813.888161191099
20
-431.248366001438
30
0
11
813.888161191099
21
-417.391959540887
31
0
0
LINE
8
layer0
10
813.888161191099
20
-417.391959540887
30
0
11
1069.3881611911
21
-196.122468873963
31
0
0
LINE
8
layer0
10
1069.3881611911
20
-196.122468873963
30
0
11
1069.3881611911
21
-209.978875334514
31
0
0
LINE
8
layer0
10
1825.40583281132
20
-723.248366001438
30
0
11
2080.90583281132
21
-501.978875334514
31
0
0
LINE
8
layer0
10
2080.90583281132
20
-501.978875334514
30
0
11
2080.90583281132
21
-488.122468873963
31
0
0
LINE
8
layer0
10
2080.90583281132
20
-488.122468873963
30
0
11
1825.40583281132
21
-709.391959540887
31
0
0
LINE
8
layer0
10
1825.40583281132
20
-709.391959540887
30
0
11
1825.40583281132
21
-723.248366001438
31
0
0
LINE
8
layer0
10
2080.90583281132
20
-488.122468873963
30
0
11
1069.3881611911
21
-196.122468873963
31
0
0
LINE
8
layer0
10
1069.3881611911
20
-196.122468873963
30
0
11
813.888161191099
21
-417.391959540887
31
0
0
LINE
8
layer0
10
813.888161191099
20
-417.391959540887
30
0
11
1825.40583281132
21
-709.391959540887
31
0
0
LINE
8
layer0
10
1825.40583281132
20
-709.391959540887
30
0
11
2080.90583281132
21
-488.122468873963
31
0
0
LINE
8
layer0
10
1069.3881611911
20
-209.978875334514
30
0
11
2080.90583281132
21
-501.978875334514
31
0
0
LINE
8
layer0
10
2080.90583281132
20
-501.978875334514
30
0
11
1825.40583281132
21
-723.248366001438
31
0
0
LINE
8
layer0
10
1825.40583281132
20
-723.248366001438
30
0
11
813.888161191099
21
-431.248366001438
31
0
0
LINE
8
layer0
10
813.888161191099
20
-431.248366001438
30
0
11
1069.3881611911
21
-209.978875334514
31
0
0
ENDBLK
0
BLOCK
8
layer0
2
PF_OBJECT22
70
0
10
0
20
0
30
0
0
LINE
8
layer0
10
2082.90583281132
20
-500.246824526945
30
0
11
1071.3881611911
21
-208.246824526945
31
0
0
LINE
8
layer0
10
1071.3881611911
20
-208.246824526945
30
0
11
1071.3881611911
21
289.717782649107
31
0
0
LINE
8
layer0
10
1071.3881611911
20
289.717782649107
30
0
11
2082.90583281132
21
-2.28221735089278
31
0
0
LINE
8
layer0
10
2082.90583281132
20
-2.28221735089278
30
0
11
2082.90583281132
21
-500.246824526945
31
0
0
LINE
8
layer0
10
1069.3881611911
20
-209.978875334514
30
0
11
2080.90583281132
21
-501.978875334514
31
0
0
LINE
8
layer0
10
2080.90583281132
20
-501.978875334514
30
0
11
2080.90583281132
21
-4.01426815846168
31
0
0
LINE
8
layer0
10
2080.90583281132
20
-4.01426815846168
30
0
11
1069.3881611911
21
287.985731841538
31
0
0
LINE
8
layer0
10
1069.3881611911
20
287.985731841538
30
0
11
1069.3881611911
21
-209.978875334514
31
0
0
LINE
8
layer0
10
1071.3881611911
20
-208.246824526945
30
0
11
1069.3881611911
21
-209.978875334514
31
0
0
LINE
8
layer0
10
1069.3881611911
20
-209.978875334514
30
0
11
1069.3881611911
21
287.985731841538
31
0
0
LINE
8
layer0
10
1069.3881611911
20
287.985731841538
30
0
11
1071.3881611911
21
289.717782649107
31
0
0
LINE
8
layer0
10
1071.3881611911
20
289.717782649107
30
0
11
1071.3881611911
21
-208.246824526945
31
0
0
LINE
8
layer0
10
2080.90583281132
20
-501.978875334514
30
0
11
2082.90583281132
21
-500.246824526945
31
0
0
LINE
8
layer0
10
2082.90583281132
20
-500.246824526945
30
0
11
2082.90583281132
21
-2.28221735089278
31
0
0
LINE
8
layer0
10
2082.90583281132
20
-2.28221735089278
30
0
11
2080.90583281132
21
-4.01426815846168
31
0
0
LINE
8
layer0
10
2080.90583281132
20
-4.01426815846168
30
0
11
2080.90583281132
21
-501.978875334514
31
0
0
LINE
8
layer0
10
2082.90583281132
20
-2.28221735089278
30
0
11
1071.3881611911
21
289.717782649107
31
0
0
LINE
8
layer0
10
1071.3881611911
20
289.717782649107
30
0
11
1069.3881611911
21
287.985731841538
31
0
0
LINE
8
layer0
10
1069.3881611911
20
287.985731841538
30
0
11
2080.90583281132
21
-4.01426815846168
31
0
0
LINE
8
layer0
10
2080.90583281132
20
-4.01426815846168
30
0
11
2082.90583281132
21
-2.28221735089278
31
0
0
LINE
8
layer0
10
1071.3881611911
20
-208.246824526945
30
0
11
2082.90583281132
21
-500.246824526945
31
0
0
LINE
8
layer0
10
2082.90583281132
20
-500.246824526945
30
0
11
2080.90583281132
21
-501.978875334514
31
0
0
LINE
8
layer0
10
2080.90583281132
20
-501.978875334514
30
0
11
1069.3881611911
21
-209.978875334514
31
0
0
LINE
8
layer0
10
1069.3881611911
20
-209.978875334514
30
0
11
1071.3881611911
21
-208.246824526945
31
0
0
ENDBLK
0
BLOCK
8
layer0
2
PF_OBJECT23
70
0
10
0
20
0
30
0
0
LINE
8
layer0
10
2055.90583281132
20
-25.6649032530726
30
0
11
1044.3881611911
21
266.335096746927
31
0
0
LINE
8
layer0
10
1044.3881611911
20
266.335096746927
30
0
11
1044.3881611911
21
252.478690286376
31
0
0
LINE
8
layer0
10
1044.3881611911
20
252.478690286376
30
0
11
2055.90583281132
21
-39.5213097136237
31
0
0
LINE
8
layer0
10
2055.90583281132
20
-39.5213097136237
30
0
11
2055.90583281132
21
-25.6649032530726
31
0
0
LINE
8
layer0
10
1069.3881611911
20
287.985731841538
30
0
11
2080.90583281132
21
-4.01426815846168
31
0
0
LINE
8
layer0
10
2080.90583281132
20
-4.01426815846168
30
0
11
2080.90583281132
21
-17.8706746190127
31
0
0
LINE
8
layer0
10
2080.90583281132
20
-17.8706746190127
30
0
11
1069.3881611911
21
274.129325380987
31
0
0
LINE
8
layer0
10
1069.3881611911
20
274.129325380987
30
0
11
1069.3881611911
21
287.985731841538
31
0
0
LINE
8
layer0
10
1044.3881611911
20
266.335096746927
30
0
11
1069.3881611911
21
287.985731841538
31
0
0
LINE
8
layer0
10
1069.3881611911
20
287.985731841538
30
0
11
1069.3881611911
21
274.129325380987
31
0
0
LINE
8
layer0
10
1069.3881611911
20
274.129325380987
30
0
11
1044.3881611911
21
252.478690286376
31
0
0
LINE
8
layer0
10
1044.3881611911
20
252.478690286376
30
0
11
1044.3881611911
21
266.335096746927
31
0
0
LINE
8
layer0
10
2080.90583281132
20
-4.01426815846168
30
0
11
2055.90583281132
21
-25.6649032530726
31
0
0
LINE
8
layer0
10
2055.90583281132
20
-25.6649032530726
30
0
11
2055.90583281132
21
-39.5213097136237
31
0
0
LINE
8
layer0
10
2055.90583281132
20
-39.5213097136237
30
0
11
2080.90583281132
21
-17.8706746190127
31
0
0
LINE
8
layer0
10
2080.90583281132
20
-17.8706746190127
30
0
11
2080.90583281132
21
-4.01426815846168
31
0
0
LINE
8
layer0
10
2055.90583281132
20
-39.5213097136237
30
0
11
1044.3881611911
21
252.478690286376
31
0
0
LINE
8
layer0
10
1044.3881611911
20
252.478690286376
30
0
11
1069.3881611911
21
274.129325380987
31
0
0
LINE
8
layer0
10
1069.3881611911
20
274.129325380987
30
0
11
2080.90583281132
21
-17.8706746190127
31
0
0
LINE
8
layer0
10
2080.90583281132
20
-17.8706746190127
30
0
11
2055.90583281132
21
-39.5213097136237
31
0
0
LINE
8
layer0
10
1044.3881611911
20
266.335096746927
30
0
11
2055.90583281132
21
-25.6649032530726
31
0
0
LINE
8
layer0
10
2055.90583281132
20
-25.6649032530726
30
0
11
2080.90583281132
21
-4.01426815846168
31
0
0
LINE
8
layer0
10
2080.90583281132
20
-4.01426815846168
30
0
11
1069.3881611911
21
287.985731841538
31
0
0
LINE
8
layer0
10
1069.3881611911
20
287.985731841538
30
0
11
1044.3881611911
21
266.335096746927
31
0
0
ENDBLK
0
BLOCK
8
layer0
2
PF_OBJECT24
70
0
10
0
20
0
30
0
0
LINE
8
layer0
10
1313.29059054066
20
-552.896769012504
30
0
11
1341.00340346176
21
-560.896769012504
31
0
0
LINE
8
layer0
10
1341.00340346176
20
-560.896769012504
30
0
11
1333.00340346176
21
-567.824972242779
31
0
0
LINE
8
layer0
10
1333.00340346176
20
-567.824972242779
30
0
11
1305.29059054066
21
-559.824972242779
31
0
0
LINE
8
layer0
10
1305.29059054066
20
-559.824972242779
30
0
11
1313.29059054066
21
-552.896769012504
31
0
0
LINE
8
layer0
10
1341.00340346176
20
-90.6449747575536
30
0
11
1313.29059054066
21
-82.6449747575536
31
0
0
LINE
8
layer0
10
1313.29059054066
20
-82.6449747575536
30
0
11
1305.29059054066
21
-89.5731779878291
31
0
0
LINE
8
layer0
10
1305.29059054066
20
-89.5731779878291
30
0
11
1333.00340346176
21
-97.5731779878291
31
0
0
LINE
8
layer0
10
1333.00340346176
20
-97.5731779878291
30
0
11
1341.00340346176
21
-90.6449747575536
31
0
0
LINE
8
layer0
10
1333.00340346176
20
-567.824972242779
30
0
11
1341.00340346176
21
-560.896769012504
31
0
0
LINE
8
layer0
10
1341.00340346176
20
-560.896769012504
30
0
11
1341.00340346176
21
-90.6449747575536
31
0
0
LINE
8
layer0
10
1341.00340346176
20
-90.6449747575536
30
0
11
1333.00340346176
21
-97.5731779878291
31
0
0
LINE
8
layer0
10
1333.00340346176
20
-97.5731779878291
30
0
11
1333.00340346176
21
-567.824972242779
31
0
0
LINE
8
layer0
10
1313.29059054066
20
-552.896769012504
30
0
11
1305.29059054066
21
-559.824972242779
31
0
0
LINE
8
layer0
10
1305.29059054066
20
-559.824972242779
30
0
11
1305.29059054066
21
-89.5731779878291
31
0
0
LINE
8
layer0
10
1305.29059054066
20
-89.5731779878291
30
0
11
1313.29059054066
21
-82.6449747575536
31
0
0
LINE
8
layer0
10
1313.29059054066
20
-82.6449747575536
30
0
11
1313.29059054066
21
-552.896769012504
31
0
0
LINE
8
layer0
10
1305.29059054066
20
-559.824972242779
30
0
11
1333.00340346176
21
-567.824972242779
31
0
0
LINE
8
layer0
10
1333.00340346176
20
-567.824972242779
30
0
11
1333.00340346176
21
-97.5731779878291
31
0
0
LINE
8
layer0
10
1333.00340346176
20
-97.5731779878291
30
0
11
1305.29059054066
21
-89.5731779878291
31
0
0
LINE
8
layer0
10
1305.29059054066
20
-89.5731779878291
30
0
11
1305.29059054066
21
-559.824972242779
31
0
0
LINE
8
layer0
10
1341.00340346176
20
-560.896769012504
30
0
11
1313.29059054066
21
-552.896769012504
31
0
0
LINE
8
layer0
10
1313.29059054066
20
-552.896769012504
30
0
11
1313.29059054066
21
-82.6449747575536
31
0
0
LINE
8
layer0
10
1313.29059054066
20
-82.6449747575536
30
0
11
1341.00340346176
21
-90.6449747575536
31
0
0
LINE
8
layer0
10
1341.00340346176
20
-90.6449747575536
30
0
11
1341.00340346176
21
-560.896769012504
31
0
0
LINE
8
layer0
10
838.888161191099
20
74.5104698086741
30
0
11
1850.40583281132
21
-217.489530191326
31
0
0
LINE
8
layer0
10
1850.40583281132
20
-217.489530191326
30
0
11
1825.40583281132
21
-239.140165285937
31
0
0
LINE
8
layer0
10
1825.40583281132
20
-239.140165285937
30
0
11
813.888161191099
21
52.8598347140631
31
0
0
LINE
8
layer0
10
813.888161191099
20
52.8598347140631
30
0
11
838.888161191099
21
74.5104698086741
31
0
0
LINE
8
layer0
10
1850.40583281132
20
-203.633123730775
30
0
11
838.888161191099
21
88.3668762692251
31
0
0
LINE
8
layer0
10
838.888161191099
20
88.3668762692251
30
0
11
813.888161191099
21
66.7162411746141
31
0
0
LINE
8
layer0
10
813.888161191099
20
66.7162411746141
30
0
11
1825.40583281132
21
-225.283758825386
31
0
0
LINE
8
layer0
10
1825.40583281132
20
-225.283758825386
30
0
11
1850.40583281132
21
-203.633123730775
31
0
0
LINE
8
layer0
10
1825.40583281132
20
-239.140165285937
30
0
11
1850.40583281132
21
-217.489530191326
31
0
0
LINE
8
layer0
10
1850.40583281132
20
-217.489530191326
30
0
11
1850.40583281132
21
-203.633123730775
31
0
0
LINE
8
layer0
10
1850.40583281132
20
-203.633123730775
30
0
11
1825.40583281132
21
-225.283758825386
31
0
0
LINE
8
layer0
10
1825.40583281132
20
-225.283758825386
30
0
11
1825.40583281132
21
-239.140165285937
31
0
0
LINE
8
layer0
10
838.888161191099
20
74.5104698086741
30
0
11
813.888161191099
21
52.8598347140631
31
0
0
LINE
8
layer0
10
813.888161191099
20
52.8598347140631
30
0
11
813.888161191099
21
66.7162411746141
31
0
0
LINE
8
layer0
10
813.888161191099
20
66.7162411746141
30
0
11
838.888161191099
21
88.3668762692251
31
0
0
LINE
8
layer0
10
838.888161191099
20
88.3668762692251
30
0
11
838.888161191099
21
74.5104698086741
31
0
0
LINE
8
layer0
10
813.888161191099
20
52.8598347140631
30
0
11
1825.40583281132
21
-239.140165285937
31
0
0
LINE
8
layer0
10
1825.40583281132
20
-239.140165285937
30
0
11
1825.40583281132
21
-225.283758825386
31
0
0
LINE
8
layer0
10
1825.40583281132
20
-225.283758825386
30
0
11
813.888161191099
21
66.7162411746141
31
0
0
LINE
8
layer0
10
813.888161191099
20
66.7162411746141
30
0
11
813.888161191099
21
52.8598347140631
31
0
0
LINE
8
layer0
10
1850.40583281132
20
-217.489530191326
30
0
11
838.888161191099
21
74.5104698086741
31
0
0
LINE
8
layer0
10
838.888161191099
20
74.5104698086741
30
0
11
838.888161191099
21
88.3668762692251
31
0
0
LINE
8
layer0
10
838.888161191099
20
88.3668762692251
30
0
11
1850.40583281132
21
-203.633123730775
31
0
0
LINE
8
layer0
10
1850.40583281132
20
-203.633123730775
30
0
11
1850.40583281132
21
-217.489530191326
31
0
0
LINE
8
layer0
10
2107.90583281132
20
-478.596189432334
30
0
11
2121.76223927187
21
-482.596189432334
31
0
0
LINE
8
layer0
10
2121.76223927187
20
-482.596189432334
30
0
11
1838.76223927187
21
-727.68137870333
31
0
0
LINE
8
layer0
10
1838.76223927187
20
-727.68137870333
30
0
11
1824.90583281132
21
-723.68137870333
31
0
0
LINE
8
layer0
10
1824.90583281132
20
-723.68137870333
30
0
11
2107.90583281132
21
-478.596189432334
31
0
0
LINE
8
layer0
10
2121.76223927187
20
15.3684177437182
30
0
11
2107.90583281132
21
19.3684177437182
31
0
0
LINE
8
layer0
10
2107.90583281132
20
19.3684177437182
30
0
11
1824.90583281132
21
-225.716771527278
31
0
0
LINE
8
layer0
10
1824.90583281132
20
-225.716771527278
30
0
11
1838.76223927187
21
-229.716771527278
31
0
0
LINE
8
layer0
10
1838.76223927187
20
-229.716771527278
30
0
11
2121.76223927187
21
15.3684177437182
31
0
0
LINE
8
layer0
10
1838.76223927187
20
-727.68137870333
30
0
11
2121.76223927187
21
-482.596189432334
31
0
0
LINE
8
layer0
10
2121.76223927187
20
-482.596189432334
30
0
11
2121.76223927187
21
15.3684177437182
31
0
0
LINE
8
layer0
10
2121.76223927187
20
15.3684177437182
30
0
11
1838.76223927187
21
-229.716771527278
31
0
0
LINE
8
layer0
10
1838.76223927187
20
-229.716771527278
30
0
11
1838.76223927187
21
-727.68137870333
31
0
0
LINE
8
layer0
10
2107.90583281132
20
-478.596189432334
30
0
11
1824.90583281132
21
-723.68137870333
31
0
0
LINE
8
layer0
10
1824.90583281132
20
-723.68137870333
30
0
11
1824.90583281132
21
-225.716771527278
31
0
0
LINE
8
layer0
10
1824.90583281132
20
-225.716771527278
30
0
11
2107.90583281132
21
19.3684177437182
31
0
0
LINE
8
layer0
10
2107.90583281132
20
19.3684177437182
30
0
11
2107.90583281132
21
-478.596189432334
31
0
0
LINE
8
layer0
10
1824.90583281132
20
-723.68137870333
30
0
11
1838.76223927187
21
-727.68137870333
31
0
0
LINE
8
layer0
10
1838.76223927187
20
-727.68137870333
30
0
11
1838.76223927187
21
-229.716771527278
31
0
0
LINE
8
layer0
10
1838.76223927187
20
-229.716771527278
30
0
11
1824.90583281132
21
-225.716771527278
31
0
0
LINE
8
layer0
10
1824.90583281132
20
-225.716771527278
30
0
11
1824.90583281132
21
-723.68137870333
31
0
0
LINE
8
layer0
10
2121.76223927187
20
-482.596189432334
30
0
11
2107.90583281132
21
-478.596189432334
31
0
0
LINE
8
layer0
10
2107.90583281132
20
-478.596189432334
30
0
11
2107.90583281132
21
19.3684177437182
31
0
0
LINE
8
layer0
10
2107.90583281132
20
19.3684177437182
30
0
11
2121.76223927187
21
15.3684177437182
31
0
0
LINE
8
layer0
10
2121.76223927187
20
15.3684177437182
30
0
11
2121.76223927187
21
-482.596189432334
31
0
0
LINE
8
layer0
10
1082.53175473055
20
-182.596189432334
30
0
11
1096.3881611911
21
-186.596189432334
31
0
0
LINE
8
layer0
10
1096.3881611911
20
-186.596189432334
30
0
11
813.388161191099
21
-431.68137870333
31
0
0
LINE
8
layer0
10
813.388161191099
20
-431.68137870333
30
0
11
799.531754730548
21
-427.68137870333
31
0
0
LINE
8
layer0
10
799.531754730548
20
-427.68137870333
30
0
11
1082.53175473055
21
-182.596189432334
31
0
0
LINE
8
layer0
10
1096.3881611911
20
311.368417743718
30
0
11
1082.53175473055
21
315.368417743718
31
0
0
LINE
8
layer0
10
1082.53175473055
20
315.368417743718
30
0
11
799.531754730548
21
70.283228472722
31
0
0
LINE
8
layer0
10
799.531754730548
20
70.283228472722
30
0
11
813.388161191099
21
66.283228472722
31
0
0
LINE
8
layer0
10
813.388161191099
20
66.283228472722
30
0
11
1096.3881611911
21
311.368417743718
31
0
0
LINE
8
layer0
10
813.388161191099
20
-431.68137870333
30
0
11
1096.3881611911
21
-186.596189432334
31
0
0
LINE
8
layer0
10
1096.3881611911
20
-186.596189432334
30
0
11
1096.3881611911
21
311.368417743718
31
0
0
LINE
8
layer0
10
1096.3881611911
20
311.368417743718
30
0
11
813.388161191099
21
66.283228472722
31
0
0
LINE
8
layer0
10
813.388161191099
20
66.283228472722
30
0
11
813.388161191099
21
-431.68137870333
31
0
0
LINE
8
layer0
10
1082.53175473055
20
-182.596189432334
30
0
11
799.531754730548
21
-427.68137870333
31
0
0
LINE
8
layer0
10
799.531754730548
20
-427.68137870333
30
0
11
799.531754730548
21
70.283228472722
31
0
0
LINE
8
layer0
10
799.531754730548
20
70.283228472722
30
0
11
1082.53175473055
21
315.368417743718
31
0
0
LINE
8
layer0
10
1082.53175473055
20
315.368417743718
30
0
11
1082.53175473055
21
-182.596189432334
31
0
0
LINE
8
layer0
10
799.531754730548
20
-427.68137870333
30
0
11
813.388161191099
21
-431.68137870333
31
0
0
LINE
8
layer0
10
813.388161191099
20
-431.68137870333
30
0
11
813.388161191099
21
66.283228472722
31
0
0
LINE
8
layer0
10
813.388161191099
20
66.283228472722
30
0
11
799.531754730548
21
70.283228472722
31
0
0
LINE
8
layer0
10
799.531754730548
20
70.283228472722
30
0
11
799.531754730548
21
-427.68137870333
31
0
0
LINE
8
layer0
10
1096.3881611911
20
-186.596189432334
30
0
11
1082.53175473055
21
-182.596189432334
31
0
0
LINE
8
layer0
10
1082.53175473055
20
-182.596189432334
30
0
11
1082.53175473055
21
315.368417743718
31
0
0
LINE
8
layer0
10
1082.53175473055
20
315.368417743718
30
0
11
1096.3881611911
21
311.368417743718
31
0
0
LINE
8
layer0
10
1096.3881611911
20
311.368417743718
30
0
11
1096.3881611911
21
-186.596189432334
31
0
0
ENDBLK
0
BLOCK
8
layer0
2
PF_OBJECT25
70
0
10
0
20
0
30
0
0
LINE
8
layer0
10
1145.26224208055
20
-92.544794630147
30
0
11
1143.49447512758
21
-92.8074608789432
31
0
0
LINE
8
layer0
10
1143.49447512758
20
-92.8074608789432
30
0
11
1271.66623488768
21
-129.807460878943
31
0
0
LINE
8
layer0
10
1271.66623488768
20
-129.807460878943
30
0
11
1273.43400184064
21
-129.544794630147
31
0
0
LINE
8
layer0
10
1273.43400184064
20
-129.544794630147
30
0
11
1145.26224208055
21
-92.544794630147
31
0
0
LINE
8
layer0
10
1145.99447512758
20
-94.9725243884043
30
0
11
1145.26224208055
21
-92.544794630147
31
0
0
LINE
8
layer0
10
1145.26224208055
20
-92.544794630147
30
0
11
1273.43400184064
21
-129.544794630147
31
0
0
LINE
8
layer0
10
1273.43400184064
20
-129.544794630147
30
0
11
1274.16623488768
21
-131.972524388404
31
0
0
LINE
8
layer0
10
1274.16623488768
20
-131.972524388404
30
0
11
1145.99447512758
21
-94.9725243884043
31
0
0
LINE
8
layer0
10
1145.26224208055
20
-98.6685189871049
30
0
11
1145.99447512758
21
-94.9725243884043
31
0
0
LINE
8
layer0
10
1145.99447512758
20
-94.9725243884043
30
0
11
1274.16623488768
21
-131.972524388404
31
0
0
LINE
8
layer0
10
1274.16623488768
20
-131.972524388404
30
0
11
1273.43400184064
21
-135.668518987105
31
0
0
LINE
8
layer0
10
1273.43400184064
20
-135.668518987105
30
0
11
1145.26224208055
21
-98.6685189871049
31
0
0
LINE
8
layer0
10
1143.49447512758
20
-101.467714916788
30
0
11
1145.26224208055
21
-98.6685189871049
31
0
0
LINE
8
layer0
10
1145.26224208055
20
-98.6685189871049
30
0
11
1273.43400184064
21
-135.668518987105
31
0
0
LINE
8
layer0
10
1273.43400184064
20
-135.668518987105
30
0
11
1271.66623488768
21
-138.467714916788
31
0
0
LINE
8
layer0
10
1271.66623488768
20
-138.467714916788
30
0
11
1143.49447512758
21
-101.467714916788
31
0
0
LINE
8
layer0
10
1141.72670817462
20
-101.730381165584
30
0
11
1143.49447512758
21
-101.467714916788
31
0
0
LINE
8
layer0
10
1143.49447512758
20
-101.467714916788
30
0
11
1271.66623488768
21
-138.467714916788
31
0
0
LINE
8
layer0
10
1271.66623488768
20
-138.467714916788
30
0
11
1269.89846793471
21
-138.730381165584
31
0
0
LINE
8
layer0
10
1269.89846793471
20
-138.730381165584
30
0
11
1141.72670817462
21
-101.730381165584
31
0
0
LINE
8
layer0
10
1140.99447512758
20
-99.3026514073265
30
0
11
1141.72670817462
21
-101.730381165584
31
0
0
LINE
8
layer0
10
1141.72670817462
20
-101.730381165584
30
0
11
1269.89846793471
21
-138.730381165584
31
0
0
LINE
8
layer0
10
1269.89846793471
20
-138.730381165584
30
0
11
1269.16623488768
21
-136.302651407326
31
0
0
LINE
8
layer0
10
1269.16623488768
20
-136.302651407326
30
0
11
1140.99447512758
21
-99.3026514073265
31
0
0
LINE
8
layer0
10
1141.72670817462
20
-95.6066568086259
30
0
11
1140.99447512758
21
-99.3026514073265
31
0
0
LINE
8
layer0
10
1140.99447512758
20
-99.3026514073265
30
0
11
1269.16623488768
21
-136.302651407326
31
0
0
LINE
8
layer0
10
1269.16623488768
20
-136.302651407326
30
0
11
1269.89846793471
21
-132.606656808626
31
0
0
LINE
8
layer0
10
1269.89846793471
20
-132.606656808626
30
0
11
1141.72670817462
21
-95.6066568086259
31
0
0
LINE
8
layer0
10
1143.49447512758
20
-92.8074608789432
30
0
11
1141.72670817462
21
-95.6066568086259
31
0
0
LINE
8
layer0
10
1141.72670817462
20
-95.6066568086259
30
0
11
1269.89846793471
21
-132.606656808626
31
0
0
LINE
8
layer0
10
1269.89846793471
20
-132.606656808626
30
0
11
1271.66623488768
21
-129.807460878943
31
0
0
LINE
8
layer0
10
1271.66623488768
20
-129.807460878943
30
0
11
1143.49447512758
21
-92.8074608789432
31
0
0
LINE
8
layer0
10
1271.66623488768
20
-129.807460878943
30
0
11
1269.89846793471
21
-132.606656808626
31
0
0
LINE
8
layer0
10
1269.89846793471
20
-132.606656808626
30
0
11
1269.16623488768
21
-136.302651407326
31
0
0
LINE
8
layer0
10
1269.16623488768
20
-136.302651407326
30
0
11
1269.89846793471
21
-138.730381165584
31
0
0
LINE
8
layer0
10
1269.89846793471
20
-138.730381165584
30
0
11
1271.66623488768
21
-138.467714916788
31
0
0
LINE
8
layer0
10
1271.66623488768
20
-138.467714916788
30
0
11
1273.43400184064
21
-135.668518987105
31
0
0
LINE
8
layer0
10
1273.43400184064
20
-135.668518987105
30
0
11
1274.16623488768
21
-131.972524388404
31
0
0
LINE
8
layer0
10
1274.16623488768
20
-131.972524388404
30
0
11
1273.43400184064
21
-129.544794630147
31
0
0
LINE
8
layer0
10
1273.43400184064
20
-129.544794630147
30
0
11
1271.66623488768
21
-129.807460878943
31
0
0
LINE
8
layer0
10
1141.72670817462
20
-95.6066568086259
30
0
11
1143.49447512758
21
-92.8074608789432
31
0
0
LINE
8
layer0
10
1143.49447512758
20
-92.8074608789432
30
0
11
1145.26224208055
21
-92.544794630147
31
0
0
LINE
8
layer0
10
1145.26224208055
20
-92.544794630147
30
0
11
1145.99447512758
21
-94.9725243884043
31
0
0
LINE
8
layer0
10
1145.99447512758
20
-94.9725243884043
30
0
11
1145.26224208055
21
-98.6685189871049
31
0
0
LINE
8
layer0
10
1145.26224208055
20
-98.6685189871049
30
0
11
1143.49447512758
21
-101.467714916788
31
0
0
LINE
8
layer0
10
1143.49447512758
20
-101.467714916788
30
0
11
1141.72670817462
21
-101.730381165584
31
0
0
LINE
8
layer0
10
1141.72670817462
20
-101.730381165584
30
0
11
1140.99447512758
21
-99.3026514073265
31
0
0
LINE
8
layer0
10
1140.99447512758
20
-99.3026514073265
30
0
11
1141.72670817462
21
-95.6066568086259
31
0
0
ENDBLK
0
BLOCK
8
layer0
2
PF_OBJECT26
70
0
10
0
20
0
30
0
0
LINE
8
layer0
10
1170.81498320327
20
-97.8074608789432
30
0
11
1153.49447512758
21
-92.8074608789432
31
0
0
LINE
8
layer0
10
1153.49447512758
20
-92.8074608789432
30
0
11
1153.49447512758
21
-84.1472068410988
31
0
0
LINE
8
layer0
10
1153.49447512758
20
-84.1472068410988
30
0
11
1170.81498320327
21
-89.1472068410988
31
0
0
LINE
8
layer0
10
1170.81498320327
20
-89.1472068410988
30
0
11
1170.81498320327
21
-97.8074608789432
31
0
0
LINE
8
layer0
10
1143.49447512758
20
-101.467714916788
30
0
11
1160.81498320327
21
-106.467714916788
31
0
0
LINE
8
layer0
10
1160.81498320327
20
-106.467714916788
30
0
11
1160.81498320327
21
-97.8074608789432
31
0
0
LINE
8
layer0
10
1160.81498320327
20
-97.8074608789432
30
0
11
1143.49447512758
21
-92.8074608789432
31
0
0
LINE
8
layer0
10
1143.49447512758
20
-92.8074608789432
30
0
11
1143.49447512758
21
-101.467714916788
31
0
0
LINE
8
layer0
10
1153.49447512758
20
-92.8074608789432
30
0
11
1143.49447512758
21
-101.467714916788
31
0
0
LINE
8
layer0
10
1143.49447512758
20
-101.467714916788
30
0
11
1143.49447512758
21
-92.8074608789432
31
0
0
LINE
8
layer0
10
1143.49447512758
20
-92.8074608789432
30
0
11
1153.49447512758
21
-84.1472068410988
31
0
0
LINE
8
layer0
10
1153.49447512758
20
-84.1472068410988
30
0
11
1153.49447512758
21
-92.8074608789432
31
0
0
LINE
8
layer0
10
1160.81498320327
20
-106.467714916788
30
0
11
1170.81498320327
21
-97.8074608789432
31
0
0
LINE
8
layer0
10
1170.81498320327
20
-97.8074608789432
30
0
11
1170.81498320327
21
-89.1472068410988
31
0
0
LINE
8
layer0
10
1170.81498320327
20
-89.1472068410988
30
0
11
1160.81498320327
21
-97.8074608789432
31
0
0
LINE
8
layer0
10
1160.81498320327
20
-97.8074608789432
30
0
11
1160.81498320327
21
-106.467714916788
31
0
0
LINE
8
layer0
10
1170.81498320327
20
-89.1472068410988
30
0
11
1153.49447512758
21
-84.1472068410988
31
0
0
LINE
8
layer0
10
1153.49447512758
20
-84.1472068410988
30
0
11
1143.49447512758
21
-92.8074608789432
31
0
0
LINE
8
layer0
10
1143.49447512758
20
-92.8074608789432
30
0
11
1160.81498320327
21
-97.8074608789432
31
0
0
LINE
8
layer0
10
1160.81498320327
20
-97.8074608789432
30
0
11
1170.81498320327
21
-89.1472068410988
31
0
0
LINE
8
layer0
10
1153.49447512758
20
-92.8074608789432
30
0
11
1170.81498320327
21
-97.8074608789432
31
0
0
LINE
8
layer0
10
1170.81498320327
20
-97.8074608789432
30
0
11
1160.81498320327
21
-106.467714916788
31
0
0
LINE
8
layer0
10
1160.81498320327
20
-106.467714916788
30
0
11
1143.49447512758
21
-101.467714916788
31
0
0
LINE
8
layer0
10
1143.49447512758
20
-101.467714916788
30
0
11
1153.49447512758
21
-92.8074608789432
31
0
0
ENDBLK
0
BLOCK
8
layer0
2
PF_OBJECT27
70
0
10
0
20
0
30
0
0
LINE
8
layer0
10
1281.66623488768
20
-129.807460878943
30
0
11
1264.34572681199
21
-124.807460878943
31
0
0
LINE
8
layer0
10
1264.34572681199
20
-124.807460878943
30
0
11
1264.34572681199
21
-116.147206841099
31
0
0
LINE
8
layer0
10
1264.34572681199
20
-116.147206841099
30
0
11
1281.66623488768
21
-121.147206841099
31
0
0
LINE
8
layer0
10
1281.66623488768
20
-121.147206841099
30
0
11
1281.66623488768
21
-129.807460878943
31
0
0
LINE
8
layer0
10
1254.34572681199
20
-133.467714916788
30
0
11
1271.66623488768
21
-138.467714916788
31
0
0
LINE
8
layer0
10
1271.66623488768
20
-138.467714916788
30
0
11
1271.66623488768
21
-129.807460878943
31
0
0
LINE
8
layer0
10
1271.66623488768
20
-129.807460878943
30
0
11
1254.34572681199
21
-124.807460878943
31
0
0
LINE
8
layer0
10
1254.34572681199
20
-124.807460878943
30
0
11
1254.34572681199
21
-133.467714916788
31
0
0
LINE
8
layer0
10
1264.34572681199
20
-124.807460878943
30
0
11
1254.34572681199
21
-133.467714916788
31
0
0
LINE
8
layer0
10
1254.34572681199
20
-133.467714916788
30
0
11
1254.34572681199
21
-124.807460878943
31
0
0
LINE
8
layer0
10
1254.34572681199
20
-124.807460878943
30
0
11
1264.34572681199
21
-116.147206841099
31
0
0
LINE
8
layer0
10
1264.34572681199
20
-116.147206841099
30
0
11
1264.34572681199
21
-124.807460878943
31
0
0
LINE
8
layer0
10
1271.66623488768
20
-138.467714916788
30
0
11
1281.66623488768
21
-129.807460878943
31
0
0
LINE
8
layer0
10
1281.66623488768
20
-129.807460878943
30
0
11
1281.66623488768
21
-121.147206841099
31
0
0
LINE
8
layer0
10
1281.66623488768
20
-121.147206841099
30
0
11
1271.66623488768
21
-129.807460878943
31
0
0
LINE
8
layer0
10
1271.66623488768
20
-129.807460878943
30
0
11
1271.66623488768
21
-138.467714916788
31
0
0
LINE
8
layer0
10
1281.66623488768
20
-121.147206841099
30
0
11
1264.34572681199
21
-116.147206841099
31
0
0
LINE
8
layer0
10
1264.34572681199
20
-116.147206841099
30
0
11
1254.34572681199
21
-124.807460878943
31
0
0
LINE
8
layer0
10
1254.34572681199
20
-124.807460878943
30
0
11
1271.66623488768
21
-129.807460878943
31
0
0
LINE
8
layer0
10
1271.66623488768
20
-129.807460878943
30
0
11
1281.66623488768
21
-121.147206841099
31
0
0
LINE
8
layer0
10
1264.34572681199
20
-124.807460878943
30
0
11
1281.66623488768
21
-129.807460878943
31
0
0
LINE
8
layer0
10
1281.66623488768
20
-129.807460878943
30
0
11
1271.66623488768
21
-138.467714916788
31
0
0
LINE
8
layer0
10
1271.66623488768
20
-138.467714916788
30
0
11
1254.34572681199
21
-133.467714916788
31
0
0
LINE
8
layer0
10
1254.34572681199
20
-133.467714916788
30
0
11
1264.34572681199
21
-124.807460878943
31
0
0
ENDBLK
0
BLOCK
8
layer0
2
PF_OBJECT28
70
0
10
0
20
0
30
0
0
LINE
8
layer0
10
1315.04892078986
20
-575.632340597654
30
0
11
800.629830941902
21
-427.132340597654
31
0
0
LINE
8
layer0
10
800.629830941902
20
-427.132340597654
30
0
11
800.629830941902
21
62.1720125405542
31
0
0
LINE
8
layer0
10
800.629830941902
20
62.1720125405542
30
0
11
1315.04892078986
21
-86.3279874594458
31
0
0
LINE
8
layer0
10
1315.04892078986
20
-86.3279874594458
30
0
11
1315.04892078986
21
-575.632340597654
31
0
0
LINE
8
layer0
10
790.629830941902
20
-435.792594635498
30
0
11
1305.04892078986
21
-584.292594635498
31
0
0
LINE
8
layer0
10
1305.04892078986
20
-584.292594635498
30
0
11
1305.04892078986
21
-94.9882414972901
31
0
0
LINE
8
layer0
10
1305.04892078986
20
-94.9882414972901
30
0
11
790.629830941902
21
53.5117585027098
31
0
0
LINE
8
layer0
10
790.629830941902
20
53.5117585027098
30
0
11
790.629830941902
21
-435.792594635498
31
0
0
LINE
8
layer0
10
800.629830941902
20
-427.132340597654
30
0
11
790.629830941902
21
-435.792594635498
31
0
0
LINE
8
layer0
10
790.629830941902
20
-435.792594635498
30
0
11
790.629830941902
21
53.5117585027098
31
0
0
LINE
8
layer0
10
790.629830941902
20
53.5117585027098
30
0
11
800.629830941902
21
62.1720125405542
31
0
0
LINE
8
layer0
10
800.629830941902
20
62.1720125405542
30
0
11
800.629830941902
21
-427.132340597654
31
0
0
LINE
8
layer0
10
1305.04892078986
20
-584.292594635498
30
0
11
1315.04892078986
21
-575.632340597654
31
0
0
LINE
8
layer0
10
1315.04892078986
20
-575.632340597654
30
0
11
1315.04892078986
21
-86.3279874594458
31
0
0
LINE
8
layer0
10
1315.04892078986
20
-86.3279874594458
30
0
11
1305.04892078986
21
-94.9882414972901
31
0
0
LINE
8
layer0
10
1305.04892078986
20
-94.9882414972901
30
0
11
1305.04892078986
21
-584.292594635498
31
0
0
LINE
8
layer0
10
1315.04892078986
20
-86.3279874594458
30
0
11
800.629830941902
21
62.1720125405542
31
0
0
LINE
8
layer0
10
800.629830941902
20
62.1720125405542
30
0
11
790.629830941902
21
53.5117585027098
31
0
0
LINE
8
layer0
10
790.629830941902
20
53.5117585027098
30
0
11
1305.04892078986
21
-94.9882414972901
31
0
0
LINE
8
layer0
10
1305.04892078986
20
-94.9882414972901
30
0
11
1315.04892078986
21
-86.3279874594458
31
0
0
LINE
8
layer0
10
800.629830941902
20
-427.132340597654
30
0
11
1315.04892078986
21
-575.632340597654
31
0
0
LINE
8
layer0
10
1315.04892078986
20
-575.632340597654
30
0
11
1305.04892078986
21
-584.292594635498
31
0
0
LINE
8
layer0
10
1305.04892078986
20
-584.292594635498
30
0
11
790.629830941902
21
-435.792594635498
31
0
0
LINE
8
layer0
10
790.629830941902
20
-435.792594635498
30
0
11
800.629830941902
21
-427.132340597654
31
0
0
ENDBLK
0
BLOCK
8
layer0
2
PF_OBJECT29
70
0
10
0
20
0
30
0
0
LINE
8
layer0
10
1325.39552606771
20
-144.544794630147
30
0
11
1323.62775911474
21
-144.807460878943
31
0
0
LINE
8
layer0
10
1323.62775911474
20
-144.807460878943
30
0
11
1451.79951887484
21
-181.807460878943
31
0
0
LINE
8
layer0
10
1451.79951887484
20
-181.807460878943
30
0
11
1453.56728582781
21
-181.544794630147
31
0
0
LINE
8
layer0
10
1453.56728582781
20
-181.544794630147
30
0
11
1325.39552606771
21
-144.544794630147
31
0
0
LINE
8
layer0
10
1326.12775911474
20
-146.972524388404
30
0
11
1325.39552606771
21
-144.544794630147
31
0
0
LINE
8
layer0
10
1325.39552606771
20
-144.544794630147
30
0
11
1453.56728582781
21
-181.544794630147
31
0
0
LINE
8
layer0
10
1453.56728582781
20
-181.544794630147
30
0
11
1454.29951887484
21
-183.972524388404
31
0
0
LINE
8
layer0
10
1454.29951887484
20
-183.972524388404
30
0
11
1326.12775911474
21
-146.972524388404
31
0
0
LINE
8
layer0
10
1325.39552606771
20
-150.668518987105
30
0
11
1326.12775911474
21
-146.972524388404
31
0
0
LINE
8
layer0
10
1326.12775911474
20
-146.972524388404
30
0
11
1454.29951887484
21
-183.972524388404
31
0
0
LINE
8
layer0
10
1454.29951887484
20
-183.972524388404
30
0
11
1453.56728582781
21
-187.668518987105
31
0
0
LINE
8
layer0
10
1453.56728582781
20
-187.668518987105
30
0
11
1325.39552606771
21
-150.668518987105
31
0
0
LINE
8
layer0
10
1323.62775911474
20
-153.467714916788
30
0
11
1325.39552606771
21
-150.668518987105
31
0
0
LINE
8
layer0
10
1325.39552606771
20
-150.668518987105
30
0
11
1453.56728582781
21
-187.668518987105
31
0
0
LINE
8
layer0
10
1453.56728582781
20
-187.668518987105
30
0
11
1451.79951887484
21
-190.467714916788
31
0
0
LINE
8
layer0
10
1451.79951887484
20
-190.467714916788
30
0
11
1323.62775911474
21
-153.467714916788
31
0
0
LINE
8
layer0
10
1321.85999216178
20
-153.730381165584
30
0
11
1323.62775911474
21
-153.467714916788
31
0
0
LINE
8
layer0
10
1323.62775911474
20
-153.467714916788
30
0
11
1451.79951887484
21
-190.467714916788
31
0
0
LINE
8
layer0
10
1451.79951887484
20
-190.467714916788
30
0
11
1450.03175192188
21
-190.730381165584
31
0
0
LINE
8
layer0
10
1450.03175192188
20
-190.730381165584
30
0
11
1321.85999216178
21
-153.730381165584
31
0
0
LINE
8
layer0
10
1321.12775911474
20
-151.302651407326
30
0
11
1321.85999216178
21
-153.730381165584
31
0
0
LINE
8
layer0
10
1321.85999216178
20
-153.730381165584
30
0
11
1450.03175192188
21
-190.730381165584
31
0
0
LINE
8
layer0
10
1450.03175192188
20
-190.730381165584
30
0
11
1449.29951887484
21
-188.302651407326
31
0
0
LINE
8
layer0
10
1449.29951887484
20
-188.302651407326
30
0
11
1321.12775911474
21
-151.302651407326
31
0
0
LINE
8
layer0
10
1321.85999216178
20
-147.606656808626
30
0
11
1321.12775911474
21
-151.302651407326
31
0
0
LINE
8
layer0
10
1321.12775911474
20
-151.302651407326
30
0
11
1449.29951887484
21
-188.302651407326
31
0
0
LINE
8
layer0
10
1449.29951887484
20
-188.302651407326
30
0
11
1450.03175192188
21
-184.606656808626
31
0
0
LINE
8
layer0
10
1450.03175192188
20
-184.606656808626
30
0
11
1321.85999216178
21
-147.606656808626
31
0
0
LINE
8
layer0
10
1323.62775911474
20
-144.807460878943
30
0
11
1321.85999216178
21
-147.606656808626
31
0
0
LINE
8
layer0
10
1321.85999216178
20
-147.606656808626
30
0
11
1450.03175192188
21
-184.606656808626
31
0
0
LINE
8
layer0
10
1450.03175192188
20
-184.606656808626
30
0
11
1451.79951887484
21
-181.807460878943
31
0
0
LINE
8
layer0
10
1451.79951887484
20
-181.807460878943
30
0
11
1323.62775911474
21
-144.807460878943
31
0
0
LINE
8
layer0
10
1451.79951887484
20
-181.807460878943
30
0
11
1450.03175192188
21
-184.606656808626
31
0
0
LINE
8
layer0
10
1450.03175192188
20
-184.606656808626
30
0
11
1449.29951887484
21
-188.302651407326
31
0
0
LINE
8
layer0
10
1449.29951887484
20
-188.302651407326
30
0
11
1450.03175192188
21
-190.730381165584
31
0
0
LINE
8
layer0
10
1450.03175192188
20
-190.730381165584
30
0
11
1451.79951887484
21
-190.467714916788
31
0
0
LINE
8
layer0
10
1451.79951887484
20
-190.467714916788
30
0
11
1453.56728582781
21
-187.668518987105
31
0
0
LINE
8
layer0
10
1453.56728582781
20
-187.668518987105
30
0
11
1454.29951887484
21
-183.972524388404
31
0
0
LINE
8
layer0
10
1454.29951887484
20
-183.972524388404
30
0
11
1453.56728582781
21
-181.544794630147
31
0
0
LINE
8
layer0
10
1453.56728582781
20
-181.544794630147
30
0
11
1451.79951887484
21
-181.807460878943
31
0
0
LINE
8
layer0
10
1321.85999216178
20
-147.606656808626
30
0
11
1323.62775911474
21
-144.807460878943
31
0
0
LINE
8
layer0
10
1323.62775911474
20
-144.807460878943
30
0
11
1325.39552606771
21
-144.544794630147
31
0
0
LINE
8
layer0
10
1325.39552606771
20
-144.544794630147
30
0
11
1326.12775911474
21
-146.972524388404
31
0
0
LINE
8
layer0
10
1326.12775911474
20
-146.972524388404
30
0
11
1325.39552606771
21
-150.668518987105
31
0
0
LINE
8
layer0
10
1325.39552606771
20
-150.668518987105
30
0
11
1323.62775911474
21
-153.467714916788
31
0
0
LINE
8
layer0
10
1323.62775911474
20
-153.467714916788
30
0
11
1321.85999216178
21
-153.730381165584
31
0
0
LINE
8
layer0
10
1321.85999216178
20
-153.730381165584
30
0
11
1321.12775911474
21
-151.302651407326
31
0
0
LINE
8
layer0
10
1321.12775911474
20
-151.302651407326
30
0
11
1321.85999216178
21
-147.606656808626
31
0
0
ENDBLK
0
BLOCK
8
layer0
2
PF_OBJECT30
70
0
10
0
20
0
30
0
0
LINE
8
layer0
10
1350.94826719043
20
-149.807460878943
30
0
11
1333.62775911474
21
-144.807460878943
31
0
0
LINE
8
layer0
10
1333.62775911474
20
-144.807460878943
30
0
11
1333.62775911474
21
-136.147206841099
31
0
0
LINE
8
layer0
10
1333.62775911474
20
-136.147206841099
30
0
11
1350.94826719043
21
-141.147206841099
31
0
0
LINE
8
layer0
10
1350.94826719043
20
-141.147206841099
30
0
11
1350.94826719043
21
-149.807460878943
31
0
0
LINE
8
layer0
10
1323.62775911474
20
-153.467714916788
30
0
11
1340.94826719043
21
-158.467714916788
31
0
0
LINE
8
layer0
10
1340.94826719043
20
-158.467714916788
30
0
11
1340.94826719043
21
-149.807460878943
31
0
0
LINE
8
layer0
10
1340.94826719043
20
-149.807460878943
30
0
11
1323.62775911474
21
-144.807460878943
31
0
0
LINE
8
layer0
10
1323.62775911474
20
-144.807460878943
30
0
11
1323.62775911474
21
-153.467714916788
31
0
0
LINE
8
layer0
10
1333.62775911474
20
-144.807460878943
30
0
11
1323.62775911474
21
-153.467714916788
31
0
0
LINE
8
layer0
10
1323.62775911474
20
-153.467714916788
30
0
11
1323.62775911474
21
-144.807460878943
31
0
0
LINE
8
layer0
10
1323.62775911474
20
-144.807460878943
30
0
11
1333.62775911474
21
-136.147206841099
31
0
0
LINE
8
layer0
10
1333.62775911474
20
-136.147206841099
30
0
11
1333.62775911474
21
-144.807460878943
31
0
0
LINE
8
layer0
10
1340.94826719043
20
-158.467714916788
30
0
11
1350.94826719043
21
-149.807460878943
31
0
0
LINE
8
layer0
10
1350.94826719043
20
-149.807460878943
30
0
11
1350.94826719043
21
-141.147206841099
31
0
0
LINE
8
layer0
10
1350.94826719043
20
-141.147206841099
30
0
11
1340.94826719043
21
-149.807460878943
31
0
0
LINE
8
layer0
10
1340.94826719043
20
-149.807460878943
30
0
11
1340.94826719043
21
-158.467714916788
31
0
0
LINE
8
layer0
10
1350.94826719043
20
-141.147206841099
30
0
11
1333.62775911474
21
-136.147206841099
31
0
0
LINE
8
layer0
10
1333.62775911474
20
-136.147206841099
30
0
11
1323.62775911474
21
-144.807460878943
31
0
0
LINE
8
layer0
10
1323.62775911474
20
-144.807460878943
30
0
11
1340.94826719043
21
-149.807460878943
31
0
0
LINE
8
layer0
10
1340.94826719043
20
-149.807460878943
30
0
11
1350.94826719043
21
-141.147206841099
31
0
0
LINE
8
layer0
10
1333.62775911474
20
-144.807460878943
30
0
11
1350.94826719043
21
-149.807460878943
31
0
0
LINE
8
layer0
10
1350.94826719043
20
-149.807460878943
30
0
11
1340.94826719043
21
-158.467714916788
31
0
0
LINE
8
layer0
10
1340.94826719043
20
-158.467714916788
30
0
11
1323.62775911474
21
-153.467714916788
31
0
0
LINE
8
layer0
10
1323.62775911474
20
-153.467714916788
30
0
11
1333.62775911474
21
-144.807460878943
31
0
0
ENDBLK
0
BLOCK
8
layer0
2
PF_OBJECT31
70
0
10
0
20
0
30
0
0
LINE
8
layer0
10
1461.79951887484
20
-181.807460878943
30
0
11
1444.47901079915
21
-176.807460878943
31
0
0
LINE
8
layer0
10
1444.47901079915
20
-176.807460878943
30
0
11
1444.47901079915
21
-168.147206841099
31
0
0
LINE
8
layer0
10
1444.47901079915
20
-168.147206841099
30
0
11
1461.79951887484
21
-173.147206841099
31
0
0
LINE
8
layer0
10
1461.79951887484
20
-173.147206841099
30
0
11
1461.79951887484
21
-181.807460878943
31
0
0
LINE
8
layer0
10
1434.47901079915
20
-185.467714916788
30
0
11
1451.79951887484
21
-190.467714916788
31
0
0
LINE
8
layer0
10
1451.79951887484
20
-190.467714916788
30
0
11
1451.79951887484
21
-181.807460878943
31
0
0
LINE
8
layer0
10
1451.79951887484
20
-181.807460878943
30
0
11
1434.47901079915
21
-176.807460878943
31
0
0
LINE
8
layer0
10
1434.47901079915
20
-176.807460878943
30
0
11
1434.47901079915
21
-185.467714916788
31
0
0
LINE
8
layer0
10
1444.47901079915
20
-176.807460878943
30
0
11
1434.47901079915
21
-185.467714916788
31
0
0
LINE
8
layer0
10
1434.47901079915
20
-185.467714916788
30
0
11
1434.47901079915
21
-176.807460878943
31
0
0
LINE
8
layer0
10
1434.47901079915
20
-176.807460878943
30
0
11
1444.47901079915
21
-168.147206841099
31
0
0
LINE
8
layer0
10
1444.47901079915
20
-168.147206841099
30
0
11
1444.47901079915
21
-176.807460878943
31
0
0
LINE
8
layer0
10
1451.79951887484
20
-190.467714916788
30
0
11
1461.79951887484
21
-181.807460878943
31
0
0
LINE
8
layer0
10
1461.79951887484
20
-181.807460878943
30
0
11
1461.79951887484
21
-173.147206841099
31
0
0
LINE
8
layer0
10
1461.79951887484
20
-173.147206841099
30
0
11
1451.79951887484
21
-181.807460878943
31
0
0
LINE
8
layer0
10
1451.79951887484
20
-181.807460878943
30
0
11
1451.79951887484
21
-190.467714916788
31
0
0
LINE
8
layer0
10
1461.79951887484
20
-173.147206841099
30
0
11
1444.47901079915
21
-168.147206841099
31
0
0
LINE
8
layer0
10
1444.47901079915
20
-168.147206841099
30
0
11
1434.47901079915
21
-176.807460878943
31
0
0
LINE
8
layer0
10
1434.47901079915
20
-176.807460878943
30
0
11
1451.79951887484
21
-181.807460878943
31
0
0
LINE
8
layer0
10
1451.79951887484
20
-181.807460878943
30
0
11
1461.79951887484
21
-173.147206841099
31
0
0
LINE
8
layer0
10
1444.47901079915
20
-176.807460878943
30
0
11
1461.79951887484
21
-181.807460878943
31
0
0
LINE
8
layer0
10
1461.79951887484
20
-181.807460878943
30
0
11
1451.79951887484
21
-190.467714916788
31
0
0
LINE
8
layer0
10
1451.79951887484
20
-190.467714916788
30
0
11
1434.47901079915
21
-185.467714916788
31
0
0
LINE
8
layer0
10
1434.47901079915
20
-185.467714916788
30
0
11
1444.47901079915
21
-176.807460878943
31
0
0
ENDBLK
0
BLOCK
8
layer0
2
PF_OBJECT32
70
0
10
0
20
0
30
0
0
LINE
8
layer0
10
1834.66416306052
20
-725.632340597654
30
0
11
1320.24507321256
21
-577.132340597654
31
0
0
LINE
8
layer0
10
1320.24507321256
20
-577.132340597654
30
0
11
1320.24507321256
21
-87.8279874594458
31
0
0
LINE
8
layer0
10
1320.24507321256
20
-87.8279874594458
30
0
11
1834.66416306052
21
-236.327987459446
31
0
0
LINE
8
layer0
10
1834.66416306052
20
-236.327987459446
30
0
11
1834.66416306052
21
-725.632340597654
31
0
0
LINE
8
layer0
10
1310.24507321256
20
-585.792594635498
30
0
11
1824.66416306052
21
-734.292594635498
31
0
0
LINE
8
layer0
10
1824.66416306052
20
-734.292594635498
30
0
11
1824.66416306052
21
-244.98824149729
31
0
0
LINE
8
layer0
10
1824.66416306052
20
-244.98824149729
30
0
11
1310.24507321256
21
-96.4882414972901
31
0
0
LINE
8
layer0
10
1310.24507321256
20
-96.4882414972901
30
0
11
1310.24507321256
21
-585.792594635498
31
0
0
LINE
8
layer0
10
1320.24507321256
20
-577.132340597654
30
0
11
1310.24507321256
21
-585.792594635498
31
0
0
LINE
8
layer0
10
1310.24507321256
20
-585.792594635498
30
0
11
1310.24507321256
21
-96.4882414972901
31
0
0
LINE
8
layer0
10
1310.24507321256
20
-96.4882414972901
30
0
11
1320.24507321256
21
-87.8279874594458
31
0
0
LINE
8
layer0
10
1320.24507321256
20
-87.8279874594458
30
0
11
1320.24507321256
21
-577.132340597654
31
0
0
LINE
8
layer0
10
1824.66416306052
20
-734.292594635498
30
0
11
1834.66416306052
21
-725.632340597654
31
0
0
LINE
8
layer0
10
1834.66416306052
20
-725.632340597654
30
0
11
1834.66416306052
21
-236.327987459446
31
0
0
LINE
8
layer0
10
1834.66416306052
20
-236.327987459446
30
0
11
1824.66416306052
21
-244.98824149729
31
0
0
LINE
8
layer0
10
1824.66416306052
20
-244.98824149729
30
0
11
1824.66416306052
21
-734.292594635498
31
0
0
LINE
8
layer0
10
1834.66416306052
20
-236.327987459446
30
0
11
1320.24507321256
21
-87.8279874594458
31
0
0
LINE
8
layer0
10
1320.24507321256
20
-87.8279874594458
30
0
11
1310.24507321256
21
-96.4882414972901
31
0
0
LINE
8
layer0
10
1310.24507321256
20
-96.4882414972901
30
0
11
1824.66416306052
21
-244.98824149729
31
0
0
LINE
8
layer0
10
1824.66416306052
20
-244.98824149729
30
0
11
1834.66416306052
21
-236.327987459446
31
0
0
LINE
8
layer0
10
1320.24507321256
20
-577.132340597654
30
0
11
1834.66416306052
21
-725.632340597654
31
0
0
LINE
8
layer0
10
1834.66416306052
20
-725.632340597654
30
0
11
1824.66416306052
21
-734.292594635498
31
0
0
LINE
8
layer0
10
1824.66416306052
20
-734.292594635498
30
0
11
1310.24507321256
21
-585.792594635498
31
0
0
LINE
8
layer0
10
1310.24507321256
20
-585.792594635498
30
0
11
1320.24507321256
21
-577.132340597654
31
0
0
ENDBLK
0
BLOCK
8
layer0
2
PF_OBJECT33
70
0
10
0
20
0
30
0
0
LINE
8
layer0
10
1110.47404107115
20
-378.301270189222
30
0
11
1075.83302491977
21
-368.301270189222
31
0
0
LINE
8
layer0
10
1075.83302491977
20
-368.301270189222
30
0
11
1075.83302491977
21
-238.397459621556
31
0
0
LINE
8
layer0
10
1075.83302491977
20
-238.397459621556
30
0
11
1110.47404107115
21
-248.397459621556
31
0
0
LINE
8
layer0
10
1110.47404107115
20
-248.397459621556
30
0
11
1110.47404107115
21
-378.301270189222
31
0
0
LINE
8
layer0
10
1055.83302491977
20
-385.621778264911
30
0
11
1090.47404107115
21
-395.621778264911
31
0
0
LINE
8
layer0
10
1090.47404107115
20
-395.621778264911
30
0
11
1090.47404107115
21
-265.717967697245
31
0
0
LINE
8
layer0
10
1090.47404107115
20
-265.717967697245
30
0
11
1055.83302491977
21
-255.717967697245
31
0
0
LINE
8
layer0
10
1055.83302491977
20
-255.717967697245
30
0
11
1055.83302491977
21
-385.621778264911
31
0
0
LINE
8
layer0
10
1075.83302491977
20
-368.301270189222
30
0
11
1055.83302491977
21
-385.621778264911
31
0
0
LINE
8
layer0
10
1055.83302491977
20
-385.621778264911
30
0
11
1055.83302491977
21
-255.717967697245
31
0
0
LINE
8
layer0
10
1055.83302491977
20
-255.717967697245
30
0
11
1075.83302491977
21
-238.397459621556
31
0
0
LINE
8
layer0
10
1075.83302491977
20
-238.397459621556
30
0
11
1075.83302491977
21
-368.301270189222
31
0
0
LINE
8
layer0
10
1090.47404107115
20
-395.621778264911
30
0
11
1110.47404107115
21
-378.301270189222
31
0
0
LINE
8
layer0
10
1110.47404107115
20
-378.301270189222
30
0
11
1110.47404107115
21
-248.397459621556
31
0
0
LINE
8
layer0
10
1110.47404107115
20
-248.397459621556
30
0
11
1090.47404107115
21
-265.717967697245
31
0
0
LINE
8
layer0
10
1090.47404107115
20
-265.717967697245
30
0
11
1090.47404107115
21
-395.621778264911
31
0
0
LINE
8
layer0
10
1110.47404107115
20
-248.397459621556
30
0
11
1075.83302491977
21
-238.397459621556
31
0
0
LINE
8
layer0
10
1075.83302491977
20
-238.397459621556
30
0
11
1055.83302491977
21
-255.717967697245
31
0
0
LINE
8
layer0
10
1055.83302491977
20
-255.717967697245
30
0
11
1090.47404107115
21
-265.717967697245
31
0
0
LINE
8
layer0
10
1090.47404107115
20
-265.717967697245
30
0
11
1110.47404107115
21
-248.397459621556
31
0
0
LINE
8
layer0
10
1075.83302491977
20
-368.301270189222
30
0
11
1110.47404107115
21
-378.301270189222
31
0
0
LINE
8
layer0
10
1110.47404107115
20
-378.301270189222
30
0
11
1090.47404107115
21
-395.621778264911
31
0
0
LINE
8
layer0
10
1090.47404107115
20
-395.621778264911
30
0
11
1055.83302491977
21
-385.621778264911
31
0
0
LINE
8
layer0
10
1055.83302491977
20
-385.621778264911
30
0
11
1075.83302491977
21
-368.301270189222
31
0
0
ENDBLK
0
BLOCK
8
layer0
2
PF_OBJECT34
70
0
10
0
20
0
30
0
0
LINE
8
layer0
10
952.474041071148
20
-515.133283987163
30
0
11
917.83302491977
21
-505.133283987163
31
0
0
LINE
8
layer0
10
917.83302491977
20
-505.133283987163
30
0
11
917.83302491977
21
-375.229473419497
31
0
0
LINE
8
layer0
10
917.83302491977
20
-375.229473419497
30
0
11
952.474041071148
21
-385.229473419497
31
0
0
LINE
8
layer0
10
952.474041071148
20
-385.229473419497
30
0
11
952.474041071148
21
-515.133283987163
31
0
0
LINE
8
layer0
10
897.83302491977
20
-522.453792062852
30
0
11
932.474041071148
21
-532.453792062852
31
0
0
LINE
8
layer0
10
932.474041071148
20
-532.453792062852
30
0
11
932.474041071148
21
-402.549981495186
31
0
0
LINE
8
layer0
10
932.474041071148
20
-402.549981495186
30
0
11
897.83302491977
21
-392.549981495186
31
0
0
LINE
8
layer0
10
897.83302491977
20
-392.549981495186
30
0
11
897.83302491977
21
-522.453792062852
31
0
0
LINE
8
layer0
10
917.83302491977
20
-505.133283987163
30
0
11
897.83302491977
21
-522.453792062852
31
0
0
LINE
8
layer0
10
897.83302491977
20
-522.453792062852
30
0
11
897.83302491977
21
-392.549981495186
31
0
0
LINE
8
layer0
10
897.83302491977
20
-392.549981495186
30
0
11
917.83302491977
21
-375.229473419497
31
0
0
LINE
8
layer0
10
917.83302491977
20
-375.229473419497
30
0
11
917.83302491977
21
-505.133283987163
31
0
0
LINE
8
layer0
10
932.474041071148
20
-532.453792062852
30
0
11
952.474041071148
21
-515.133283987163
31
0
0
LINE
8
layer0
10
952.474041071148
20
-515.133283987163
30
0
11
952.474041071148
21
-385.229473419497
31
0
0
LINE
8
layer0
10
952.474041071148
20
-385.229473419497
30
0
11
932.474041071148
21
-402.549981495186
31
0
0
LINE
8
layer0
10
932.474041071148
20
-402.549981495186
30
0
11
932.474041071148
21
-532.453792062852
31
0
0
LINE
8
layer0
10
952.474041071148
20
-385.229473419497
30
0
11
917.83302491977
21
-375.229473419497
31
0
0
LINE
8
layer0
10
917.83302491977
20
-375.229473419497
30
0
11
897.83302491977
21
-392.549981495186
31
0
0
LINE
8
layer0
10
897.83302491977
20
-392.549981495186
30
0
11
932.474041071148
21
-402.549981495186
31
0
0
LINE
8
layer0
10
932.474041071148
20
-402.549981495186
30
0
11
952.474041071148
21
-385.229473419497
31
0
0
LINE
8
layer0
10
917.83302491977
20
-505.133283987163
30
0
11
952.474041071148
21
-515.133283987163
31
0
0
LINE
8
layer0
10
952.474041071148
20
-515.133283987163
30
0
11
932.474041071148
21
-532.453792062852
31
0
0
LINE
8
layer0
10
932.474041071148
20
-532.453792062852
30
0
11
897.83302491977
21
-522.453792062852
31
0
0
LINE
8
layer0
10
897.83302491977
20
-522.453792062852
30
0
11
917.83302491977
21
-505.133283987163
31
0
0
ENDBLK
0
BLOCK
8
layer0
2
PF_OBJECT35
70
0
10
0
20
0
30
0
0
LINE
8
layer0
10
1411.4675050769
20
-647.633283987163
30
0
11
1376.82648892552
21
-637.633283987163
31
0
0
LINE
8
layer0
10
1376.82648892552
20
-637.633283987163
30
0
11
1376.82648892552
21
-507.729473419497
31
0
0
LINE
8
layer0
10
1376.82648892552
20
-507.729473419497
30
0
11
1411.4675050769
21
-517.729473419497
31
0
0
LINE
8
layer0
10
1411.4675050769
20
-517.729473419497
30
0
11
1411.4675050769
21
-647.633283987163
31
0
0
LINE
8
layer0
10
1356.82648892552
20
-654.953792062852
30
0
11
1391.4675050769
21
-664.953792062852
31
0
0
LINE
8
layer0
10
1391.4675050769
20
-664.953792062852
30
0
11
1391.4675050769
21
-535.049981495186
31
0
0
LINE
8
layer0
10
1391.4675050769
20
-535.049981495186
30
0
11
1356.82648892552
21
-525.049981495186
31
0
0
LINE
8
layer0
10
1356.82648892552
20
-525.049981495186
30
0
11
1356.82648892552
21
-654.953792062852
31
0
0
LINE
8
layer0
10
1376.82648892552
20
-637.633283987163
30
0
11
1356.82648892552
21
-654.953792062852
31
0
0
LINE
8
layer0
10
1356.82648892552
20
-654.953792062852
30
0
11
1356.82648892552
21
-525.049981495186
31
0
0
LINE
8
layer0
10
1356.82648892552
20
-525.049981495186
30
0
11
1376.82648892552
21
-507.729473419497
31
0
0
LINE
8
layer0
10
1376.82648892552
20
-507.729473419497
30
0
11
1376.82648892552
21
-637.633283987163
31
0
0
LINE
8
layer0
10
1391.4675050769
20
-664.953792062852
30
0
11
1411.4675050769
21
-647.633283987163
31
0
0
LINE
8
layer0
10
1411.4675050769
20
-647.633283987163
30
0
11
1411.4675050769
21
-517.729473419497
31
0
0
LINE
8
layer0
10
1411.4675050769
20
-517.729473419497
30
0
11
1391.4675050769
21
-535.049981495186
31
0
0
LINE
8
layer0
10
1391.4675050769
20
-535.049981495186
30
0
11
1391.4675050769
21
-664.953792062852
31
0
0
LINE
8
layer0
10
1411.4675050769
20
-517.729473419497
30
0
11
1376.82648892552
21
-507.729473419497
31
0
0
LINE
8
layer0
10
1376.82648892552
20
-507.729473419497
30
0
11
1356.82648892552
21
-525.049981495186
31
0
0
LINE
8
layer0
10
1356.82648892552
20
-525.049981495186
30
0
11
1391.4675050769
21
-535.049981495186
31
0
0
LINE
8
layer0
10
1391.4675050769
20
-535.049981495186
30
0
11
1411.4675050769
21
-517.729473419497
31
0
0
LINE
8
layer0
10
1376.82648892552
20
-637.633283987163
30
0
11
1411.4675050769
21
-647.633283987163
31
0
0
LINE
8
layer0
10
1411.4675050769
20
-647.633283987163
30
0
11
1391.4675050769
21
-664.953792062852
31
0
0
LINE
8
layer0
10
1391.4675050769
20
-664.953792062852
30
0
11
1356.82648892552
21
-654.953792062852
31
0
0
LINE
8
layer0
10
1356.82648892552
20
-654.953792062852
30
0
11
1376.82648892552
21
-637.633283987163
31
0
0
ENDBLK
0
BLOCK
8
layer0
2
PF_OBJECT36
70
0
10
0
20
0
30
0
0
LINE
8
layer0
10
2028.46096908265
20
-643.301270189222
30
0
11
1993.81995293128
21
-633.301270189222
31
0
0
LINE
8
layer0
10
1993.81995293128
20
-633.301270189222
30
0
11
1993.81995293128
21
-503.397459621556
31
0
0
LINE
8
layer0
10
1993.81995293128
20
-503.397459621556
30
0
11
2028.46096908265
21
-513.397459621556
31
0
0
LINE
8
layer0
10
2028.46096908265
20
-513.397459621556
30
0
11
2028.46096908265
21
-643.301270189222
31
0
0
LINE
8
layer0
10
1973.81995293128
20
-650.621778264911
30
0
11
2008.46096908265
21
-660.621778264911
31
0
0
LINE
8
layer0
10
2008.46096908265
20
-660.621778264911
30
0
11
2008.46096908265
21
-530.717967697245
31
0
0
LINE
8
layer0
10
2008.46096908265
20
-530.717967697245
30
0
11
1973.81995293128
21
-520.717967697245
31
0
0
LINE
8
layer0
10
1973.81995293128
20
-520.717967697245
30
0
11
1973.81995293128
21
-650.621778264911
31
0
0
LINE
8
layer0
10
1993.81995293128
20
-633.301270189222
30
0
11
1973.81995293128
21
-650.621778264911
31
0
0
LINE
8
layer0
10
1973.81995293128
20
-650.621778264911
30
0
11
1973.81995293128
21
-520.717967697245
31
0
0
LINE
8
layer0
10
1973.81995293128
20
-520.717967697245
30
0
11
1993.81995293128
21
-503.397459621556
31
0
0
LINE
8
layer0
10
1993.81995293128
20
-503.397459621556
30
0
11
1993.81995293128
21
-633.301270189222
31
0
0
LINE
8
layer0
10
2008.46096908265
20
-660.621778264911
30
0
11
2028.46096908265
21
-643.301270189222
31
0
0
LINE
8
layer0
10
2028.46096908265
20
-643.301270189222
30
0
11
2028.46096908265
21
-513.397459621556
31
0
0
LINE
8
layer0
10
2028.46096908265
20
-513.397459621556
30
0
11
2008.46096908265
21
-530.717967697245
31
0
0
LINE
8
layer0
10
2008.46096908265
20
-530.717967697245
30
0
11
2008.46096908265
21
-660.621778264911
31
0
0
LINE
8
layer0
10
2028.46096908265
20
-513.397459621556
30
0
11
1993.81995293128
21
-503.397459621556
31
0
0
LINE
8
layer0
10
1993.81995293128
20
-503.397459621556
30
0
11
1973.81995293128
21
-520.717967697245
31
0
0
LINE
8
layer0
10
1973.81995293128
20
-520.717967697245
30
0
11
2008.46096908265
21
-530.717967697245
31
0
0
LINE
8
layer0
10
2008.46096908265
20
-530.717967697245
30
0
11
2028.46096908265
21
-513.397459621556
31
0
0
LINE
8
layer0
10
1993.81995293128
20
-633.301270189222
30
0
11
2028.46096908265
21
-643.301270189222
31
0
0
LINE
8
layer0
10
2028.46096908265
20
-643.301270189222
30
0
11
2008.46096908265
21
-660.621778264911
31
0
0
LINE
8
layer0
10
2008.46096908265
20
-660.621778264911
30
0
11
1973.81995293128
21
-650.621778264911
31
0
0
LINE
8
layer0
10
1973.81995293128
20
-650.621778264911
30
0
11
1993.81995293128
21
-633.301270189222
31
0
0
ENDBLK
0
BLOCK
8
layer0
2
PF_OBJECT37
70
0
10
0
20
0
30
0
0
LINE
8
layer0
10
1870.46096908265
20
-780.133283987163
30
0
11
1835.81995293128
21
-770.133283987163
31
0
0
LINE
8
layer0
10
1835.81995293128
20
-770.133283987163
30
0
11
1835.81995293128
21
-640.229473419497
31
0
0
LINE
8
layer0
10
1835.81995293128
20
-640.229473419497
30
0
11
1870.46096908265
21
-650.229473419497
31
0
0
LINE
8
layer0
10
1870.46096908265
20
-650.229473419497
30
0
11
1870.46096908265
21
-780.133283987163
31
0
0
LINE
8
layer0
10
1815.81995293128
20
-787.453792062852
30
0
11
1850.46096908265
21
-797.453792062852
31
0
0
LINE
8
layer0
10
1850.46096908265
20
-797.453792062852
30
0
11
1850.46096908265
21
-667.549981495186
31
0
0
LINE
8
layer0
10
1850.46096908265
20
-667.549981495186
30
0
11
1815.81995293128
21
-657.549981495186
31
0
0
LINE
8
layer0
10
1815.81995293128
20
-657.549981495186
30
0
11
1815.81995293128
21
-787.453792062852
31
0
0
LINE
8
layer0
10
1835.81995293128
20
-770.133283987163
30
0
11
1815.81995293128
21
-787.453792062852
31
0
0
LINE
8
layer0
10
1815.81995293128
20
-787.453792062852
30
0
11
1815.81995293128
21
-657.549981495186
31
0
0
LINE
8
layer0
10
1815.81995293128
20
-657.549981495186
30
0
11
1835.81995293128
21
-640.229473419497
31
0
0
LINE
8
layer0
10
1835.81995293128
20
-640.229473419497
30
0
11
1835.81995293128
21
-770.133283987163
31
0
0
LINE
8
layer0
10
1850.46096908265
20
-797.453792062852
30
0
11
1870.46096908265
21
-780.133283987163
31
0
0
LINE
8
layer0
10
1870.46096908265
20
-780.133283987163
30
0
11
1870.46096908265
21
-650.229473419497
31
0
0
LINE
8
layer0
10
1870.46096908265
20
-650.229473419497
30
0
11
1850.46096908265
21
-667.549981495186
31
0
0
LINE
8
layer0
10
1850.46096908265
20
-667.549981495186
30
0
11
1850.46096908265
21
-797.453792062852
31
0
0
LINE
8
layer0
10
1870.46096908265
20
-650.229473419497
30
0
11
1835.81995293128
21
-640.229473419497
31
0
0
LINE
8
layer0
10
1835.81995293128
20
-640.229473419497
30
0
11
1815.81995293128
21
-657.549981495186
31
0
0
LINE
8
layer0
10
1815.81995293128
20
-657.549981495186
30
0
11
1850.46096908265
21
-667.549981495186
31
0
0
LINE
8
layer0
10
1850.46096908265
20
-667.549981495186
30
0
11
1870.46096908265
21
-650.229473419497
31
0
0
LINE
8
layer0
10
1835.81995293128
20
-770.133283987163
30
0
11
1870.46096908265
21
-780.133283987163
31
0
0
LINE
8
layer0
10
1870.46096908265
20
-780.133283987163
30
0
11
1850.46096908265
21
-797.453792062852
31
0
0
LINE
8
layer0
10
1850.46096908265
20
-797.453792062852
30
0
11
1815.81995293128
21
-787.453792062852
31
0
0
LINE
8
layer0
10
1815.81995293128
20
-787.453792062852
30
0
11
1835.81995293128
21
-770.133283987163
31
0
0
ENDBLK
0
BLOCK
8
layer0
70
0
10
0
20
0
30
0
2
PF_SKETCH38
0
LINE
8
layer0
10
1035.36508806388
20
274.520886198552
30
0
11
988.198421397215
21
233.673354653386
31
0
0
ENDBLK
0
BLOCK
8
layer0
70
0
10
0
20
0
30
0
2
PF_SKETCH39
0
LINE
8
layer0
10
2074.59557260521
20
-25.4791138014479
30
0
11
2027.42890593854
21
-66.3266453466139
31
0
0
ENDBLK
0
BLOCK
8
layer0
70
0
10
0
20
0
30
0
2
PF_SKETCH40
0
LINE
8
layer0
10
941.031754730548
20
192.82582310822
30
0
11
893.865088063882
21
151.978291563054
31
0
0
ENDBLK
0
BLOCK
8
layer0
70
0
10
0
20
0
30
0
2
PF_SKETCH41
0
LINE
8
layer0
10
1980.26223927187
20
-107.17417689178
30
0
11
1933.09557260521
21
-148.021708436946
31
0
0
ENDBLK
0
BLOCK
8
layer0
70
0
10
0
20
0
30
0
2
PF_SKETCH42
0
LINE
8
layer0
10
846.698421397215
20
111.130760017888
30
0
11
799.531754730548
21
70.283228472722
31
0
0
ENDBLK
0
BLOCK
8
layer0
70
0
10
0
20
0
30
0
2
PF_SKETCH43
0
LINE
8
layer0
10
1885.92890593854
20
-188.869239982112
30
0
11
1838.76223927187
21
-229.716771527278
31
0
0
ENDBLK
0
BLOCK
8
layer0
2
PF_OBJECT44
70
0
10
0
20
0
30
0
0
LINE
8
layer0
10
316.772918920436
20
-261.762794416288
30
0
11
316.772918920436
21
-391.666604983954
31
0
0
LINE
8
layer0
10
316.772918920436
20
-391.666604983954
30
0
11
576.772918920436
21
-166.5
31
0
0
LINE
8
layer0
10
576.772918920436
20
-166.5
30
0
11
576.772918920436
21
-36.5961894323342
31
0
0
LINE
8
layer0
10
576.772918920436
20
-36.5961894323342
30
0
11
316.772918920436
21
-261.762794416288
31
0
0
LINE
8
layer0
10
562.925172713923
20
-162.5025
30
0
11
576.772918920436
21
-166.5
31
0
0
LINE
8
layer0
10
576.772918920436
20
-166.5
30
0
11
316.772918920436
21
-391.666604983954
31
0
0
LINE
8
layer0
10
316.772918920436
20
-391.666604983954
30
0
11
302.925172713923
21
-387.669104983954
31
0
0
LINE
8
layer0
10
302.925172713923
20
-387.669104983954
30
0
11
562.925172713923
21
-162.5025
31
0
0
LINE
8
layer0
10
562.925172713923
20
-32.5986894323342
30
0
11
576.772918920436
21
-36.5961894323342
31
0
0
LINE
8
layer0
10
576.772918920436
20
-36.5961894323342
30
0
11
576.772918920436
21
-166.5
31
0
0
LINE
8
layer0
10
576.772918920436
20
-166.5
30
0
11
562.925172713923
21
-162.5025
31
0
0
LINE
8
layer0
10
562.925172713923
20
-162.5025
30
0
11
562.925172713923
21
-32.5986894323342
31
0
0
LINE
8
layer0
10
316.772918920436
20
-261.762794416288
30
0
11
302.925172713923
21
-257.765294416288
31
0
0
LINE
8
layer0
10
302.925172713923
20
-257.765294416288
30
0
11
302.925172713923
21
-387.669104983954
31
0
0
LINE
8
layer0
10
302.925172713923
20
-387.669104983954
30
0
11
316.772918920436
21
-391.666604983954
31
0
0
LINE
8
layer0
10
316.772918920436
20
-391.666604983954
30
0
11
316.772918920436
21
-261.762794416288
31
0
0
LINE
8
layer0
10
302.925172713923
20
-257.765294416288
30
0
11
316.772918920436
21
-261.762794416288
31
0
0
LINE
8
layer0
10
316.772918920436
20
-261.762794416288
30
0
11
576.772918920436
21
-36.5961894323342
31
0
0
LINE
8
layer0
10
576.772918920436
20
-36.5961894323342
30
0
11
562.925172713923
21
-32.5986894323342
31
0
0
LINE
8
layer0
10
562.925172713923
20
-32.5986894323342
30
0
11
302.925172713923
21
-257.765294416288
31
0
0
LINE
8
layer0
10
562.925172713923
20
-32.5986894323342
30
0
11
562.925172713923
21
-162.5025
31
0
0
LINE
8
layer0
10
562.925172713923
20
-162.5025
30
0
11
302.925172713923
21
-387.669104983954
31
0
0
LINE
8
layer0
10
302.925172713923
20
-387.669104983954
30
0
11
302.925172713923
21
-257.765294416288
31
0
0
LINE
8
layer0
10
302.925172713923
20
-257.765294416288
30
0
11
562.925172713923
21
-32.5986894323342
31
0
0
ENDBLK
0
BLOCK
8
layer0
2
PF_OBJECT45
70
0
10
0
20
0
30
0
0
LINE
8
layer0
10
1861.76223927187
20
-707.762794416288
30
0
11
1861.76223927187
21
-837.666604983954
31
0
0
LINE
8
layer0
10
1861.76223927187
20
-837.666604983954
30
0
11
302.916512459885
21
-387.666604983954
31
0
0
LINE
8
layer0
10
302.916512459885
20
-387.666604983954
30
0
11
302.916512459885
21
-257.762794416288
31
0
0
LINE
8
layer0
10
302.916512459885
20
-257.762794416288
30
0
11
1861.76223927187
21
-707.762794416288
31
0
0
LINE
8
layer0
10
294.921512459885
20
-394.590478087211
30
0
11
302.916512459885
21
-387.666604983954
31
0
0
LINE
8
layer0
10
302.916512459885
20
-387.666604983954
30
0
11
1861.76223927187
21
-837.666604983954
31
0
0
LINE
8
layer0
10
1861.76223927187
20
-837.666604983954
30
0
11
1853.76723927187
21
-844.590478087211
31
0
0
LINE
8
layer0
10
1853.76723927187
20
-844.590478087211
30
0
11
294.921512459885
21
-394.590478087211
31
0
0
LINE
8
layer0
10
294.921512459885
20
-264.686667519545
30
0
11
302.916512459885
21
-257.762794416288
31
0
0
LINE
8
layer0
10
302.916512459885
20
-257.762794416288
30
0
11
302.916512459885
21
-387.666604983954
31
0
0
LINE
8
layer0
10
302.916512459885
20
-387.666604983954
30
0
11
294.921512459885
21
-394.590478087211
31
0
0
LINE
8
layer0
10
294.921512459885
20
-394.590478087211
30
0
11
294.921512459885
21
-264.686667519545
31
0
0
LINE
8
layer0
10
1861.76223927187
20
-707.762794416288
30
0
11
1853.76723927188
21
-714.686667519545
31
0
0
LINE
8
layer0
10
1853.76723927188
20
-714.686667519545
30
0
11
1853.76723927188
21
-844.590478087211
31
0
0
LINE
8
layer0
10
1853.76723927188
20
-844.590478087211
30
0
11
1861.76223927187
21
-837.666604983954
31
0
0
LINE
8
layer0
10
1861.76223927187
20
-837.666604983954
30
0
11
1861.76223927187
21
-707.762794416288
31
0
0
LINE
8
layer0
10
1853.76723927188
20
-714.686667519545
30
0
11
1861.76223927187
21
-707.762794416288
31
0
0
LINE
8
layer0
10
1861.76223927187
20
-707.762794416288
30
0
11
302.916512459885
21
-257.762794416288
31
0
0
LINE
8
layer0
10
302.916512459885
20
-257.762794416288
30
0
11
294.921512459885
21
-264.686667519545
31
0
0
LINE
8
layer0
10
294.921512459885
20
-264.686667519545
30
0
11
1853.76723927188
21
-714.686667519545
31
0
0
LINE
8
layer0
10
294.921512459885
20
-264.686667519545
30
0
11
294.921512459885
21
-394.590478087211
31
0
0
LINE
8
layer0
10
294.921512459885
20
-394.590478087211
30
0
11
1853.76723927187
21
-844.59047808721
31
0
0
LINE
8
layer0
10
1853.76723927187
20
-844.59047808721
30
0
11
1853.76723927188
21
-714.686667519545
31
0
0
LINE
8
layer0
10
1853.76723927188
20
-714.686667519545
30
0
11
294.921512459885
21
-264.686667519545
31
0
0
ENDBLK
0
BLOCK
8
layer0
2
PF_OBJECT46
70
0
10
0
20
0
30
0
0
LINE
8
layer0
10
1987.90583281132
20
-582.519237886467
30
0
11
1987.90583281132
21
-712.423048454133
31
0
0
LINE
8
layer0
10
1987.90583281132
20
-712.423048454133
30
0
11
1847.90583281132
21
-833.666604983954
31
0
0
LINE
8
layer0
10
1847.90583281132
20
-833.666604983954
30
0
11
1847.90583281132
21
-703.762794416288
31
0
0
LINE
8
layer0
10
1847.90583281132
20
-703.762794416288
30
0
11
1987.90583281132
21
-582.519237886467
31
0
0
LINE
8
layer0
10
1861.75357901784
20
-837.664104983954
30
0
11
1847.90583281132
21
-833.666604983954
31
0
0
LINE
8
layer0
10
1847.90583281132
20
-833.666604983954
30
0
11
1987.90583281132
21
-712.423048454133
31
0
0
LINE
8
layer0
10
1987.90583281132
20
-712.423048454133
30
0
11
2001.75357901784
21
-716.420548454133
31
0
0
LINE
8
layer0
10
2001.75357901784
20
-716.420548454133
30
0
11
1861.75357901784
21
-837.664104983954
31
0
0
LINE
8
layer0
10
1861.75357901784
20
-707.760294416288
30
0
11
1847.90583281132
21
-703.762794416288
31
0
0
LINE
8
layer0
10
1847.90583281132
20
-703.762794416288
30
0
11
1847.90583281132
21
-833.666604983954
31
0
0
LINE
8
layer0
10
1847.90583281132
20
-833.666604983954
30
0
11
1861.75357901784
21
-837.664104983954
31
0
0
LINE
8
layer0
10
1861.75357901784
20
-837.664104983954
30
0
11
1861.75357901784
21
-707.760294416288
31
0
0
LINE
8
layer0
10
1987.90583281132
20
-582.519237886467
30
0
11
2001.75357901784
21
-586.516737886467
31
0
0
LINE
8
layer0
10
2001.75357901784
20
-586.516737886467
30
0
11
2001.75357901784
21
-716.420548454133
31
0
0
LINE
8
layer0
10
2001.75357901784
20
-716.420548454133
30
0
11
1987.90583281132
21
-712.423048454133
31
0
0
LINE
8
layer0
10
1987.90583281132
20
-712.423048454133
30
0
11
1987.90583281132
21
-582.519237886467
31
0
0
LINE
8
layer0
10
2001.75357901784
20
-586.516737886467
30
0
11
1987.90583281132
21
-582.519237886467
31
0
0
LINE
8
layer0
10
1987.90583281132
20
-582.519237886467
30
0
11
1847.90583281132
21
-703.762794416288
31
0
0
LINE
8
layer0
10
1847.90583281132
20
-703.762794416288
30
0
11
1861.75357901784
21
-707.760294416288
31
0
0
LINE
8
layer0
10
1861.75357901784
20
-707.760294416288
30
0
11
2001.75357901784
21
-586.516737886467
31
0
0
LINE
8
layer0
10
1861.75357901784
20
-707.760294416288
30
0
11
1861.75357901784
21
-837.664104983954
31
0
0
LINE
8
layer0
10
1861.75357901784
20
-837.664104983954
30
0
11
2001.75357901784
21
-716.420548454133
31
0
0
LINE
8
layer0
10
2001.75357901784
20
-716.420548454133
30
0
11
2001.75357901784
21
-586.516737886467
31
0
0
LINE
8
layer0
10
2001.75357901784
20
-586.516737886467
30
0
11
1861.75357901784
21
-707.760294416288
31
0
0
ENDBLK
0
BLOCK
8
layer0
2
PF_OBJECT47
70
0
10
0
20
0
30
0
0
LINE
8
layer0
10
2107.90583281132
20
-478.596189432334
30
0
11
2107.90583281132
21
-608.5
31
0
0
LINE
8
layer0
10
2107.90583281132
20
-608.5
30
0
11
1987.90583281132
21
-712.423048454133
31
0
0
LINE
8
layer0
10
1987.90583281132
20
-712.423048454133
30
0
11
1987.90583281132
21
-582.519237886467
31
0
0
LINE
8
layer0
10
1987.90583281132
20
-582.519237886467
30
0
11
2107.90583281132
21
-478.596189432334
31
0
0
LINE
8
layer0
10
2001.75357901784
20
-716.420548454133
30
0
11
1987.90583281132
21
-712.423048454133
31
0
0
LINE
8
layer0
10
1987.90583281132
20
-712.423048454133
30
0
11
2107.90583281132
21
-608.5
31
0
0
LINE
8
layer0
10
2107.90583281132
20
-608.5
30
0
11
2121.75357901784
21
-612.4975
31
0
0
LINE
8
layer0
10
2121.75357901784
20
-612.4975
30
0
11
2001.75357901784
21
-716.420548454133
31
0
0
LINE
8
layer0
10
2001.75357901784
20
-586.516737886467
30
0
11
1987.90583281132
21
-582.519237886467
31
0
0
LINE
8
layer0
10
1987.90583281132
20
-582.519237886467
30
0
11
1987.90583281132
21
-712.423048454133
31
0
0
LINE
8
layer0
10
1987.90583281132
20
-712.423048454133
30
0
11
2001.75357901784
21
-716.420548454133
31
0
0
LINE
8
layer0
10
2001.75357901784
20
-716.420548454133
30
0
11
2001.75357901784
21
-586.516737886467
31
0
0
LINE
8
layer0
10
2107.90583281132
20
-478.596189432334
30
0
11
2121.75357901784
21
-482.593689432334
31
0
0
LINE
8
layer0
10
2121.75357901784
20
-482.593689432334
30
0
11
2121.75357901784
21
-612.4975
31
0
0
LINE
8
layer0
10
2121.75357901784
20
-612.4975
30
0
11
2107.90583281132
21
-608.5
31
0
0
LINE
8
layer0
10
2107.90583281132
20
-608.5
30
0
11
2107.90583281132
21
-478.596189432334
31
0
0
LINE
8
layer0
10
2121.75357901784
20
-482.593689432334
30
0
11
2107.90583281132
21
-478.596189432334
31
0
0
LINE
8
layer0
10
2107.90583281132
20
-478.596189432334
30
0
11
1987.90583281132
21
-582.519237886467
31
0
0
LINE
8
layer0
10
1987.90583281132
20
-582.519237886467
30
0
11
2001.75357901784
21
-586.516737886467
31
0
0
LINE
8
layer0
10
2001.75357901784
20
-586.516737886467
30
0
11
2121.75357901784
21
-482.593689432334
31
0
0
LINE
8
layer0
10
2001.75357901784
20
-586.516737886467
30
0
11
2001.75357901784
21
-716.420548454133
31
0
0
LINE
8
layer0
10
2001.75357901784
20
-716.420548454133
30
0
11
2121.75357901784
21
-612.4975
31
0
0
LINE
8
layer0
10
2121.75357901784
20
-612.4975
30
0
11
2121.75357901784
21
-482.593689432334
31
0
0
LINE
8
layer0
10
2121.75357901784
20
-482.593689432334
30
0
11
2001.75357901784
21
-586.516737886467
31
0
0
ENDBLK
0
BLOCK
8
layer0
2
PF_OBJECT48
70
0
10
0
20
0
30
0
0
LINE
8
layer0
10
2130.42249330972
20
12.8684177437181
30
0
11
1169.85082816386
21
290.161572467663
31
0
0
LINE
8
layer0
10
1169.85082816386
20
290.161572467663
30
0
11
1169.85082816386
21
317.874385388765
31
0
0
LINE
8
layer0
10
1169.85082816386
20
317.874385388765
30
0
11
2130.42249330972
21
40.5812306648202
31
0
0
LINE
8
layer0
10
2130.42249330972
20
40.5812306648202
30
0
11
2130.42249330972
21
12.8684177437181
31
0
0
LINE
8
layer0
10
1096.6738685327
20
338.99875405953
30
0
11
1096.6738685327
21
311.285941138428
31
0
0
LINE
8
layer0
10
1096.6738685327
20
311.285941138428
30
0
11
554.256258422041
21
467.868417743718
31
0
0
LINE
8
layer0
10
554.256258422041
20
467.868417743718
30
0
11
554.256258422041
21
495.58123066482
31
0
0
LINE
8
layer0
10
554.256258422041
20
495.58123066482
30
0
11
1096.6738685327
21
338.99875405953
31
0
0
LINE
8
layer0
10
1169.85082816386
20
317.874385388765
30
0
11
1169.85082816386
21
290.161572467663
31
0
0
LINE
8
layer0
10
1169.85082816386
20
290.161572467663
30
0
11
1096.6738685327
21
311.285941138428
31
0
0
LINE
8
layer0
10
1096.6738685327
20
311.285941138428
30
0
11
1096.6738685327
21
338.99875405953
31
0
0
LINE
8
layer0
10
1096.6738685327
20
338.99875405953
30
0
11
1169.85082816386
21
317.874385388765
31
0
0
LINE
8
layer0
10
254.256258422041
20
208.060796608386
30
0
11
1830.42249330972
21
-246.939203391614
31
0
0
LINE
8
layer0
10
1830.42249330972
20
-246.939203391614
30
0
11
1830.42249330972
21
-219.226390470511
31
0
0
LINE
8
layer0
10
1830.42249330972
20
-219.226390470511
30
0
11
254.256258422041
21
235.773609529488
31
0
0
LINE
8
layer0
10
254.256258422041
20
235.773609529488
30
0
11
254.256258422041
21
208.060796608386
31
0
0
LINE
8
layer0
10
554.256258422041
20
467.868417743718
30
0
11
480.756258422041
21
404.215550565562
31
0
0
LINE
8
layer0
10
480.756258422041
20
404.215550565562
30
0
11
480.756258422041
21
431.928363486664
31
0
0
LINE
8
layer0
10
480.756258422041
20
431.928363486664
30
0
11
554.256258422041
21
495.58123066482
31
0
0
LINE
8
layer0
10
554.256258422041
20
495.58123066482
30
0
11
554.256258422041
21
467.868417743718
31
0
0
LINE
8
layer0
10
304.256258422041
20
279.07487971871
30
0
11
304.256258422041
21
251.362066797608
31
0
0
LINE
8
layer0
10
304.256258422041
20
251.362066797608
30
0
11
254.256258422041
21
208.060796608386
31
0
0
LINE
8
layer0
10
254.256258422041
20
208.060796608386
30
0
11
254.256258422041
21
235.773609529488
31
0
0
LINE
8
layer0
10
254.256258422041
20
235.773609529488
30
0
11
304.256258422041
21
279.07487971871
31
0
0
LINE
8
layer0
10
480.756258422041
20
431.928363486664
30
0
11
480.756258422041
21
404.215550565562
31
0
0
LINE
8
layer0
10
480.756258422041
20
404.215550565562
30
0
11
304.256258422041
21
251.362066797608
31
0
0
LINE
8
layer0
10
304.256258422041
20
251.362066797608
30
0
11
304.256258422041
21
279.07487971871
31
0
0
LINE
8
layer0
10
304.256258422041
20
279.07487971871
30
0
11
480.756258422041
21
431.928363486664
31
0
0
LINE
8
layer0
10
2056.92249330972
20
-23.0716365133361
30
0
11
2056.92249330972
21
-50.7844494344381
31
0
0
LINE
8
layer0
10
2056.92249330972
20
-50.7844494344381
30
0
11
2130.42249330972
21
12.8684177437181
31
0
0
LINE
8
layer0
10
2130.42249330972
20
12.8684177437181
30
0
11
2130.42249330972
21
40.5812306648202
31
0
0
LINE
8
layer0
10
2130.42249330972
20
40.5812306648202
30
0
11
2056.92249330972
21
-23.0716365133361
31
0
0
LINE
8
layer0
10
1830.42249330972
20
-246.939203391614
30
0
11
1880.42249330972
21
-203.637933202392
31
0
0
LINE
8
layer0
10
1880.42249330972
20
-203.637933202392
30
0
11
1880.42249330972
21
-175.92512028129
31
0
0
LINE
8
layer0
10
1880.42249330972
20
-175.92512028129
30
0
11
1830.42249330972
21
-219.226390470511
31
0
0
LINE
8
layer0
10
1830.42249330972
20
-219.226390470511
30
0
11
1830.42249330972
21
-246.939203391614
31
0
0
LINE
8
layer0
10
1880.42249330972
20
-175.92512028129
30
0
11
1880.42249330972
21
-203.637933202392
31
0
0
LINE
8
layer0
10
1880.42249330972
20
-203.637933202392
30
0
11
2056.92249330972
21
-50.7844494344381
31
0
0
LINE
8
layer0
10
2056.92249330972
20
-50.7844494344381
30
0
11
2056.92249330972
21
-23.0716365133361
31
0
0
LINE
8
layer0
10
2056.92249330972
20
-23.0716365133361
30
0
11
1880.42249330972
21
-175.92512028129
31
0
0
LINE
8
layer0
10
1403.69405861473
20
137.786356872296
30
0
11
1169.85082816386
21
290.161572467663
31
0
0
LINE
8
layer0
10
1169.85082816386
20
290.161572467663
30
0
11
2130.42249330972
21
12.8684177437181
31
0
0
LINE
8
layer0
10
2130.42249330972
20
12.8684177437181
30
0
11
2056.92249330972
21
-50.7844494344381
31
0
0
LINE
8
layer0
10
2056.92249330972
20
-50.7844494344381
30
0
11
1403.69405861473
21
137.786356872296
31
0
0
LINE
8
layer0
10
1300.85463540964
20
167.473541207678
30
0
11
1309.24307782594
21
199.331814199143
31
0
0
LINE
8
layer0
10
1309.24307782594
20
199.331814199143
30
0
11
1403.69405861473
21
137.786356872296
31
0
0
LINE
8
layer0
10
1403.69405861473
20
137.786356872296
30
0
11
1300.85463540964
21
167.473541207678
31
0
0
LINE
8
layer0
10
1267.13500545457
20
177.207559923446
30
0
11
1307.49482043211
21
192.692147554496
31
0
0
LINE
8
layer0
10
1307.49482043211
20
192.692147554496
30
0
11
1300.85463540964
21
167.473541207678
31
0
0
LINE
8
layer0
10
1300.85463540964
20
167.473541207678
30
0
11
1267.13500545457
21
177.207559923446
31
0
0
LINE
8
layer0
10
1207.16165274819
20
194.520375588063
30
0
11
1296.86870915517
21
188.615296574467
31
0
0
LINE
8
layer0
10
1296.86870915517
20
188.615296574467
30
0
11
1267.13500545457
21
177.207559923446
31
0
0
LINE
8
layer0
10
1267.13500545457
20
177.207559923446
30
0
11
1207.16165274819
21
194.520375588063
31
0
0
LINE
8
layer0
10
554.256258422041
20
467.868417743718
30
0
11
1096.6738685327
21
311.285941138428
31
0
0
LINE
8
layer0
10
1096.6738685327
20
311.285941138428
30
0
11
1283.58937586588
21
189.489425271382
31
0
0
LINE
8
layer0
10
1283.58937586588
20
189.489425271382
30
0
11
1207.16165274819
21
194.520375588063
31
0
0
LINE
8
layer0
10
1207.16165274819
20
194.520375588063
30
0
11
480.756258422041
21
404.215550565562
31
0
0
LINE
8
layer0
10
480.756258422041
20
404.215550565562
30
0
11
554.256258422041
21
467.868417743718
31
0
0
LINE
8
layer0
10
1281.40459801036
20
217.471720817639
30
0
11
1275.43567390582
21
194.802480909849
31
0
0
LINE
8
layer0
10
1275.43567390582
20
194.802480909849
30
0
11
1096.6738685327
21
311.285941138428
31
0
0
LINE
8
layer0
10
1096.6738685327
20
311.285941138428
30
0
11
1169.85082816386
21
290.161572467663
31
0
0
LINE
8
layer0
10
1169.85082816386
20
290.161572467663
30
0
11
1281.40459801036
21
217.471720817639
31
0
0
LINE
8
layer0
10
1295.32383791815
20
208.401767508391
30
0
11
1277.18393129965
21
201.442147554496
31
0
0
LINE
8
layer0
10
1277.18393129965
20
201.442147554496
30
0
11
1281.40459801036
21
217.471720817639
31
0
0
LINE
8
layer0
10
1281.40459801036
20
217.471720817639
30
0
11
1295.32383791815
21
208.401767508391
31
0
0
LINE
8
layer0
10
1301.08937586588
20
204.64486983761
30
0
11
1287.81004257659
21
205.518998534526
31
0
0
LINE
8
layer0
10
1287.81004257659
20
205.518998534526
30
0
11
1295.32383791815
21
208.401767508391
31
0
0
LINE
8
layer0
10
1295.32383791815
20
208.401767508391
30
0
11
1301.08937586588
21
204.64486983761
31
0
0
LINE
8
layer0
10
304.256258422041
20
251.362066797608
30
0
11
1880.42249330972
21
-203.637933202392
31
0
0
LINE
8
layer0
10
1880.42249330972
20
-203.637933202392
30
0
11
1830.42249330972
21
-246.939203391614
31
0
0
LINE
8
layer0
10
1830.42249330972
20
-246.939203391614
30
0
11
254.256258422041
21
208.060796608386
31
0
0
LINE
8
layer0
10
254.256258422041
20
208.060796608386
30
0
11
304.256258422041
21
251.362066797608
31
0
0
LINE
8
layer0
10
480.756258422041
20
404.215550565562
30
0
11
1093.90224430142
21
227.215550565562
31
0
0
LINE
8
layer0
10
1093.90224430142
20
227.215550565562
30
0
11
917.402244301423
21
74.3620667976084
31
0
0
LINE
8
layer0
10
917.402244301423
20
74.3620667976084
30
0
11
304.256258422041
21
251.362066797608
31
0
0
LINE
8
layer0
10
304.256258422041
20
251.362066797608
30
0
11
480.756258422041
21
404.215550565562
31
0
0
LINE
8
layer0
10
1268.14253283412
20
-26.8879332023915
30
0
11
1444.64253283412
21
125.965550565562
31
0
0
LINE
8
layer0
10
1444.64253283412
20
125.965550565562
30
0
11
2056.92249330972
21
-50.7844494344381
31
0
0
LINE
8
layer0
10
2056.92249330972
20
-50.7844494344381
30
0
11
1880.42249330972
21
-203.637933202392
31
0
0
LINE
8
layer0
10
1880.42249330972
20
-203.637933202392
30
0
11
1268.14253283412
21
-26.8879332023915
31
0
0
LINE
8
layer0
10
1301.08937586588
20
204.64486983761
30
0
11
1309.24307782594
21
199.331814199143
31
0
0
LINE
8
layer0
10
1309.24307782594
20
199.331814199143
30
0
11
1309.24307782594
21
227.044627120245
31
0
0
LINE
8
layer0
10
1309.24307782594
20
227.044627120245
30
0
11
1301.08937586588
21
232.357682758712
31
0
0
LINE
8
layer0
10
1301.08937586588
20
232.357682758712
30
0
11
1301.08937586588
21
204.64486983761
31
0
0
LINE
8
layer0
10
1309.24307782594
20
199.331814199143
30
0
11
1307.49482043211
21
192.692147554496
31
0
0
LINE
8
layer0
10
1307.49482043211
20
192.692147554496
30
0
11
1307.49482043211
21
220.404960475598
31
0
0
LINE
8
layer0
10
1307.49482043211
20
220.404960475598
30
0
11
1309.24307782594
21
227.044627120245
31
0
0
LINE
8
layer0
10
1309.24307782594
20
227.044627120245
30
0
11
1309.24307782594
21
199.331814199143
31
0
0
LINE
8
layer0
10
1307.49482043211
20
192.692147554496
30
0
11
1296.86870915517
21
188.615296574467
31
0
0
LINE
8
layer0
10
1296.86870915517
20
188.615296574467
30
0
11
1296.86870915517
21
216.328109495569
31
0
0
LINE
8
layer0
10
1296.86870915517
20
216.328109495569
30
0
11
1307.49482043211
21
220.404960475598
31
0
0
LINE
8
layer0
10
1307.49482043211
20
220.404960475598
30
0
11
1307.49482043211
21
192.692147554496
31
0
0
LINE
8
layer0
10
1296.86870915517
20
188.615296574467
30
0
11
1283.58937586588
21
189.489425271382
31
0
0
LINE
8
layer0
10
1283.58937586588
20
189.489425271382
30
0
11
1283.58937586588
21
217.202238192484
31
0
0
LINE
8
layer0
10
1283.58937586588
20
217.202238192484
30
0
11
1296.86870915517
21
216.328109495569
31
0
0
LINE
8
layer0
10
1296.86870915517
20
216.328109495569
30
0
11
1296.86870915517
21
188.615296574467
31
0
0
LINE
8
layer0
10
1287.81004257659
20
205.518998534526
30
0
11
1301.08937586588
21
204.64486983761
31
0
0
LINE
8
layer0
10
1301.08937586588
20
204.64486983761
30
0
11
1301.08937586588
21
232.357682758712
31
0
0
LINE
8
layer0
10
1301.08937586588
20
232.357682758712
30
0
11
1287.81004257659
21
233.231811455628
31
0
0
LINE
8
layer0
10
1287.81004257659
20
233.231811455628
30
0
11
1287.81004257659
21
205.518998534526
31
0
0
LINE
8
layer0
10
1277.18393129965
20
201.442147554496
30
0
11
1287.81004257659
21
205.518998534526
31
0
0
LINE
8
layer0
10
1287.81004257659
20
205.518998534526
30
0
11
1287.81004257659
21
233.231811455628
31
0
0
LINE
8
layer0
10
1287.81004257659
20
233.231811455628
30
0
11
1277.18393129965
21
229.154960475598
31
0
0
LINE
8
layer0
10
1277.18393129965
20
229.154960475598
30
0
11
1277.18393129965
21
201.442147554496
31
0
0
LINE
8
layer0
10
1275.43567390582
20
194.802480909849
30
0
11
1277.18393129965
21
201.442147554496
31
0
0
LINE
8
layer0
10
1277.18393129965
20
201.442147554496
30
0
11
1277.18393129965
21
229.154960475598
31
0
0
LINE
8
layer0
10
1277.18393129965
20
229.154960475598
30
0
11
1275.43567390582
21
222.515293830951
31
0
0
LINE
8
layer0
10
1275.43567390582
20
222.515293830951
30
0
11
1275.43567390582
21
194.802480909849
31
0
0
LINE
8
layer0
10
1283.58937586588
20
189.489425271382
30
0
11
1275.43567390582
21
194.802480909849
31
0
0
LINE
8
layer0
10
1275.43567390582
20
194.802480909849
30
0
11
1275.43567390582
21
222.515293830951
31
0
0
LINE
8
layer0
10
1275.43567390582
20
222.515293830951
30
0
11
1283.58937586588
21
217.202238192484
31
0
0
LINE
8
layer0
10
1283.58937586588
20
217.202238192484
30
0
11
1283.58937586588
21
189.489425271382
31
0
0
LINE
8
layer0
10
1403.69405861473
20
165.499169793398
30
0
11
1403.69405861473
21
137.786356872296
31
0
0
LINE
8
layer0
10
1403.69405861473
20
137.786356872296
30
0
11
1444.64253283412
21
125.965550565562
31
0
0
LINE
8
layer0
10
1444.64253283412
20
125.965550565562
30
0
11
1444.64253283412
21
153.678363486664
31
0
0
LINE
8
layer0
10
1444.64253283412
20
153.678363486664
30
0
11
1403.69405861473
21
165.499169793398
31
0
0
LINE
8
layer0
10
1300.85463540964
20
195.18635412878
30
0
11
1300.85463540964
21
167.473541207678
31
0
0
LINE
8
layer0
10
1300.85463540964
20
167.473541207678
30
0
11
1403.69405861473
21
137.786356872296
31
0
0
LINE
8
layer0
10
1403.69405861473
20
137.786356872296
30
0
11
1403.69405861473
21
165.499169793398
31
0
0
LINE
8
layer0
10
1403.69405861473
20
165.499169793398
30
0
11
1300.85463540964
21
195.18635412878
31
0
0
LINE
8
layer0
10
1267.13500545457
20
204.920372844548
30
0
11
1267.13500545457
21
177.207559923446
31
0
0
LINE
8
layer0
10
1267.13500545457
20
177.207559923446
30
0
11
1300.85463540964
21
167.473541207678
31
0
0
LINE
8
layer0
10
1300.85463540964
20
167.473541207678
30
0
11
1300.85463540964
21
195.18635412878
31
0
0
LINE
8
layer0
10
1300.85463540964
20
195.18635412878
30
0
11
1267.13500545457
21
204.920372844548
31
0
0
LINE
8
layer0
10
1207.16165274819
20
222.233188509166
30
0
11
1207.16165274819
21
194.520375588063
31
0
0
LINE
8
layer0
10
1207.16165274819
20
194.520375588063
30
0
11
1267.13500545457
21
177.207559923446
31
0
0
LINE
8
layer0
10
1267.13500545457
20
177.207559923446
30
0
11
1267.13500545457
21
204.920372844548
31
0
0
LINE
8
layer0
10
1267.13500545457
20
204.920372844548
30
0
11
1207.16165274819
21
222.233188509166
31
0
0
LINE
8
layer0
10
1093.90224430142
20
227.215550565562
30
0
11
1207.16165274819
21
194.520375588063
31
0
0
LINE
8
layer0
10
1207.16165274819
20
194.520375588063
30
0
11
1207.16165274819
21
222.233188509166
31
0
0
LINE
8
layer0
10
1207.16165274819
20
222.233188509166
30
0
11
1093.90224430142
21
254.928363486664
31
0
0
LINE
8
layer0
10
1093.90224430142
20
254.928363486664
30
0
11
1093.90224430142
21
227.215550565562
31
0
0
LINE
8
layer0
10
1268.14253283412
20
-26.8879332023915
30
0
11
917.402244301423
21
74.3620667976084
31
0
0
LINE
8
layer0
10
917.402244301423
20
74.3620667976084
30
0
11
917.402244301423
21
102.07487971871
31
0
0
LINE
8
layer0
10
917.402244301423
20
102.07487971871
30
0
11
1268.14253283412
21
0.824879718710463
31
0
0
LINE
8
layer0
10
1268.14253283412
20
0.824879718710463
30
0
11
1268.14253283412
21
-26.8879332023915
31
0
0
LINE
8
layer0
10
1444.64253283412
20
125.965550565562
30
0
11
1268.14253283412
21
-26.8879332023915
31
0
0
LINE
8
layer0
10
1268.14253283412
20
-26.8879332023915
30
0
11
1268.14253283412
21
0.824879718710463
31
0
0
LINE
8
layer0
10
1268.14253283412
20
0.824879718710463
30
0
11
1444.64253283412
21
153.678363486664
31
0
0
LINE
8
layer0
10
1444.64253283412
20
153.678363486664
30
0
11
1444.64253283412
21
125.965550565562
31
0
0
LINE
8
layer0
10
917.402244301423
20
74.3620667976084
30
0
11
1093.90224430142
21
227.215550565562
31
0
0
LINE
8
layer0
10
1093.90224430142
20
227.215550565562
30
0
11
1093.90224430142
21
254.928363486664
31
0
0
LINE
8
layer0
10
1093.90224430142
20
254.928363486664
30
0
11
917.402244301423
21
102.07487971871
31
0
0
LINE
8
layer0
10
917.402244301423
20
102.07487971871
30
0
11
917.402244301423
21
74.3620667976084
31
0
0
LINE
8
layer0
10
2130.42249330972
20
40.5812306648202
30
0
11
1169.85082816386
21
317.874385388765
31
0
0
LINE
8
layer0
10
1169.85082816386
20
317.874385388765
30
0
11
1403.69405861473
21
165.499169793398
31
0
0
LINE
8
layer0
10
1403.69405861473
20
165.499169793398
30
0
11
2056.92249330972
21
-23.0716365133361
31
0
0
LINE
8
layer0
10
2056.92249330972
20
-23.0716365133361
30
0
11
2130.42249330972
21
40.5812306648202
31
0
0
LINE
8
layer0
10
1403.69405861473
20
165.499169793398
30
0
11
1309.24307782594
21
227.044627120245
31
0
0
LINE
8
layer0
10
1309.24307782594
20
227.044627120245
30
0
11
1300.85463540964
21
195.18635412878
31
0
0
LINE
8
layer0
10
1300.85463540964
20
195.18635412878
30
0
11
1403.69405861473
21
165.499169793398
31
0
0
LINE
8
layer0
10
1300.85463540964
20
195.18635412878
30
0
11
1307.49482043211
21
220.404960475598
31
0
0
LINE
8
layer0
10
1307.49482043211
20
220.404960475598
30
0
11
1267.13500545457
21
204.920372844548
31
0
0
LINE
8
layer0
10
1267.13500545457
20
204.920372844548
30
0
11
1300.85463540964
21
195.18635412878
31
0
0
LINE
8
layer0
10
1267.13500545457
20
204.920372844548
30
0
11
1296.86870915517
21
216.328109495569
31
0
0
LINE
8
layer0
10
1296.86870915517
20
216.328109495569
30
0
11
1207.16165274819
21
222.233188509166
31
0
0
LINE
8
layer0
10
1207.16165274819
20
222.233188509166
30
0
11
1267.13500545457
21
204.920372844548
31
0
0
LINE
8
layer0
10
1207.16165274819
20
222.233188509166
30
0
11
1283.58937586588
21
217.202238192484
31
0
0
LINE
8
layer0
10
1283.58937586588
20
217.202238192484
30
0
11
1096.6738685327
21
338.99875405953
31
0
0
LINE
8
layer0
10
1096.6738685327
20
338.99875405953
30
0
11
554.256258422041
21
495.58123066482
31
0
0
LINE
8
layer0
10
554.256258422041
20
495.58123066482
30
0
11
480.756258422041
21
431.928363486664
31
0
0
LINE
8
layer0
10
480.756258422041
20
431.928363486664
30
0
11
1207.16165274819
21
222.233188509166
31
0
0
LINE
8
layer0
10
1096.6738685327
20
338.99875405953
30
0
11
1275.43567390582
21
222.515293830951
31
0
0
LINE
8
layer0
10
1275.43567390582
20
222.515293830951
30
0
11
1281.40459801036
21
245.184533738741
31
0
0
LINE
8
layer0
10
1281.40459801036
20
245.184533738741
30
0
11
1169.85082816386
21
317.874385388765
31
0
0
LINE
8
layer0
10
1169.85082816386
20
317.874385388765
30
0
11
1096.6738685327
21
338.99875405953
31
0
0
LINE
8
layer0
10
1281.40459801036
20
245.184533738741
30
0
11
1277.18393129965
21
229.154960475598
31
0
0
LINE
8
layer0
10
1277.18393129965
20
229.154960475598
30
0
11
1295.32383791815
21
236.114580429493
31
0
0
LINE
8
layer0
10
1295.32383791815
20
236.114580429493
30
0
11
1281.40459801036
21
245.184533738741
31
0
0
LINE
8
layer0
10
1295.32383791815
20
236.114580429493
30
0
11
1287.81004257659
21
233.231811455628
31
0
0
LINE
8
layer0
10
1287.81004257659
20
233.231811455628
30
0
11
1301.08937586588
21
232.357682758712
31
0
0
LINE
8
layer0
10
1301.08937586588
20
232.357682758712
30
0
11
1295.32383791815
21
236.114580429493
31
0
0
LINE
8
layer0
10
1880.42249330972
20
-175.92512028129
30
0
11
304.256258422041
21
279.07487971871
31
0
0
LINE
8
layer0
10
304.256258422041
20
279.07487971871
30
0
11
254.256258422041
21
235.773609529488
31
0
0
LINE
8
layer0
10
254.256258422041
20
235.773609529488
30
0
11
1830.42249330972
21
-219.226390470511
31
0
0
LINE
8
layer0
10
1830.42249330972
20
-219.226390470511
30
0
11
1880.42249330972
21
-175.92512028129
31
0
0
LINE
8
layer0
10
917.402244301423
20
102.07487971871
30
0
11
1093.90224430142
21
254.928363486664
31
0
0
LINE
8
layer0
10
1093.90224430142
20
254.928363486664
30
0
11
480.756258422041
21
431.928363486664
31
0
0
LINE
8
layer0
10
480.756258422041
20
431.928363486664
30
0
11
304.256258422041
21
279.07487971871
31
0
0
LINE
8
layer0
10
304.256258422041
20
279.07487971871
30
0
11
917.402244301423
21
102.07487971871
31
0
0
LINE
8
layer0
10
2056.92249330972
20
-23.0716365133361
30
0
11
1444.64253283412
21
153.678363486664
31
0
0
LINE
8
layer0
10
1444.64253283412
20
153.678363486664
30
0
11
1268.14253283412
21
0.824879718710463
31
0
0
LINE
8
layer0
10
1268.14253283412
20
0.824879718710463
30
0
11
1880.42249330972
21
-175.92512028129
31
0
0
LINE
8
layer0
10
1880.42249330972
20
-175.92512028129
30
0
11
2056.92249330972
21
-23.0716365133361
31
0
0
ENDBLK
0
BLOCK
8
layer0
2
PF_OBJECT49
70
0
10
0
20
0
30
0
0
LINE
8
layer0
10
1112.12948563738
20
261.213617524508
30
0
11
1445.54926609438
21
164.963617524508
31
0
0
LINE
8
layer0
10
1445.54926609438
20
164.963617524508
30
0
11
1452.84361085871
21
162.010195563125
31
0
0
LINE
8
layer0
10
1452.84361085871
20
162.010195563125
30
0
11
1457.95562982366
21
158.074286113879
31
0
0
LINE
8
layer0
10
1457.95562982366
20
158.074286113879
30
0
11
1460.38492295543
21
153.541163416756
31
0
0
LINE
8
layer0
10
1460.38492295543
20
153.541163416756
30
0
11
1459.8936941164
21
148.854561105475
31
0
0
LINE
8
layer0
10
1459.8936941164
20
148.854561105475
30
0
11
1456.53002820792
21
144.473236467742
31
0
0
LINE
8
layer0
10
1456.53002820792
20
144.473236467742
30
0
11
1456.53002820792
21
144.473236467742
31
0
0
LINE
8
layer0
10
1456.53002820792
20
144.473236467742
30
0
11
1071.14872352384
21
255.723236467742
31
0
0
LINE
8
layer0
10
1071.14872352384
20
255.723236467742
30
0
11
1077.05556744661
21
259.370408849903
31
0
0
LINE
8
layer0
10
1077.05556744661
20
259.370408849903
30
0
11
1084.9273863451
21
261.926418332381
31
0
0
LINE
8
layer0
10
1084.9273863451
20
261.926418332381
30
0
11
1093.99363173935
21
263.141064898266
31
0
0
LINE
8
layer0
10
1093.99363173935
20
263.141064898266
30
0
11
1103.36683636191
21
262.895450478749
31
0
0
LINE
8
layer0
10
1103.36683636191
20
262.895450478749
30
0
11
1112.12948563738
21
261.213617524508
31
0
0
LINE
8
layer0
10
1071.14872352384
20
255.723236467742
30
0
11
1123.11024775091
21
240.723236467742
31
0
0
LINE
8
layer0
10
1123.11024775091
20
240.723236467742
30
0
11
1066.39719031411
21
251.608288001185
31
0
0
LINE
8
layer0
10
1066.39719031411
20
251.608288001185
30
0
11
1071.14872352384
21
255.723236467742
31
0
0
LINE
8
layer0
10
1071.14872352384
20
255.723236467742
30
0
11
1071.14872352384
21
255.723236467742
31
0
0
LINE
8
layer0
10
1066.39719031411
20
251.608288001185
30
0
11
1114.34759847544
21
242.405069421982
31
0
0
LINE
8
layer0
10
1114.34759847544
20
242.405069421982
30
0
11
1057.49058812784
21
243.894944246478
31
0
0
LINE
8
layer0
10
1057.49058812784
20
243.894944246478
30
0
11
1066.39719031411
21
251.608288001185
31
0
0
LINE
8
layer0
10
1057.49058812784
20
243.894944246478
30
0
11
1104.97439385288
21
242.650683841499
31
0
0
LINE
8
layer0
10
1104.97439385288
20
242.650683841499
30
0
11
1047.10075722385
21
234.897086742599
31
0
0
LINE
8
layer0
10
1047.10075722385
20
234.897086742599
30
0
11
1057.49058812784
21
243.894944246478
31
0
0
LINE
8
layer0
10
1047.10075722385
20
234.897086742599
30
0
11
1095.90814845863
21
241.436037275614
31
0
0
LINE
8
layer0
10
1095.90814845863
20
241.436037275614
30
0
11
1029.90396592746
21
220.004228616345
31
0
0
LINE
8
layer0
10
1029.90396592746
20
220.004228616345
30
0
11
1047.10075722385
21
234.897086742599
31
0
0
LINE
8
layer0
10
1029.90396592746
20
220.004228616345
30
0
11
1088.03632956014
21
238.880027793136
31
0
0
LINE
8
layer0
10
1088.03632956014
20
238.880027793136
30
0
11
961.442450803717
21
160.714817337609
31
0
0
LINE
8
layer0
10
961.442450803717
20
160.714817337609
30
0
11
1029.90396592746
21
220.004228616345
31
0
0
LINE
8
layer0
10
961.442450803717
20
160.714817337609
30
0
11
1082.12948563738
21
235.232855410975
31
0
0
LINE
8
layer0
10
1082.12948563738
20
235.232855410975
30
0
11
915.629485637376
21
91.039625680866
31
0
0
LINE
8
layer0
10
915.629485637376
20
91.039625680866
30
0
11
908.335140873054
21
93.9930476422497
31
0
0
LINE
8
layer0
10
908.335140873054
20
93.9930476422497
30
0
11
903.223121908098
21
97.9289570914956
31
0
0
LINE
8
layer0
10
903.223121908098
20
97.9289570914956
30
0
11
900.793828776327
21
102.462079788618
31
0
0
LINE
8
layer0
10
900.793828776327
20
102.462079788618
30
0
11
901.285057615361
21
107.148682099899
31
0
0
LINE
8
layer0
10
901.285057615361
20
107.148682099899
30
0
11
904.648723523842
21
111.530006737633
31
0
0
LINE
8
layer0
10
904.648723523842
20
111.530006737633
30
0
11
961.442450803717
21
160.714817337609
31
0
0
LINE
8
layer0
10
915.629485637376
20
91.039625680866
30
0
11
945.629485637376
21
117.020387794399
31
0
0
LINE
8
layer0
10
945.629485637376
20
117.020387794399
30
0
11
923.859382570489
21
88.6638590759981
31
0
0
LINE
8
layer0
10
923.859382570489
20
88.6638590759981
30
0
11
915.629485637376
21
91.039625680866
31
0
0
LINE
8
layer0
10
915.629485637376
20
91.039625680866
30
0
11
915.629485637376
21
91.039625680866
31
0
0
LINE
8
layer0
10
923.859382570489
20
88.6638590759981
30
0
11
942.265819728895
21
112.639063156666
31
0
0
LINE
8
layer0
10
942.265819728895
20
112.639063156666
30
0
11
939.286070079904
21
84.2105579828657
31
0
0
LINE
8
layer0
10
939.286070079904
20
84.2105579828657
30
0
11
923.859382570489
21
88.6638590759981
31
0
0
LINE
8
layer0
10
939.286070079904
20
84.2105579828657
30
0
11
941.774590889861
21
107.952460845384
31
0
0
LINE
8
layer0
10
941.774590889861
20
107.952460845384
30
0
11
957.28178508766
21
79.0156425308717
31
0
0
LINE
8
layer0
10
957.28178508766
20
79.0156425308717
30
0
11
939.286070079904
21
84.2105579828657
31
0
0
LINE
8
layer0
10
957.28178508766
20
79.0156425308717
30
0
11
944.203884021631
21
103.419338148262
31
0
0
LINE
8
layer0
10
944.203884021631
20
103.419338148262
30
0
11
987.067501340169
21
70.4172468826758
31
0
0
LINE
8
layer0
10
987.067501340169
20
70.4172468826758
30
0
11
957.28178508766
21
79.0156425308717
31
0
0
LINE
8
layer0
10
987.067501340169
20
70.4172468826758
30
0
11
949.315902986587
21
99.4834286990164
31
0
0
LINE
8
layer0
10
949.315902986587
20
99.4834286990164
30
0
11
1105.64632389764
21
36.1864893208033
31
0
0
LINE
8
layer0
10
1105.64632389764
20
36.1864893208033
30
0
11
987.067501340169
21
70.4172468826758
31
0
0
LINE
8
layer0
10
1105.64632389764
20
36.1864893208033
30
0
11
956.610247750909
21
96.5300067376327
31
0
0
LINE
8
layer0
10
956.610247750909
20
96.5300067376327
30
0
11
1290.03002820792
21
0.280006737632675
31
0
0
LINE
8
layer0
10
1290.03002820792
20
0.280006737632675
30
0
11
1284.12318428515
21
-3.36716564452826
31
0
0
LINE
8
layer0
10
1284.12318428515
20
-3.36716564452826
30
0
11
1276.25136538666
21
-5.9231751270064
31
0
0
LINE
8
layer0
10
1276.25136538666
20
-5.9231751270064
30
0
11
1267.18511999241
21
-7.13782169289141
31
0
0
LINE
8
layer0
10
1267.18511999241
20
-7.13782169289141
30
0
11
1257.81191536985
21
-6.89220727337442
31
0
0
LINE
8
layer0
10
1257.81191536985
20
-6.89220727337442
30
0
11
1249.04926609438
21
-5.2103743191339
31
0
0
LINE
8
layer0
10
1249.04926609438
20
-5.2103743191339
30
0
11
1105.64632389764
21
36.1864893208033
31
0
0
LINE
8
layer0
10
1290.03002820792
20
0.280006737632675
30
0
11
1238.06850398085
21
15.2800067376326
31
0
0
LINE
8
layer0
10
1238.06850398085
20
15.2800067376326
30
0
11
1294.78156141765
21
4.3949552041895
31
0
0
LINE
8
layer0
10
1294.78156141765
20
4.3949552041895
30
0
11
1290.03002820792
21
0.280006737632675
31
0
0
LINE
8
layer0
10
1290.03002820792
20
0.280006737632675
30
0
11
1290.03002820792
21
0.280006737632675
31
0
0
LINE
8
layer0
10
1294.78156141765
20
4.3949552041895
30
0
11
1246.83115325632
21
13.5981737833921
31
0
0
LINE
8
layer0
10
1246.83115325632
20
13.5981737833921
30
0
11
1303.68816360392
21
12.1082989588966
31
0
0
LINE
8
layer0
10
1303.68816360392
20
12.1082989588966
30
0
11
1294.78156141765
21
4.3949552041895
31
0
0
LINE
8
layer0
10
1303.68816360392
20
12.1082989588966
30
0
11
1256.20435787888
21
13.3525593638751
31
0
0
LINE
8
layer0
10
1256.20435787888
20
13.3525593638751
30
0
11
1314.07799450791
21
21.1061564627751
31
0
0
LINE
8
layer0
10
1314.07799450791
20
21.1061564627751
30
0
11
1303.68816360392
21
12.1082989588966
31
0
0
LINE
8
layer0
10
1314.07799450791
20
21.1061564627751
30
0
11
1265.27060327313
21
14.5672059297604
31
0
0
LINE
8
layer0
10
1265.27060327313
20
14.5672059297604
30
0
11
1331.2747858043
21
35.9990145890293
31
0
0
LINE
8
layer0
10
1331.2747858043
20
35.9990145890293
30
0
11
1314.07799450791
21
21.1061564627751
31
0
0
LINE
8
layer0
10
1331.2747858043
20
35.9990145890293
30
0
11
1273.14242217162
21
17.1232154122383
31
0
0
LINE
8
layer0
10
1273.14242217162
20
17.1232154122383
30
0
11
1399.73630092804
21
95.2884258677655
31
0
0
LINE
8
layer0
10
1399.73630092804
20
95.2884258677655
30
0
11
1331.2747858043
21
35.9990145890293
31
0
0
LINE
8
layer0
10
1399.73630092804
20
95.2884258677655
30
0
11
1279.04926609438
21
20.7703877943993
31
0
0
LINE
8
layer0
10
1279.04926609438
20
20.7703877943993
30
0
11
1430.54926609438
21
151.973236467742
31
0
0
LINE
8
layer0
10
1430.54926609438
20
151.973236467742
30
0
11
1456.53002820792
21
144.473236467742
31
0
0
LINE
8
layer0
10
1456.53002820792
20
144.473236467742
30
0
11
1399.73630092804
21
95.2884258677655
31
0
0
LINE
8
layer0
10
1430.54926609438
20
151.973236467742
30
0
11
1415.54926609438
21
138.982855410975
31
0
0
LINE
8
layer0
10
1415.54926609438
20
138.982855410975
30
0
11
1426.43431762783
21
153.161119770176
31
0
0
LINE
8
layer0
10
1426.43431762783
20
153.161119770176
30
0
11
1430.54926609438
21
151.973236467742
31
0
0
LINE
8
layer0
10
1426.43431762783
20
153.161119770176
30
0
11
1418.91293200287
21
143.364180048709
31
0
0
LINE
8
layer0
10
1418.91293200287
20
143.364180048709
30
0
11
1420.13054114596
21
154.980863294534
31
0
0
LINE
8
layer0
10
1420.13054114596
20
154.980863294534
30
0
11
1426.43431762783
21
153.161119770176
31
0
0
LINE
8
layer0
10
1420.13054114596
20
154.980863294534
30
0
11
1419.4041608419
21
148.05078235999
31
0
0
LINE
8
layer0
10
1419.4041608419
20
148.05078235999
30
0
11
1414.87772875763
21
156.497219617736
31
0
0
LINE
8
layer0
10
1414.87772875763
20
156.497219617736
30
0
11
1420.13054114596
21
154.980863294534
31
0
0
LINE
8
layer0
10
1414.87772875763
20
156.497219617736
30
0
11
1416.97486771013
21
152.583905057112
31
0
0
LINE
8
layer0
10
1416.97486771013
20
152.583905057112
30
0
11
1410.10136705664
21
157.876036474643
31
0
0
LINE
8
layer0
10
1410.10136705664
20
157.876036474643
30
0
11
1414.87772875763
21
156.497219617736
31
0
0
LINE
8
layer0
10
1410.10136705664
20
157.876036474643
30
0
11
1411.86284874517
21
156.519814506358
31
0
0
LINE
8
layer0
10
1411.86284874517
20
156.519814506358
30
0
11
1404.56850398085
21
159.473236467742
31
0
0
LINE
8
layer0
10
1404.56850398085
20
159.473236467742
30
0
11
1410.10136705664
21
157.876036474643
31
0
0
LINE
8
layer0
10
1445.54926609438
20
168.427719139646
30
0
11
1445.54926609438
21
164.963617524508
31
0
0
LINE
8
layer0
10
1445.54926609438
20
164.963617524508
30
0
11
1112.12948563738
21
261.213617524508
31
0
0
LINE
8
layer0
10
1112.12948563738
20
261.213617524508
30
0
11
1112.12948563738
21
264.677719139646
31
0
0
LINE
8
layer0
10
1112.12948563738
20
264.677719139646
30
0
11
1445.54926609438
21
168.427719139646
31
0
0
LINE
8
layer0
10
1112.12948563738
20
264.677719139646
30
0
11
1112.12948563738
21
261.213617524508
31
0
0
LINE
8
layer0
10
1112.12948563738
20
261.213617524508
30
0
11
1103.36683636191
21
262.895450478749
31
0
0
LINE
8
layer0
10
1103.36683636191
20
262.895450478749
30
0
11
1103.36683636191
21
266.359552093887
31
0
0
LINE
8
layer0
10
1103.36683636191
20
266.359552093887
30
0
11
1112.12948563738
21
264.677719139646
31
0
0
LINE
8
layer0
10
1103.36683636191
20
266.359552093887
30
0
11
1103.36683636191
21
262.895450478749
31
0
0
LINE
8
layer0
10
1103.36683636191
20
262.895450478749
30
0
11
1093.99363173935
21
263.141064898266
31
0
0
LINE
8
layer0
10
1093.99363173935
20
263.141064898266
30
0
11
1093.99363173935
21
266.605166513404
31
0
0
LINE
8
layer0
10
1093.99363173935
20
266.605166513404
30
0
11
1103.36683636191
21
266.359552093887
31
0
0
LINE
8
layer0
10
1093.99363173935
20
266.605166513404
30
0
11
1093.99363173935
21
263.141064898266
31
0
0
LINE
8
layer0
10
1093.99363173935
20
263.141064898266
30
0
11
1084.9273863451
21
261.926418332381
31
0
0
LINE
8
layer0
10
1084.9273863451
20
261.926418332381
30
0
11
1084.9273863451
21
265.390519947518
31
0
0
LINE
8
layer0
10
1084.9273863451
20
265.390519947518
30
0
11
1093.99363173935
21
266.605166513404
31
0
0
LINE
8
layer0
10
1084.9273863451
20
265.390519947518
30
0
11
1084.9273863451
21
261.926418332381
31
0
0
LINE
8
layer0
10
1084.9273863451
20
261.926418332381
30
0
11
1077.05556744661
21
259.370408849903
31
0
0
LINE
8
layer0
10
1077.05556744661
20
259.370408849903
30
0
11
1077.05556744661
21
262.83451046504
31
0
0
LINE
8
layer0
10
1077.05556744661
20
262.83451046504
30
0
11
1084.9273863451
21
265.390519947518
31
0
0
LINE
8
layer0
10
1077.05556744661
20
262.83451046504
30
0
11
1077.05556744661
21
259.370408849903
31
0
0
LINE
8
layer0
10
1077.05556744661
20
259.370408849903
30
0
11
1071.14872352384
21
255.723236467742
31
0
0
LINE
8
layer0
10
1071.14872352384
20
255.723236467742
30
0
11
1071.14872352384
21
259.187338082879
31
0
0
LINE
8
layer0
10
1071.14872352384
20
259.187338082879
30
0
11
1077.05556744661
21
262.83451046504
31
0
0
LINE
8
layer0
10
1071.14872352384
20
259.187338082879
30
0
11
1071.14872352384
21
255.723236467742
31
0
0
LINE
8
layer0
10
1071.14872352384
20
255.723236467742
30
0
11
1066.39719031411
21
251.608288001185
31
0
0
LINE
8
layer0
10
1066.39719031411
20
251.608288001185
30
0
11
1066.39719031411
21
255.072389616323
31
0
0
LINE
8
layer0
10
1066.39719031411
20
255.072389616323
30
0
11
1071.14872352384
21
259.187338082879
31
0
0
LINE
8
layer0
10
1066.39719031411
20
255.072389616323
30
0
11
1066.39719031411
21
251.608288001185
31
0
0
LINE
8
layer0
10
1066.39719031411
20
251.608288001185
30
0
11
1057.49058812784
21
243.894944246478
31
0
0
LINE
8
layer0
10
1057.49058812784
20
243.894944246478
30
0
11
1057.49058812784
21
247.359045861615
31
0
0
LINE
8
layer0
10
1057.49058812784
20
247.359045861615
30
0
11
1066.39719031411
21
255.072389616323
31
0
0
LINE
8
layer0
10
1057.49058812784
20
247.359045861615
30
0
11
1057.49058812784
21
243.894944246478
31
0
0
LINE
8
layer0
10
1057.49058812784
20
243.894944246478
30
0
11
1047.10075722385
21
234.897086742599
31
0
0
LINE
8
layer0
10
1047.10075722385
20
234.897086742599
30
0
11
1047.10075722385
21
238.361188357737
31
0
0
LINE
8
layer0
10
1047.10075722385
20
238.361188357737
30
0
11
1057.49058812784
21
247.359045861615
31
0
0
LINE
8
layer0
10
1047.10075722385
20
238.361188357737
30
0
11
1047.10075722385
21
234.897086742599
31
0
0
LINE
8
layer0
10
1047.10075722385
20
234.897086742599
30
0
11
1029.90396592746
21
220.004228616345
31
0
0
LINE
8
layer0
10
1029.90396592746
20
220.004228616345
30
0
11
1029.90396592746
21
223.468330231483
31
0
0
LINE
8
layer0
10
1029.90396592746
20
223.468330231483
30
0
11
1047.10075722385
21
238.361188357737
31
0
0
LINE
8
layer0
10
1029.90396592746
20
223.468330231483
30
0
11
1029.90396592746
21
220.004228616345
31
0
0
LINE
8
layer0
10
1029.90396592746
20
220.004228616345
30
0
11
961.442450803717
21
160.714817337609
31
0
0
LINE
8
layer0
10
961.442450803717
20
160.714817337609
30
0
11
961.442450803717
21
164.178918952747
31
0
0
LINE
8
layer0
10
961.442450803717
20
164.178918952747
30
0
11
1029.90396592746
21
223.468330231483
31
0
0
LINE
8
layer0
10
961.442450803717
20
164.178918952747
30
0
11
961.442450803717
21
160.714817337609
31
0
0
LINE
8
layer0
10
961.442450803717
20
160.714817337609
30
0
11
904.648723523842
21
111.530006737633
31
0
0
LINE
8
layer0
10
904.648723523842
20
111.530006737633
30
0
11
904.648723523842
21
114.99410835277
31
0
0
LINE
8
layer0
10
904.648723523842
20
114.99410835277
30
0
11
961.442450803717
21
164.178918952747
31
0
0
LINE
8
layer0
10
904.648723523842
20
114.99410835277
30
0
11
904.648723523842
21
111.530006737633
31
0
0
LINE
8
layer0
10
904.648723523842
20
111.530006737633
30
0
11
901.285057615361
21
107.148682099899
31
0
0
LINE
8
layer0
10
901.285057615361
20
107.148682099899
30
0
11
901.285057615361
21
110.612783715037
31
0
0
LINE
8
layer0
10
901.285057615361
20
110.612783715037
30
0
11
904.648723523842
21
114.99410835277
31
0
0
LINE
8
layer0
10
901.285057615361
20
110.612783715037
30
0
11
901.285057615361
21
107.148682099899
31
0
0
LINE
8
layer0
10
901.285057615361
20
107.148682099899
30
0
11
900.793828776327
21
102.462079788618
31
0
0
LINE
8
layer0
10
900.793828776327
20
102.462079788618
30
0
11
900.793828776327
21
105.926181403756
31
0
0
LINE
8
layer0
10
900.793828776327
20
105.926181403756
30
0
11
901.285057615361
21
110.612783715037
31
0
0
LINE
8
layer0
10
900.793828776327
20
105.926181403756
30
0
11
900.793828776327
21
102.462079788618
31
0
0
LINE
8
layer0
10
900.793828776327
20
102.462079788618
30
0
11
903.223121908098
21
97.9289570914956
31
0
0
LINE
8
layer0
10
903.223121908098
20
97.9289570914956
30
0
11
903.223121908098
21
101.393058706633
31
0
0
LINE
8
layer0
10
903.223121908098
20
101.393058706633
30
0
11
900.793828776327
21
105.926181403756
31
0
0
LINE
8
layer0
10
903.223121908098
20
101.393058706633
30
0
11
903.223121908098
21
97.9289570914956
31
0
0
LINE
8
layer0
10
903.223121908098
20
97.9289570914956
30
0
11
908.335140873054
21
93.9930476422497
31
0
0
LINE
8
layer0
10
908.335140873054
20
93.9930476422497
30
0
11
908.335140873054
21
97.4571492573875
31
0
0
LINE
8
layer0
10
908.335140873054
20
97.4571492573875
30
0
11
903.223121908098
21
101.393058706633
31
0
0
LINE
8
layer0
10
908.335140873054
20
97.4571492573875
30
0
11
908.335140873054
21
93.9930476422497
31
0
0
LINE
8
layer0
10
908.335140873054
20
93.9930476422497
30
0
11
915.629485637376
21
91.039625680866
31
0
0
LINE
8
layer0
10
915.629485637376
20
91.039625680866
30
0
11
915.629485637376
21
94.5037272960038
31
0
0
LINE
8
layer0
10
915.629485637376
20
94.5037272960038
30
0
11
908.335140873054
21
97.4571492573875
31
0
0
LINE
8
layer0
10
915.629485637376
20
94.5037272960038
30
0
11
915.629485637376
21
91.039625680866
31
0
0
LINE
8
layer0
10
915.629485637376
20
91.039625680866
30
0
11
923.859382570489
21
88.6638590759981
31
0
0
LINE
8
layer0
10
923.859382570489
20
88.6638590759981
30
0
11
923.859382570489
21
92.1279606911358
31
0
0
LINE
8
layer0
10
923.859382570489
20
92.1279606911358
30
0
11
915.629485637376
21
94.5037272960038
31
0
0
LINE
8
layer0
10
923.859382570489
20
92.1279606911358
30
0
11
923.859382570489
21
88.6638590759981
31
0
0
LINE
8
layer0
10
923.859382570489
20
88.6638590759981
30
0
11
939.286070079904
21
84.2105579828657
31
0
0
LINE
8
layer0
10
939.286070079904
20
84.2105579828657
30
0
11
939.286070079904
21
87.6746595980035
31
0
0
LINE
8
layer0
10
939.286070079904
20
87.6746595980035
30
0
11
923.859382570489
21
92.1279606911358
31
0
0
LINE
8
layer0
10
939.286070079904
20
87.6746595980035
30
0
11
939.286070079904
21
84.2105579828657
31
0
0
LINE
8
layer0
10
939.286070079904
20
84.2105579828657
30
0
11
957.28178508766
21
79.0156425308717
31
0
0
LINE
8
layer0
10
957.28178508766
20
79.0156425308717
30
0
11
957.28178508766
21
82.4797441460095
31
0
0
LINE
8
layer0
10
957.28178508766
20
82.4797441460095
30
0
11
939.286070079904
21
87.6746595980035
31
0
0
LINE
8
layer0
10
957.28178508766
20
82.4797441460095
30
0
11
957.28178508766
21
79.0156425308717
31
0
0
LINE
8
layer0
10
957.28178508766
20
79.0156425308717
30
0
11
987.067501340169
21
70.4172468826759
31
0
0
LINE
8
layer0
10
987.067501340169
20
70.4172468826759
30
0
11
987.067501340169
21
73.8813484978136
31
0
0
LINE
8
layer0
10
987.067501340169
20
73.8813484978136
30
0
11
957.28178508766
21
82.4797441460095
31
0
0
LINE
8
layer0
10
987.067501340169
20
73.8813484978136
30
0
11
987.067501340169
21
70.4172468826759
31
0
0
LINE
8
layer0
10
987.067501340169
20
70.4172468826759
30
0
11
1105.64632389764
21
36.1864893208033
31
0
0
LINE
8
layer0
10
1105.64632389764
20
36.1864893208033
30
0
11
1105.64632389764
21
39.650590935941
31
0
0
LINE
8
layer0
10
1105.64632389764
20
39.650590935941
30
0
11
987.067501340169
21
73.8813484978136
31
0
0
LINE
8
layer0
10
1105.64632389764
20
39.650590935941
30
0
11
1105.64632389764
21
36.1864893208033
31
0
0
LINE
8
layer0
10
1105.64632389764
20
36.1864893208033
30
0
11
1249.04926609438
21
-5.2103743191339
31
0
0
LINE
8
layer0
10
1249.04926609438
20
-5.2103743191339
30
0
11
1249.04926609438
21
-1.74627270399617
31
0
0
LINE
8
layer0
10
1249.04926609438
20
-1.74627270399617
30
0
11
1105.64632389764
21
39.650590935941
31
0
0
LINE
8
layer0
10
1249.04926609438
20
-1.74627270399617
30
0
11
1249.04926609438
21
-5.2103743191339
31
0
0
LINE
8
layer0
10
1249.04926609438
20
-5.2103743191339
30
0
11
1257.81191536985
21
-6.89220727337442
31
0
0
LINE
8
layer0
10
1257.81191536985
20
-6.89220727337442
30
0
11
1257.81191536985
21
-3.42810565823669
31
0
0
LINE
8
layer0
10
1257.81191536985
20
-3.42810565823669
30
0
11
1249.04926609438
21
-1.74627270399617
31
0
0
LINE
8
layer0
10
1257.81191536985
20
-3.42810565823669
30
0
11
1257.81191536985
21
-6.89220727337442
31
0
0
LINE
8
layer0
10
1257.81191536985
20
-6.89220727337442
30
0
11
1267.18511999241
21
-7.13782169289141
31
0
0
LINE
8
layer0
10
1267.18511999241
20
-7.13782169289141
30
0
11
1267.18511999241
21
-3.67372007775367
31
0
0
LINE
8
layer0
10
1267.18511999241
20
-3.67372007775367
30
0
11
1257.81191536985
21
-3.42810565823669
31
0
0
LINE
8
layer0
10
1267.18511999241
20
-3.67372007775367
30
0
11
1267.18511999241
21
-7.13782169289141
31
0
0
LINE
8
layer0
10
1267.18511999241
20
-7.13782169289141
30
0
11
1276.25136538666
21
-5.9231751270064
31
0
0
LINE
8
layer0
10
1276.25136538666
20
-5.9231751270064
30
0
11
1276.25136538666
21
-2.45907351186861
31
0
0
LINE
8
layer0
10
1276.25136538666
20
-2.45907351186861
30
0
11
1267.18511999241
21
-3.67372007775367
31
0
0
LINE
8
layer0
10
1276.25136538666
20
-2.45907351186861
30
0
11
1276.25136538666
21
-5.9231751270064
31
0
0
LINE
8
layer0
10
1276.25136538666
20
-5.9231751270064
30
0
11
1284.12318428515
21
-3.36716564452826
31
0
0
LINE
8
layer0
10
1284.12318428515
20
-3.36716564452826
30
0
11
1284.12318428515
21
0.0969359706094792
31
0
0
LINE
8
layer0
10
1284.12318428515
20
0.0969359706094792
30
0
11
1276.25136538666
21
-2.45907351186861
31
0
0
LINE
8
layer0
10
1284.12318428515
20
0.0969359706094792
30
0
11
1284.12318428515
21
-3.36716564452826
31
0
0
LINE
8
layer0
10
1284.12318428515
20
-3.36716564452826
30
0
11
1290.03002820792
21
0.280006737632675
31
0
0
LINE
8
layer0
10
1290.03002820792
20
0.280006737632675
30
0
11
1290.03002820792
21
3.74410835277047
31
0
0
LINE
8
layer0
10
1290.03002820792
20
3.74410835277047
30
0
11
1284.12318428515
21
0.0969359706094792
31
0
0
LINE
8
layer0
10
1290.03002820792
20
3.74410835277047
30
0
11
1290.03002820792
21
0.280006737632675
31
0
0
LINE
8
layer0
10
1290.03002820792
20
0.280006737632675
30
0
11
1294.78156141765
21
4.3949552041895
31
0
0
LINE
8
layer0
10
1294.78156141765
20
4.3949552041895
30
0
11
1294.78156141765
21
7.85905681932729
31
0
0
LINE
8
layer0
10
1294.78156141765
20
7.85905681932729
30
0
11
1290.03002820792
21
3.74410835277047
31
0
0
LINE
8
layer0
10
1294.78156141765
20
7.85905681932729
30
0
11
1294.78156141765
21
4.3949552041895
31
0
0
LINE
8
layer0
10
1294.78156141765
20
4.3949552041895
30
0
11
1303.68816360392
21
12.1082989588966
31
0
0
LINE
8
layer0
10
1303.68816360392
20
12.1082989588966
30
0
11
1303.68816360392
21
15.5724005740344
31
0
0
LINE
8
layer0
10
1303.68816360392
20
15.5724005740344
30
0
11
1294.78156141765
21
7.85905681932729
31
0
0
LINE
8
layer0
10
1303.68816360392
20
15.5724005740344
30
0
11
1303.68816360392
21
12.1082989588966
31
0
0
LINE
8
layer0
10
1303.68816360392
20
12.1082989588966
30
0
11
1314.07799450791
21
21.1061564627751
31
0
0
LINE
8
layer0
10
1314.07799450791
20
21.1061564627751
30
0
11
1314.07799450791
21
24.5702580779129
31
0
0
LINE
8
layer0
10
1314.07799450791
20
24.5702580779129
30
0
11
1303.68816360392
21
15.5724005740344
31
0
0
LINE
8
layer0
10
1314.07799450791
20
24.5702580779129
30
0
11
1314.07799450791
21
21.1061564627751
31
0
0
LINE
8
layer0
10
1314.07799450791
20
21.1061564627751
30
0
11
1331.2747858043
21
35.9990145890293
31
0
0
LINE
8
layer0
10
1331.2747858043
20
35.9990145890293
30
0
11
1331.2747858043
21
39.4631162041671
31
0
0
LINE
8
layer0
10
1331.2747858043
20
39.4631162041671
30
0
11
1314.07799450791
21
24.5702580779129
31
0
0
LINE
8
layer0
10
1331.2747858043
20
39.4631162041671
30
0
11
1331.2747858043
21
35.9990145890293
31
0
0
LINE
8
layer0
10
1331.2747858043
20
35.9990145890293
30
0
11
1399.73630092804
21
95.2884258677655
31
0
0
LINE
8
layer0
10
1399.73630092804
20
95.2884258677655
30
0
11
1399.73630092804
21
98.7525274829032
31
0
0
LINE
8
layer0
10
1399.73630092804
20
98.7525274829032
30
0
11
1331.2747858043
21
39.4631162041671
31
0
0
LINE
8
layer0
10
1399.73630092804
20
98.7525274829032
30
0
11
1399.73630092804
21
95.2884258677655
31
0
0
LINE
8
layer0
10
1399.73630092804
20
95.2884258677655
30
0
11
1456.53002820792
21
144.473236467742
31
0
0
LINE
8
layer0
10
1456.53002820792
20
144.473236467742
30
0
11
1456.53002820792
21
147.937338082879
31
0
0
LINE
8
layer0
10
1456.53002820792
20
147.937338082879
30
0
11
1399.73630092804
21
98.7525274829032
31
0
0
LINE
8
layer0
10
1456.53002820792
20
147.937338082879
30
0
11
1456.53002820792
21
144.473236467742
31
0
0
LINE
8
layer0
10
1456.53002820792
20
144.473236467742
30
0
11
1459.8936941164
21
148.854561105475
31
0
0
LINE
8
layer0
10
1459.8936941164
20
148.854561105475
30
0
11
1459.8936941164
21
152.318662720613
31
0
0
LINE
8
layer0
10
1459.8936941164
20
152.318662720613
30
0
11
1456.53002820792
21
147.937338082879
31
0
0
LINE
8
layer0
10
1459.8936941164
20
152.318662720613
30
0
11
1459.8936941164
21
148.854561105475
31
0
0
LINE
8
layer0
10
1459.8936941164
20
148.854561105475
30
0
11
1460.38492295543
21
153.541163416756
31
0
0
LINE
8
layer0
10
1460.38492295543
20
153.541163416756
30
0
11
1460.38492295543
21
157.005265031894
31
0
0
LINE
8
layer0
10
1460.38492295543
20
157.005265031894
30
0
11
1459.8936941164
21
152.318662720613
31
0
0
LINE
8
layer0
10
1460.38492295543
20
157.005265031894
30
0
11
1460.38492295543
21
153.541163416756
31
0
0
LINE
8
layer0
10
1460.38492295543
20
153.541163416756
30
0
11
1457.95562982366
21
158.074286113879
31
0
0
LINE
8
layer0
10
1457.95562982366
20
158.074286113879
30
0
11
1457.95562982366
21
161.538387729016
31
0
0
LINE
8
layer0
10
1457.95562982366
20
161.538387729016
30
0
11
1460.38492295543
21
157.005265031894
31
0
0
LINE
8
layer0
10
1457.95562982366
20
161.538387729016
30
0
11
1457.95562982366
21
158.074286113879
31
0
0
LINE
8
layer0
10
1457.95562982366
20
158.074286113879
30
0
11
1452.84361085871
21
162.010195563125
31
0
0
LINE
8
layer0
10
1452.84361085871
20
162.010195563125
30
0
11
1452.84361085871
21
165.474297178262
31
0
0
LINE
8
layer0
10
1452.84361085871
20
165.474297178262
30
0
11
1457.95562982366
21
161.538387729016
31
0
0
LINE
8
layer0
10
1452.84361085871
20
165.474297178262
30
0
11
1452.84361085871
21
162.010195563125
31
0
0
LINE
8
layer0
10
1452.84361085871
20
162.010195563125
30
0
11
1445.54926609438
21
164.963617524508
31
0
0
LINE
8
layer0
10
1445.54926609438
20
164.963617524508
30
0
11
1445.54926609438
21
168.427719139646
31
0
0
LINE
8
layer0
10
1445.54926609438
20
168.427719139646
30
0
11
1452.84361085871
21
165.474297178262
31
0
0
LINE
8
layer0
10
1404.56850398085
20
159.473236467742
30
0
11
1404.56850398085
21
162.937338082879
31
0
0
LINE
8
layer0
10
1404.56850398085
20
162.937338082879
30
0
11
1123.11024775091
21
244.187338082879
31
0
0
LINE
8
layer0
10
1123.11024775091
20
244.187338082879
30
0
11
1123.11024775091
21
240.723236467742
31
0
0
LINE
8
layer0
10
1123.11024775091
20
240.723236467742
30
0
11
1404.56850398085
21
159.473236467742
31
0
0
LINE
8
layer0
10
1123.11024775091
20
240.723236467742
30
0
11
1123.11024775091
21
244.187338082879
31
0
0
LINE
8
layer0
10
1123.11024775091
20
244.187338082879
30
0
11
1114.34759847544
21
245.86917103712
31
0
0
LINE
8
layer0
10
1114.34759847544
20
245.86917103712
30
0
11
1114.34759847544
21
242.405069421982
31
0
0
LINE
8
layer0
10
1114.34759847544
20
242.405069421982
30
0
11
1123.11024775091
21
240.723236467742
31
0
0
LINE
8
layer0
10
1114.34759847544
20
242.405069421982
30
0
11
1114.34759847544
21
245.86917103712
31
0
0
LINE
8
layer0
10
1114.34759847544
20
245.86917103712
30
0
11
1104.97439385288
21
246.114785456637
31
0
0
LINE
8
layer0
10
1104.97439385288
20
246.114785456637
30
0
11
1104.97439385288
21
242.650683841499
31
0
0
LINE
8
layer0
10
1104.97439385288
20
242.650683841499
30
0
11
1114.34759847544
21
242.405069421982
31
0
0
LINE
8
layer0
10
1104.97439385288
20
242.650683841499
30
0
11
1104.97439385288
21
246.114785456637
31
0
0
LINE
8
layer0
10
1104.97439385288
20
246.114785456637
30
0
11
1095.90814845863
21
244.900138890752
31
0
0
LINE
8
layer0
10
1095.90814845863
20
244.900138890752
30
0
11
1095.90814845863
21
241.436037275614
31
0
0
LINE
8
layer0
10
1095.90814845863
20
241.436037275614
30
0
11
1104.97439385288
21
242.650683841499
31
0
0
LINE
8
layer0
10
1095.90814845863
20
241.436037275614
30
0
11
1095.90814845863
21
244.900138890752
31
0
0
LINE
8
layer0
10
1095.90814845863
20
244.900138890752
30
0
11
1088.03632956014
21
242.344129408274
31
0
0
LINE
8
layer0
10
1088.03632956014
20
242.344129408274
30
0
11
1088.03632956014
21
238.880027793136
31
0
0
LINE
8
layer0
10
1088.03632956014
20
238.880027793136
30
0
11
1095.90814845863
21
241.436037275614
31
0
0
LINE
8
layer0
10
1088.03632956014
20
238.880027793136
30
0
11
1088.03632956014
21
242.344129408274
31
0
0
LINE
8
layer0
10
1088.03632956014
20
242.344129408274
30
0
11
1082.12948563738
21
238.696957026113
31
0
0
LINE
8
layer0
10
1082.12948563738
20
238.696957026113
30
0
11
1082.12948563738
21
235.232855410975
31
0
0
LINE
8
layer0
10
1082.12948563738
20
235.232855410975
30
0
11
1088.03632956014
21
238.880027793136
31
0
0
LINE
8
layer0
10
1082.12948563738
20
235.232855410975
30
0
11
1082.12948563738
21
238.696957026113
31
0
0
LINE
8
layer0
10
1082.12948563738
20
238.696957026113
30
0
11
945.629485637376
21
120.484489409537
31
0
0
LINE
8
layer0
10
945.629485637376
20
120.484489409537
30
0
11
945.629485637376
21
117.020387794399
31
0
0
LINE
8
layer0
10
945.629485637376
20
117.020387794399
30
0
11
1082.12948563738
21
235.232855410975
31
0
0
LINE
8
layer0
10
945.629485637376
20
117.020387794399
30
0
11
945.629485637376
21
120.484489409537
31
0
0
LINE
8
layer0
10
945.629485637376
20
120.484489409537
30
0
11
942.265819728895
21
116.103164771803
31
0
0
LINE
8
layer0
10
942.265819728895
20
116.103164771803
30
0
11
942.265819728895
21
112.639063156666
31
0
0
LINE
8
layer0
10
942.265819728895
20
112.639063156666
30
0
11
945.629485637376
21
117.020387794399
31
0
0
LINE
8
layer0
10
942.265819728895
20
112.639063156666
30
0
11
942.265819728895
21
116.103164771803
31
0
0
LINE
8
layer0
10
942.265819728895
20
116.103164771803
30
0
11
941.774590889861
21
111.416562460522
31
0
0
LINE
8
layer0
10
941.774590889861
20
111.416562460522
30
0
11
941.774590889861
21
107.952460845384
31
0
0
LINE
8
layer0
10
941.774590889861
20
107.952460845384
30
0
11
942.265819728895
21
112.639063156666
31
0
0
LINE
8
layer0
10
941.774590889861
20
107.952460845384
30
0
11
941.774590889861
21
111.416562460522
31
0
0
LINE
8
layer0
10
941.774590889861
20
111.416562460522
30
0
11
944.203884021631
21
106.8834397634
31
0
0
LINE
8
layer0
10
944.203884021631
20
106.8834397634
30
0
11
944.203884021631
21
103.419338148262
31
0
0
LINE
8
layer0
10
944.203884021631
20
103.419338148262
30
0
11
941.774590889861
21
107.952460845384
31
0
0
LINE
8
layer0
10
944.203884021631
20
103.419338148262
30
0
11
944.203884021631
21
106.8834397634
31
0
0
LINE
8
layer0
10
944.203884021631
20
106.8834397634
30
0
11
949.315902986587
21
102.947530314154
31
0
0
LINE
8
layer0
10
949.315902986587
20
102.947530314154
30
0
11
949.315902986587
21
99.4834286990164
31
0
0
LINE
8
layer0
10
949.315902986587
20
99.4834286990164
30
0
11
944.203884021631
21
103.419338148262
31
0
0
LINE
8
layer0
10
949.315902986587
20
99.4834286990164
30
0
11
949.315902986587
21
102.947530314154
31
0
0
LINE
8
layer0
10
949.315902986587
20
102.947530314154
30
0
11
956.610247750909
21
99.9941083527704
31
0
0
LINE
8
layer0
10
956.610247750909
20
99.9941083527704
30
0
11
956.610247750909
21
96.5300067376327
31
0
0
LINE
8
layer0
10
956.610247750909
20
96.5300067376327
30
0
11
949.315902986587
21
99.4834286990164
31
0
0
LINE
8
layer0
10
956.610247750909
20
96.5300067376327
30
0
11
956.610247750909
21
99.9941083527704
31
0
0
LINE
8
layer0
10
956.610247750909
20
99.9941083527704
30
0
11
1238.06850398085
21
18.7441083527704
31
0
0
LINE
8
layer0
10
1238.06850398085
20
18.7441083527704
30
0
11
1238.06850398085
21
15.2800067376327
31
0
0
LINE
8
layer0
10
1238.06850398085
20
15.2800067376327
30
0
11
956.610247750909
21
96.5300067376327
31
0
0
LINE
8
layer0
10
1238.06850398085
20
15.2800067376327
30
0
11
1238.06850398085
21
18.7441083527705
31
0
0
LINE
8
layer0
10
1238.06850398085
20
18.7441083527705
30
0
11
1246.83115325632
21
17.0622753985299
31
0
0
LINE
8
layer0
10
1246.83115325632
20
17.0622753985299
30
0
11
1246.83115325632
21
13.5981737833922
31
0
0
LINE
8
layer0
10
1246.83115325632
20
13.5981737833922
30
0
11
1238.06850398085
21
15.2800067376327
31
0
0
LINE
8
layer0
10
1246.83115325632
20
13.5981737833922
30
0
11
1246.83115325632
21
17.0622753985299
31
0
0
LINE
8
layer0
10
1246.83115325632
20
17.0622753985299
30
0
11
1256.20435787888
21
16.8166609790129
31
0
0
LINE
8
layer0
10
1256.20435787888
20
16.8166609790129
30
0
11
1256.20435787888
21
13.3525593638751
31
0
0
LINE
8
layer0
10
1256.20435787888
20
13.3525593638751
30
0
11
1246.83115325632
21
13.5981737833922
31
0
0
LINE
8
layer0
10
1256.20435787888
20
13.3525593638751
30
0
11
1256.20435787888
21
16.8166609790129
31
0
0
LINE
8
layer0
10
1256.20435787888
20
16.8166609790129
30
0
11
1265.27060327313
21
18.0313075448979
31
0
0
LINE
8
layer0
10
1265.27060327313
20
18.0313075448979
30
0
11
1265.27060327313
21
14.5672059297602
31
0
0
LINE
8
layer0
10
1265.27060327313
20
14.5672059297602
30
0
11
1256.20435787888
21
13.3525593638751
31
0
0
LINE
8
layer0
10
1265.27060327313
20
14.5672059297602
30
0
11
1265.27060327313
21
18.031307544898
31
0
0
LINE
8
layer0
10
1265.27060327313
20
18.031307544898
30
0
11
1273.14242217162
21
20.5873170273761
31
0
0
LINE
8
layer0
10
1273.14242217162
20
20.5873170273761
30
0
11
1273.14242217162
21
17.1232154122383
31
0
0
LINE
8
layer0
10
1273.14242217162
20
17.1232154122383
30
0
11
1265.27060327313
21
14.5672059297602
31
0
0
LINE
8
layer0
10
1273.14242217162
20
17.1232154122383
30
0
11
1273.14242217162
21
20.5873170273761
31
0
0
LINE
8
layer0
10
1273.14242217162
20
20.5873170273761
30
0
11
1279.04926609438
21
24.234489409537
31
0
0
LINE
8
layer0
10
1279.04926609438
20
24.234489409537
30
0
11
1279.04926609438
21
20.7703877943993
31
0
0
LINE
8
layer0
10
1279.04926609438
20
20.7703877943993
30
0
11
1273.14242217162
21
17.1232154122383
31
0
0
LINE
8
layer0
10
1279.04926609438
20
20.7703877943993
30
0
11
1279.04926609438
21
24.234489409537
31
0
0
LINE
8
layer0
10
1279.04926609438
20
24.234489409537
30
0
11
1415.54926609438
21
142.446957026113
31
0
0
LINE
8
layer0
10
1415.54926609438
20
142.446957026113
30
0
11
1415.54926609438
21
138.982855410975
31
0
0
LINE
8
layer0
10
1415.54926609438
20
138.982855410975
30
0
11
1279.04926609438
21
20.7703877943993
31
0
0
LINE
8
layer0
10
1415.54926609438
20
138.982855410975
30
0
11
1415.54926609438
21
142.446957026113
31
0
0
LINE
8
layer0
10
1415.54926609438
20
142.446957026113
30
0
11
1418.91293200287
21
146.828281663847
31
0
0
LINE
8
layer0
10
1418.91293200287
20
146.828281663847
30
0
11
1418.91293200287
21
143.364180048709
31
0
0
LINE
8
layer0
10
1418.91293200287
20
143.364180048709
30
0
11
1415.54926609438
21
138.982855410975
31
0
0
LINE
8
layer0
10
1418.91293200287
20
143.364180048709
30
0
11
1418.91293200287
21
146.828281663847
31
0
0
LINE
8
layer0
10
1418.91293200287
20
146.828281663847
30
0
11
1419.4041608419
21
151.514883975128
31
0
0
LINE
8
layer0
10
1419.4041608419
20
151.514883975128
30
0
11
1419.4041608419
21
148.05078235999
31
0
0
LINE
8
layer0
10
1419.4041608419
20
148.05078235999
30
0
11
1418.91293200287
21
143.364180048709
31
0
0
LINE
8
layer0
10
1419.4041608419
20
148.05078235999
30
0
11
1419.4041608419
21
151.514883975128
31
0
0
LINE
8
layer0
10
1419.4041608419
20
151.514883975128
30
0
11
1416.97486771013
21
156.04800667225
31
0
0
LINE
8
layer0
10
1416.97486771013
20
156.04800667225
30
0
11
1416.97486771013
21
152.583905057112
31
0
0
LINE
8
layer0
10
1416.97486771013
20
152.583905057112
30
0
11
1419.4041608419
21
148.05078235999
31
0
0
LINE
8
layer0
10
1416.97486771013
20
152.583905057112
30
0
11
1416.97486771013
21
156.04800667225
31
0
0
LINE
8
layer0
10
1416.97486771013
20
156.04800667225
30
0
11
1411.86284874517
21
159.983916121496
31
0
0
LINE
8
layer0
10
1411.86284874517
20
159.983916121496
30
0
11
1411.86284874517
21
156.519814506358
31
0
0
LINE
8
layer0
10
1411.86284874517
20
156.519814506358
30
0
11
1416.97486771013
21
152.583905057112
31
0
0
LINE
8
layer0
10
1411.86284874517
20
156.519814506358
30
0
11
1411.86284874517
21
159.983916121496
31
0
0
LINE
8
layer0
10
1411.86284874517
20
159.983916121496
30
0
11
1404.56850398085
21
162.937338082879
31
0
0
LINE
8
layer0
10
1404.56850398085
20
162.937338082879
30
0
11
1404.56850398085
21
159.473236467742
31
0
0
LINE
8
layer0
10
1404.56850398085
20
159.473236467742
30
0
11
1411.86284874517
21
156.519814506358
31
0
0
LINE
8
layer0
10
1445.54926609438
20
168.427719139646
30
0
11
1112.12948563738
21
264.677719139646
31
0
0
LINE
8
layer0
10
1112.12948563738
20
264.677719139646
30
0
11
1103.36683636191
21
266.359552093887
31
0
0
LINE
8
layer0
10
1103.36683636191
20
266.359552093887
30
0
11
1093.99363173935
21
266.605166513404
31
0
0
LINE
8
layer0
10
1093.99363173935
20
266.605166513404
30
0
11
1084.9273863451
21
265.390519947518
31
0
0
LINE
8
layer0
10
1084.9273863451
20
265.390519947518
30
0
11
1077.05556744661
21
262.83451046504
31
0
0
LINE
8
layer0
10
1077.05556744661
20
262.83451046504
30
0
11
1071.14872352384
21
259.187338082879
31
0
0
LINE
8
layer0
10
1071.14872352384
20
259.187338082879
30
0
11
1071.14872352384
21
259.187338082879
31
0
0
LINE
8
layer0
10
1071.14872352384
20
259.187338082879
30
0
11
1456.53002820792
21
147.937338082879
31
0
0
LINE
8
layer0
10
1456.53002820792
20
147.937338082879
30
0
11
1459.8936941164
21
152.318662720613
31
0
0
LINE
8
layer0
10
1459.8936941164
20
152.318662720613
30
0
11
1460.38492295543
21
157.005265031894
31
0
0
LINE
8
layer0
10
1460.38492295543
20
157.005265031894
30
0
11
1457.95562982366
21
161.538387729016
31
0
0
LINE
8
layer0
10
1457.95562982366
20
161.538387729016
30
0
11
1452.84361085871
21
165.474297178262
31
0
0
LINE
8
layer0
10
1452.84361085871
20
165.474297178262
30
0
11
1445.54926609438
21
168.427719139646
31
0
0
LINE
8
layer0
10
1066.39719031411
20
255.072389616323
30
0
11
1123.11024775091
21
244.187338082879
31
0
0
LINE
8
layer0
10
1123.11024775091
20
244.187338082879
30
0
11
1071.14872352384
21
259.187338082879
31
0
0
LINE
8
layer0
10
1071.14872352384
20
259.187338082879
30
0
11
1066.39719031411
21
255.072389616323
31
0
0
LINE
8
layer0
10
1057.49058812784
20
247.359045861615
30
0
11
1114.34759847544
21
245.86917103712
31
0
0
LINE
8
layer0
10
1114.34759847544
20
245.86917103712
30
0
11
1066.39719031411
21
255.072389616323
31
0
0
LINE
8
layer0
10
1066.39719031411
20
255.072389616323
30
0
11
1057.49058812784
21
247.359045861615
31
0
0
LINE
8
layer0
10
1047.10075722385
20
238.361188357737
30
0
11
1104.97439385288
21
246.114785456637
31
0
0
LINE
8
layer0
10
1104.97439385288
20
246.114785456637
30
0
11
1057.49058812784
21
247.359045861615
31
0
0
LINE
8
layer0
10
1057.49058812784
20
247.359045861615
30
0
11
1047.10075722385
21
238.361188357737
31
0
0
LINE
8
layer0
10
1029.90396592746
20
223.468330231483
30
0
11
1095.90814845863
21
244.900138890752
31
0
0
LINE
8
layer0
10
1095.90814845863
20
244.900138890752
30
0
11
1047.10075722385
21
238.361188357737
31
0
0
LINE
8
layer0
10
1047.10075722385
20
238.361188357737
30
0
11
1029.90396592746
21
223.468330231483
31
0
0
LINE
8
layer0
10
961.442450803717
20
164.178918952747
30
0
11
1088.03632956014
21
242.344129408274
31
0
0
LINE
8
layer0
10
1088.03632956014
20
242.344129408274
30
0
11
1029.90396592746
21
223.468330231483
31
0
0
LINE
8
layer0
10
1029.90396592746
20
223.468330231483
30
0
11
961.442450803717
21
164.178918952747
31
0
0
LINE
8
layer0
10
915.629485637376
20
94.5037272960038
30
0
11
1082.12948563738
21
238.696957026113
31
0
0
LINE
8
layer0
10
1082.12948563738
20
238.696957026113
30
0
11
961.442450803717
21
164.178918952747
31
0
0
LINE
8
layer0
10
961.442450803717
20
164.178918952747
30
0
11
904.648723523842
21
114.99410835277
31
0
0
LINE
8
layer0
10
904.648723523842
20
114.99410835277
30
0
11
901.285057615361
21
110.612783715037
31
0
0
LINE
8
layer0
10
901.285057615361
20
110.612783715037
30
0
11
900.793828776327
21
105.926181403756
31
0
0
LINE
8
layer0
10
900.793828776327
20
105.926181403756
30
0
11
903.223121908098
21
101.393058706633
31
0
0
LINE
8
layer0
10
903.223121908098
20
101.393058706633
30
0
11
908.335140873054
21
97.4571492573875
31
0
0
LINE
8
layer0
10
908.335140873054
20
97.4571492573875
30
0
11
915.629485637376
21
94.5037272960038
31
0
0
LINE
8
layer0
10
915.629485637376
20
94.5037272960038
30
0
11
915.629485637376
21
94.5037272960038
31
0
0
LINE
8
layer0
10
923.859382570489
20
92.1279606911358
30
0
11
945.629485637376
21
120.484489409537
31
0
0
LINE
8
layer0
10
945.629485637376
20
120.484489409537
30
0
11
915.629485637376
21
94.5037272960038
31
0
0
LINE
8
layer0
10
915.629485637376
20
94.5037272960038
30
0
11
923.859382570489
21
92.1279606911358
31
0
0
LINE
8
layer0
10
939.286070079904
20
87.6746595980035
30
0
11
942.265819728895
21
116.103164771803
31
0
0
LINE
8
layer0
10
942.265819728895
20
116.103164771803
30
0
11
923.859382570489
21
92.1279606911358
31
0
0
LINE
8
layer0
10
923.859382570489
20
92.1279606911358
30
0
11
939.286070079904
21
87.6746595980035
31
0
0
LINE
8
layer0
10
957.28178508766
20
82.4797441460095
30
0
11
941.774590889861
21
111.416562460522
31
0
0
LINE
8
layer0
10
941.774590889861
20
111.416562460522
30
0
11
939.286070079904
21
87.6746595980035
31
0
0
LINE
8
layer0
10
939.286070079904
20
87.6746595980035
30
0
11
957.28178508766
21
82.4797441460095
31
0
0
LINE
8
layer0
10
987.067501340169
20
73.8813484978136
30
0
11
944.203884021631
21
106.8834397634
31
0
0
LINE
8
layer0
10
944.203884021631
20
106.8834397634
30
0
11
957.28178508766
21
82.4797441460095
31
0
0
LINE
8
layer0
10
957.28178508766
20
82.4797441460095
30
0
11
987.067501340169
21
73.8813484978136
31
0
0
LINE
8
layer0
10
1105.64632389764
20
39.650590935941
30
0
11
949.315902986587
21
102.947530314154
31
0
0
LINE
8
layer0
10
949.315902986587
20
102.947530314154
30
0
11
987.067501340169
21
73.8813484978136
31
0
0
LINE
8
layer0
10
987.067501340169
20
73.8813484978136
30
0
11
1105.64632389764
21
39.650590935941
31
0
0
LINE
8
layer0
10
1290.03002820792
20
3.74410835277047
30
0
11
956.610247750909
21
99.9941083527704
31
0
0
LINE
8
layer0
10
956.610247750909
20
99.9941083527704
30
0
11
1105.64632389764
21
39.650590935941
31
0
0
LINE
8
layer0
10
1105.64632389764
20
39.650590935941
30
0
11
1249.04926609438
21
-1.74627270399617
31
0
0
LINE
8
layer0
10
1249.04926609438
20
-1.74627270399617
30
0
11
1257.81191536985
21
-3.42810565823669
31
0
0
LINE
8
layer0
10
1257.81191536985
20
-3.42810565823669
30
0
11
1267.18511999241
21
-3.67372007775367
31
0
0
LINE
8
layer0
10
1267.18511999241
20
-3.67372007775367
30
0
11
1276.25136538666
21
-2.45907351186861
31
0
0
LINE
8
layer0
10
1276.25136538666
20
-2.45907351186861
30
0
11
1284.12318428515
21
0.0969359706094792
31
0
0
LINE
8
layer0
10
1284.12318428515
20
0.0969359706094792
30
0
11
1290.03002820792
21
3.74410835277047
31
0
0
LINE
8
layer0
10
1290.03002820792
20
3.74410835277047
30
0
11
1290.03002820792
21
3.74410835277047
31
0
0
LINE
8
layer0
10
1294.78156141765
20
7.85905681932729
30
0
11
1238.06850398085
21
18.7441083527704
31
0
0
LINE
8
layer0
10
1238.06850398085
20
18.7441083527704
30
0
11
1290.03002820792
21
3.74410835277047
31
0
0
LINE
8
layer0
10
1290.03002820792
20
3.74410835277047
30
0
11
1294.78156141765
21
7.85905681932729
31
0
0
LINE
8
layer0
10
1303.68816360392
20
15.5724005740344
30
0
11
1246.83115325632
21
17.0622753985299
31
0
0
LINE
8
layer0
10
1246.83115325632
20
17.0622753985299
30
0
11
1294.78156141765
21
7.85905681932729
31
0
0
LINE
8
layer0
10
1294.78156141765
20
7.85905681932729
30
0
11
1303.68816360392
21
15.5724005740344
31
0
0
LINE
8
layer0
10
1314.07799450791
20
24.5702580779129
30
0
11
1256.20435787888
21
16.8166609790129
31
0
0
LINE
8
layer0
10
1256.20435787888
20
16.8166609790129
30
0
11
1303.68816360392
21
15.5724005740344
31
0
0
LINE
8
layer0
10
1303.68816360392
20
15.5724005740344
30
0
11
1314.07799450791
21
24.5702580779129
31
0
0
LINE
8
layer0
10
1331.2747858043
20
39.4631162041671
30
0
11
1265.27060327313
21
18.031307544898
31
0
0
LINE
8
layer0
10
1265.27060327313
20
18.031307544898
30
0
11
1314.07799450791
21
24.5702580779129
31
0
0
LINE
8
layer0
10
1314.07799450791
20
24.5702580779129
30
0
11
1331.2747858043
21
39.4631162041671
31
0
0
LINE
8
layer0
10
1399.73630092804
20
98.7525274829032
30
0
11
1273.14242217162
21
20.5873170273762
31
0
0
LINE
8
layer0
10
1273.14242217162
20
20.5873170273762
30
0
11
1331.2747858043
21
39.4631162041671
31
0
0
LINE
8
layer0
10
1331.2747858043
20
39.4631162041671
30
0
11
1399.73630092804
21
98.7525274829032
31
0
0
LINE
8
layer0
10
1456.53002820792
20
147.937338082879
30
0
11
1430.54926609438
21
155.437338082879
31
0
0
LINE
8
layer0
10
1430.54926609438
20
155.437338082879
30
0
11
1279.04926609438
21
24.2344894095371
31
0
0
LINE
8
layer0
10
1279.04926609438
20
24.2344894095371
30
0
11
1399.73630092804
21
98.7525274829032
31
0
0
LINE
8
layer0
10
1399.73630092804
20
98.7525274829032
30
0
11
1456.53002820792
21
147.937338082879
31
0
0
LINE
8
layer0
10
1456.53002820792
20
147.937338082879
30
0
11
1456.53002820792
21
147.937338082879
31
0
0
LINE
8
layer0
10
1426.43431762783
20
156.625221385313
30
0
11
1415.54926609438
21
142.446957026113
31
0
0
LINE
8
layer0
10
1415.54926609438
20
142.446957026113
30
0
11
1430.54926609438
21
155.437338082879
31
0
0
LINE
8
layer0
10
1430.54926609438
20
155.437338082879
30
0
11
1426.43431762783
21
156.625221385313
31
0
0
LINE
8
layer0
10
1420.13054114596
20
158.444964909672
30
0
11
1418.91293200287
21
146.828281663847
31
0
0
LINE
8
layer0
10
1418.91293200287
20
146.828281663847
30
0
11
1426.43431762783
21
156.625221385313
31
0
0
LINE
8
layer0
10
1426.43431762783
20
156.625221385313
30
0
11
1420.13054114596
21
158.444964909672
31
0
0
LINE
8
layer0
10
1414.87772875763
20
159.961321232874
30
0
11
1419.4041608419
21
151.514883975128
31
0
0
LINE
8
layer0
10
1419.4041608419
20
151.514883975128
30
0
11
1420.13054114596
21
158.444964909672
31
0
0
LINE
8
layer0
10
1420.13054114596
20
158.444964909672
30
0
11
1414.87772875763
21
159.961321232874
31
0
0
LINE
8
layer0
10
1410.10136705664
20
161.340138089781
30
0
11
1416.97486771013
21
156.04800667225
31
0
0
LINE
8
layer0
10
1416.97486771013
20
156.04800667225
30
0
11
1414.87772875763
21
159.961321232874
31
0
0
LINE
8
layer0
10
1414.87772875763
20
159.961321232874
30
0
11
1410.10136705664
21
161.340138089781
31
0
0
LINE
8
layer0
10
1404.56850398085
20
162.937338082879
30
0
11
1411.86284874517
21
159.983916121496
31
0
0
LINE
8
layer0
10
1411.86284874517
20
159.983916121496
30
0
11
1410.10136705664
21
161.340138089781
31
0
0
LINE
8
layer0
10
1410.10136705664
20
161.340138089781
30
0
11
1404.56850398085
21
162.937338082879
31
0
0
ENDBLK
0
BLOCK
8
layer0
2
PF_OBJECT50
70
0
10
0
20
0
30
0
0
LINE
8
layer0
10
1122.19518424145
20
112.526957654806
30
0
11
1412.31369450923
21
28.7769576548065
31
0
0
LINE
8
layer0
10
1412.31369450923
20
28.7769576548065
30
0
11
1419.60803927356
21
25.8235356934227
31
0
0
LINE
8
layer0
10
1419.60803927356
20
25.8235356934227
30
0
11
1424.72005823851
21
21.8876262441768
31
0
0
LINE
8
layer0
10
1424.72005823851
20
21.8876262441768
30
0
11
1427.14935137028
21
17.3545035470547
31
0
0
LINE
8
layer0
10
1427.14935137028
20
17.3545035470547
30
0
11
1426.65812253125
21
12.6679012357735
31
0
0
LINE
8
layer0
10
1426.65812253125
20
12.6679012357735
30
0
11
1423.29445662277
21
8.28657659803991
31
0
0
LINE
8
layer0
10
1423.29445662277
20
8.28657659803991
30
0
11
1281.79445662277
21
-114.256018037458
31
0
0
LINE
8
layer0
10
1281.79445662277
20
-114.256018037458
30
0
11
1275.8876127
21
-117.903190419619
31
0
0
LINE
8
layer0
10
1275.8876127
20
-117.903190419619
30
0
11
1268.01579380151
21
-120.459199902097
31
0
0
LINE
8
layer0
10
1268.01579380151
20
-120.459199902097
30
0
11
1258.94954840726
21
-121.673846467982
31
0
0
LINE
8
layer0
10
1258.94954840726
20
-121.673846467982
30
0
11
1249.5763437847
21
-121.428232048465
31
0
0
LINE
8
layer0
10
1249.5763437847
20
-121.428232048465
30
0
11
1240.81369450923
21
-119.746399094225
31
0
0
LINE
8
layer0
10
1240.81369450923
20
-119.746399094225
30
0
11
950.695184241448
21
-35.9963990942248
31
0
0
LINE
8
layer0
10
950.695184241448
20
-35.9963990942248
30
0
11
943.400839477126
21
-33.0429771328411
31
0
0
LINE
8
layer0
10
943.400839477126
20
-33.0429771328411
30
0
11
938.28882051217
21
-29.1070676835952
31
0
0
LINE
8
layer0
10
938.28882051217
20
-29.1070676835952
30
0
11
935.859527380399
21
-24.573944986473
31
0
0
LINE
8
layer0
10
935.859527380399
20
-24.573944986473
30
0
11
936.350756219434
21
-19.8873426751918
31
0
0
LINE
8
layer0
10
936.350756219434
20
-19.8873426751918
30
0
11
939.714422127914
21
-15.5060180374581
31
0
0
LINE
8
layer0
10
939.714422127914
20
-15.5060180374581
30
0
11
1081.21442212791
21
107.03657659804
31
0
0
LINE
8
layer0
10
1081.21442212791
20
107.03657659804
30
0
11
1087.12126605068
21
110.683748980201
31
0
0
LINE
8
layer0
10
1087.12126605068
20
110.683748980201
30
0
11
1094.99308494917
21
113.239758462679
31
0
0
LINE
8
layer0
10
1094.99308494917
20
113.239758462679
30
0
11
1104.05933034342
21
114.454405028564
31
0
0
LINE
8
layer0
10
1104.05933034342
20
114.454405028564
30
0
11
1113.43253496598
21
114.208790609047
31
0
0
LINE
8
layer0
10
1113.43253496598
20
114.208790609047
30
0
11
1122.19518424145
21
112.526957654806
31
0
0
LINE
8
layer0
10
1122.19518424145
20
116.857084673729
30
0
11
1412.31369450923
21
33.1070846737287
31
0
0
LINE
8
layer0
10
1412.31369450923
20
33.1070846737287
30
0
11
1412.31369450923
21
28.7769576548065
31
0
0
LINE
8
layer0
10
1412.31369450923
20
28.7769576548065
30
0
11
1122.19518424145
21
112.526957654806
31
0
0
LINE
8
layer0
10
1122.19518424145
20
112.526957654806
30
0
11
1122.19518424145
21
116.857084673729
31
0
0
LINE
8
layer0
10
1412.31369450923
20
158.680768222472
30
0
11
1412.31369450923
21
33.1070846737287
31
0
0
LINE
8
layer0
10
1412.31369450923
20
33.1070846737287
30
0
11
1122.19518424145
21
116.857084673729
31
0
0
LINE
8
layer0
10
1122.19518424145
20
116.857084673729
30
0
11
1122.19518424145
21
242.430768222472
31
0
0
LINE
8
layer0
10
1122.19518424145
20
242.430768222472
30
0
11
1412.31369450923
21
158.680768222472
31
0
0
LINE
8
layer0
10
1113.43253496598
20
118.538917627969
30
0
11
1122.19518424145
21
116.857084673729
31
0
0
LINE
8
layer0
10
1122.19518424145
20
116.857084673729
30
0
11
1122.19518424145
21
112.526957654806
31
0
0
LINE
8
layer0
10
1122.19518424145
20
112.526957654806
30
0
11
1113.43253496598
21
114.208790609047
31
0
0
LINE
8
layer0
10
1113.43253496598
20
114.208790609047
30
0
11
1113.43253496598
21
118.538917627969
31
0
0
LINE
8
layer0
10
1122.19518424145
20
242.430768222472
30
0
11
1122.19518424145
21
116.857084673729
31
0
0
LINE
8
layer0
10
1122.19518424145
20
116.857084673729
30
0
11
1113.43253496598
21
118.538917627969
31
0
0
LINE
8
layer0
10
1113.43253496598
20
118.538917627969
30
0
11
1113.43253496598
21
244.112601176713
31
0
0
LINE
8
layer0
10
1113.43253496598
20
244.112601176713
30
0
11
1122.19518424145
21
242.430768222472
31
0
0
LINE
8
layer0
10
1104.05933034342
20
118.784532047486
30
0
11
1113.43253496598
21
118.538917627969
31
0
0
LINE
8
layer0
10
1113.43253496598
20
118.538917627969
30
0
11
1113.43253496598
21
114.208790609047
31
0
0
LINE
8
layer0
10
1113.43253496598
20
114.208790609047
30
0
11
1104.05933034342
21
114.454405028564
31
0
0
LINE
8
layer0
10
1104.05933034342
20
114.454405028564
30
0
11
1104.05933034342
21
118.784532047486
31
0
0
LINE
8
layer0
10
1113.43253496598
20
244.112601176713
30
0
11
1113.43253496598
21
118.538917627969
31
0
0
LINE
8
layer0
10
1113.43253496598
20
118.538917627969
30
0
11
1111.1631447769
21
118.598384478037
31
0
0
LINE
8
layer0
10
1111.1631447769
20
118.598384478037
30
0
11
1111.1631447769
21
244.172068026781
31
0
0
LINE
8
layer0
10
1111.1631447769
20
244.172068026781
30
0
11
1113.43253496598
21
244.112601176713
31
0
0
LINE
8
layer0
10
1111.1631447769
20
244.172068026781
30
0
11
1111.1631447769
21
118.598384478037
31
0
0
LINE
8
layer0
10
1111.1631447769
20
118.598384478037
30
0
11
1104.18907226092
21
118.781132304598
31
0
0
LINE
8
layer0
10
1104.18907226092
20
118.781132304598
30
0
11
1104.18907226092
21
244.354815853342
31
0
0
LINE
8
layer0
10
1104.18907226092
20
244.354815853342
30
0
11
1111.1631447769
21
244.172068026781
31
0
0
LINE
8
layer0
10
1104.18907226092
20
244.354815853342
30
0
11
1104.18907226092
21
118.781132304598
31
0
0
LINE
8
layer0
10
1104.18907226092
20
118.781132304598
30
0
11
1104.05933034342
21
118.784532047486
31
0
0
LINE
8
layer0
10
1104.05933034342
20
118.784532047486
30
0
11
1104.05933034342
21
244.35821559623
31
0
0
LINE
8
layer0
10
1104.05933034342
20
244.35821559623
30
0
11
1104.18907226092
21
244.354815853342
31
0
0
LINE
8
layer0
10
1094.99308494917
20
117.569885481601
30
0
11
1104.05933034342
21
118.784532047486
31
0
0
LINE
8
layer0
10
1104.05933034342
20
118.784532047486
30
0
11
1104.05933034342
21
114.454405028564
31
0
0
LINE
8
layer0
10
1104.05933034342
20
114.454405028564
30
0
11
1094.99308494917
21
113.239758462679
31
0
0
LINE
8
layer0
10
1094.99308494917
20
113.239758462679
30
0
11
1094.99308494917
21
117.569885481601
31
0
0
LINE
8
layer0
10
1104.05933034342
20
244.35821559623
30
0
11
1104.05933034342
21
118.784532047486
31
0
0
LINE
8
layer0
10
1104.05933034342
20
118.784532047486
30
0
11
1094.99308494917
21
117.569885481601
31
0
0
LINE
8
layer0
10
1094.99308494917
20
117.569885481601
30
0
11
1094.99308494917
21
243.143569030345
31
0
0
LINE
8
layer0
10
1094.99308494917
20
243.143569030345
30
0
11
1104.05933034342
21
244.35821559623
31
0
0
LINE
8
layer0
10
1087.12126605068
20
115.013875999123
30
0
11
1094.99308494917
21
117.569885481601
31
0
0
LINE
8
layer0
10
1094.99308494917
20
117.569885481601
30
0
11
1094.99308494917
21
113.239758462679
31
0
0
LINE
8
layer0
10
1094.99308494917
20
113.239758462679
30
0
11
1087.12126605068
21
110.683748980201
31
0
0
LINE
8
layer0
10
1087.12126605068
20
110.683748980201
30
0
11
1087.12126605068
21
115.013875999123
31
0
0
LINE
8
layer0
10
1094.99308494917
20
243.143569030345
30
0
11
1094.99308494917
21
117.569885481601
31
0
0
LINE
8
layer0
10
1094.99308494917
20
117.569885481601
30
0
11
1094.33383443707
21
117.355824337411
31
0
0
LINE
8
layer0
10
1094.33383443707
20
117.355824337411
30
0
11
1094.33383443707
21
242.929507886155
31
0
0
LINE
8
layer0
10
1094.33383443707
20
242.929507886155
30
0
11
1094.99308494917
21
243.143569030345
31
0
0
LINE
8
layer0
10
1094.33383443707
20
242.929507886155
30
0
11
1094.33383443707
21
117.355824337411
31
0
0
LINE
8
layer0
10
1094.33383443707
20
117.355824337411
30
0
11
1087.12126605068
21
115.013875999123
31
0
0
LINE
8
layer0
10
1087.12126605068
20
115.013875999123
30
0
11
1087.12126605068
21
240.587559547867
31
0
0
LINE
8
layer0
10
1087.12126605068
20
240.587559547867
30
0
11
1094.33383443707
21
242.929507886155
31
0
0
LINE
8
layer0
10
1081.21442212791
20
111.366703616962
30
0
11
1087.12126605068
21
115.013875999123
31
0
0
LINE
8
layer0
10
1087.12126605068
20
115.013875999123
30
0
11
1087.12126605068
21
110.683748980201
31
0
0
LINE
8
layer0
10
1087.12126605068
20
110.683748980201
30
0
11
1081.21442212791
21
107.03657659804
31
0
0
LINE
8
layer0
10
1081.21442212791
20
107.03657659804
30
0
11
1081.21442212791
21
111.366703616962
31
0
0
LINE
8
layer0
10
1087.12126605068
20
240.587559547867
30
0
11
1087.12126605068
21
115.013875999123
31
0
0
LINE
8
layer0
10
1087.12126605068
20
115.013875999123
30
0
11
1086.44130951309
21
114.594037801703
31
0
0
LINE
8
layer0
10
1086.44130951309
20
114.594037801703
30
0
11
1086.44130951309
21
240.167721350447
31
0
0
LINE
8
layer0
10
1086.44130951309
20
240.167721350447
30
0
11
1087.12126605068
21
240.587559547867
31
0
0
LINE
8
layer0
10
1086.44130951309
20
240.167721350447
30
0
11
1086.44130951309
21
114.594037801703
31
0
0
LINE
8
layer0
10
1086.44130951309
20
114.594037801703
30
0
11
1081.21442212791
21
111.366703616962
31
0
0
LINE
8
layer0
10
1081.21442212791
20
111.366703616962
30
0
11
1081.21442212791
21
236.940387165706
31
0
0
LINE
8
layer0
10
1081.21442212791
20
236.940387165706
30
0
11
1086.44130951309
21
240.167721350447
31
0
0
LINE
8
layer0
10
939.714422127914
20
-11.175891018536
30
0
11
1081.21442212791
21
111.366703616962
31
0
0
LINE
8
layer0
10
1081.21442212791
20
111.366703616962
30
0
11
1081.21442212791
21
107.03657659804
31
0
0
LINE
8
layer0
10
1081.21442212791
20
107.03657659804
30
0
11
939.714422127914
21
-15.5060180374581
31
0
0
LINE
8
layer0
10
939.714422127914
20
-15.5060180374581
30
0
11
939.714422127914
21
-11.175891018536
31
0
0
LINE
8
layer0
10
1081.21442212791
20
236.940387165706
30
0
11
1081.21442212791
21
111.366703616962
31
0
0
LINE
8
layer0
10
1081.21442212791
20
111.366703616962
30
0
11
1080.70555898223
21
110.92601520575
31
0
0
LINE
8
layer0
10
1080.70555898223
20
110.92601520575
30
0
11
1080.70555898223
21
236.499698754493
31
0
0
LINE
8
layer0
10
1080.70555898223
20
236.499698754493
30
0
11
1081.21442212791
21
236.940387165706
31
0
0
LINE
8
layer0
10
1080.70555898223
20
236.499698754493
30
0
11
1080.70555898223
21
110.92601520575
31
0
0
LINE
8
layer0
10
1080.70555898223
20
110.92601520575
30
0
11
1072.07223273457
21
103.449335356118
31
0
0
LINE
8
layer0
10
1072.07223273457
20
103.449335356118
30
0
11
1072.07223273457
21
229.023018904861
31
0
0
LINE
8
layer0
10
1072.07223273457
20
229.023018904861
30
0
11
1080.70555898223
21
236.499698754493
31
0
0
LINE
8
layer0
10
1072.07223273457
20
229.023018904861
30
0
11
1072.07223273457
21
103.449335356118
31
0
0
LINE
8
layer0
10
1072.07223273457
20
103.449335356118
30
0
11
939.714422127914
21
-11.175891018536
31
0
0
LINE
8
layer0
10
939.714422127914
20
-11.175891018536
30
0
11
939.714422127914
21
114.397792530208
31
0
0
LINE
8
layer0
10
939.714422127914
20
114.397792530208
30
0
11
1072.07223273457
21
229.023018904861
31
0
0
LINE
8
layer0
10
936.350756219434
20
-15.5572156562696
30
0
11
939.714422127914
21
-11.175891018536
31
0
0
LINE
8
layer0
10
939.714422127914
20
-11.175891018536
30
0
11
939.714422127914
21
-15.5060180374581
31
0
0
LINE
8
layer0
10
939.714422127914
20
-15.5060180374581
30
0
11
936.350756219434
21
-19.8873426751918
31
0
0
LINE
8
layer0
10
936.350756219434
20
-19.8873426751918
30
0
11
936.350756219434
21
-15.5572156562696
31
0
0
LINE
8
layer0
10
939.714422127914
20
114.397792530208
30
0
11
939.714422127914
21
-11.175891018536
31
0
0
LINE
8
layer0
10
939.714422127914
20
-11.175891018536
30
0
11
936.350756219434
21
-15.5572156562696
31
0
0
LINE
8
layer0
10
936.350756219434
20
-15.5572156562696
30
0
11
936.350756219434
21
110.016467892474
31
0
0
LINE
8
layer0
10
936.350756219434
20
110.016467892474
30
0
11
939.714422127914
21
114.397792530208
31
0
0
LINE
8
layer0
10
935.859527380399
20
-20.2438179675508
30
0
11
936.350756219434
21
-15.5572156562696
31
0
0
LINE
8
layer0
10
936.350756219434
20
-15.5572156562696
30
0
11
936.350756219434
21
-19.8873426751918
31
0
0
LINE
8
layer0
10
936.350756219434
20
-19.8873426751918
30
0
11
935.859527380399
21
-24.573944986473
31
0
0
LINE
8
layer0
10
935.859527380399
20
-24.573944986473
30
0
11
935.859527380399
21
-20.2438179675508
31
0
0
LINE
8
layer0
10
936.350756219434
20
110.016467892474
30
0
11
936.350756219434
21
-15.5572156562696
31
0
0
LINE
8
layer0
10
936.350756219434
20
-15.5572156562696
30
0
11
936.231822519297
21
-16.6919107508083
31
0
0
LINE
8
layer0
10
936.231822519297
20
-16.6919107508083
30
0
11
936.231822519297
21
108.881772797935
31
0
0
LINE
8
layer0
10
936.231822519297
20
108.881772797935
30
0
11
936.350756219434
21
110.016467892474
31
0
0
LINE
8
layer0
10
936.231822519297
20
108.881772797935
30
0
11
936.231822519297
21
-16.6919107508083
31
0
0
LINE
8
layer0
10
936.231822519297
20
-16.6919107508083
30
0
11
935.859527380399
21
-20.2438179675508
31
0
0
LINE
8
layer0
10
935.859527380399
20
-20.2438179675508
30
0
11
935.859527380399
21
105.329865581193
31
0
0
LINE
8
layer0
10
935.859527380399
20
105.329865581193
30
0
11
936.231822519297
21
108.881772797935
31
0
0
LINE
8
layer0
10
938.28882051217
20
-24.776940664673
30
0
11
935.859527380399
21
-20.2438179675508
31
0
0
LINE
8
layer0
10
935.859527380399
20
-20.2438179675508
30
0
11
935.859527380399
21
-24.573944986473
31
0
0
LINE
8
layer0
10
935.859527380399
20
-24.573944986473
30
0
11
938.28882051217
21
-29.1070676835952
31
0
0
LINE
8
layer0
10
938.28882051217
20
-29.1070676835952
30
0
11
938.28882051217
21
-24.776940664673
31
0
0
LINE
8
layer0
10
935.859527380399
20
105.329865581193
30
0
11
935.859527380399
21
-20.2438179675508
31
0
0
LINE
8
layer0
10
935.859527380399
20
-20.2438179675508
30
0
11
936.18626263212
21
-20.8535142475728
31
0
0
LINE
8
layer0
10
936.18626263212
20
-20.8535142475728
30
0
11
936.18626263212
21
104.720169301171
31
0
0
LINE
8
layer0
10
936.18626263212
20
104.720169301171
30
0
11
935.859527380399
21
105.329865581193
31
0
0
LINE
8
layer0
10
936.18626263212
20
104.720169301171
30
0
11
936.18626263212
21
-20.8535142475728
31
0
0
LINE
8
layer0
10
936.18626263212
20
-20.8535142475728
30
0
11
938.28882051217
21
-24.776940664673
31
0
0
LINE
8
layer0
10
938.28882051217
20
-24.776940664673
30
0
11
938.28882051217
21
100.796742884071
31
0
0
LINE
8
layer0
10
938.28882051217
20
100.796742884071
30
0
11
936.18626263212
21
104.720169301171
31
0
0
LINE
8
layer0
10
943.400839477126
20
-28.7128501139189
30
0
11
938.28882051217
21
-24.776940664673
31
0
0
LINE
8
layer0
10
938.28882051217
20
-24.776940664673
30
0
11
938.28882051217
21
-29.1070676835952
31
0
0
LINE
8
layer0
10
938.28882051217
20
-29.1070676835952
30
0
11
943.400839477126
21
-33.0429771328411
31
0
0
LINE
8
layer0
10
943.400839477126
20
-33.0429771328411
30
0
11
943.400839477126
21
-28.7128501139189
31
0
0
LINE
8
layer0
10
938.28882051217
20
100.796742884071
30
0
11
938.28882051217
21
-24.776940664673
31
0
0
LINE
8
layer0
10
938.28882051217
20
-24.776940664673
30
0
11
940.820270050763
21
-26.7259858907451
31
0
0
LINE
8
layer0
10
940.820270050763
20
-26.7259858907451
30
0
11
940.820270050763
21
98.8476976579985
31
0
0
LINE
8
layer0
10
940.820270050763
20
98.8476976579985
30
0
11
938.28882051217
21
100.796742884071
31
0
0
LINE
8
layer0
10
940.820270050763
20
98.8476976579985
30
0
11
940.820270050763
21
-26.7259858907451
31
0
0
LINE
8
layer0
10
940.820270050763
20
-26.7259858907451
30
0
11
943.400839477126
21
-28.7128501139189
31
0
0
LINE
8
layer0
10
943.400839477126
20
-28.7128501139189
30
0
11
943.400839477126
21
96.8608334348247
31
0
0
LINE
8
layer0
10
943.400839477126
20
96.8608334348247
30
0
11
940.820270050763
21
98.8476976579985
31
0
0
LINE
8
layer0
10
950.695184241448
20
-31.6662720753026
30
0
11
943.400839477126
21
-28.7128501139189
31
0
0
LINE
8
layer0
10
943.400839477126
20
-28.7128501139189
30
0
11
943.400839477126
21
-33.0429771328411
31
0
0
LINE
8
layer0
10
943.400839477126
20
-33.0429771328411
30
0
11
950.695184241448
21
-35.9963990942248
31
0
0
LINE
8
layer0
10
950.695184241448
20
-35.9963990942248
30
0
11
950.695184241448
21
-31.6662720753026
31
0
0
LINE
8
layer0
10
943.400839477126
20
96.8608334348247
30
0
11
943.400839477126
21
-28.7128501139189
31
0
0
LINE
8
layer0
10
943.400839477126
20
-28.7128501139189
30
0
11
948.915056251931
21
-30.9455124638256
31
0
0
LINE
8
layer0
10
948.915056251931
20
-30.9455124638256
30
0
11
948.915056251931
21
94.628171084918
31
0
0
LINE
8
layer0
10
948.915056251931
20
94.628171084918
30
0
11
943.400839477126
21
96.8608334348247
31
0
0
LINE
8
layer0
10
948.915056251931
20
94.628171084918
30
0
11
948.915056251931
21
-30.9455124638256
31
0
0
LINE
8
layer0
10
948.915056251931
20
-30.9455124638256
30
0
11
950.695184241448
21
-31.6662720753026
31
0
0
LINE
8
layer0
10
950.695184241448
20
-31.6662720753026
30
0
11
950.695184241448
21
93.907411473441
31
0
0
LINE
8
layer0
10
950.695184241448
20
93.907411473441
30
0
11
948.915056251931
21
94.628171084918
31
0
0
LINE
8
layer0
10
1240.81369450923
20
-115.416272075303
30
0
11
950.695184241448
21
-31.6662720753026
31
0
0
LINE
8
layer0
10
950.695184241448
20
-31.6662720753026
30
0
11
950.695184241448
21
-35.9963990942248
31
0
0
LINE
8
layer0
10
950.695184241448
20
-35.9963990942248
30
0
11
1240.81369450923
21
-119.746399094225
31
0
0
LINE
8
layer0
10
1240.81369450923
20
-119.746399094225
30
0
11
1240.81369450923
21
-115.416272075303
31
0
0
LINE
8
layer0
10
950.695184241448
20
93.907411473441
30
0
11
950.695184241448
21
-31.6662720753026
31
0
0
LINE
8
layer0
10
950.695184241448
20
-31.6662720753026
30
0
11
960.074913841381
21
-34.3739667800263
31
0
0
LINE
8
layer0
10
960.074913841381
20
-34.3739667800263
30
0
11
960.074913841381
21
91.1997167687173
31
0
0
LINE
8
layer0
10
960.074913841381
20
91.1997167687173
30
0
11
950.695184241448
21
93.907411473441
31
0
0
LINE
8
layer0
10
960.074913841381
20
91.1997167687173
30
0
11
960.074913841381
21
-34.3739667800263
31
0
0
LINE
8
layer0
10
960.074913841381
20
-34.3739667800263
30
0
11
993.869266787591
21
-44.1295561653181
31
0
0
LINE
8
layer0
10
993.869266787591
20
-44.1295561653181
30
0
11
993.869266787591
21
81.4441273834255
31
0
0
LINE
8
layer0
10
993.869266787591
20
81.4441273834255
30
0
11
960.074913841381
21
91.1997167687173
31
0
0
LINE
8
layer0
10
993.869266787591
20
81.4441273834255
30
0
11
993.869266787591
21
-44.1295561653181
31
0
0
LINE
8
layer0
10
993.869266787591
20
-44.1295561653181
30
0
11
1240.81369450923
21
-115.416272075303
31
0
0
LINE
8
layer0
10
1240.81369450923
20
-115.416272075303
30
0
11
1240.81369450923
21
10.157411473441
31
0
0
LINE
8
layer0
10
1240.81369450923
20
10.157411473441
30
0
11
993.869266787591
21
81.4441273834255
31
0
0
LINE
8
layer0
10
1249.5763437847
20
-117.098105029543
30
0
11
1240.81369450923
21
-115.416272075303
31
0
0
LINE
8
layer0
10
1240.81369450923
20
-115.416272075303
30
0
11
1240.81369450923
21
-119.746399094225
31
0
0
LINE
8
layer0
10
1240.81369450923
20
-119.746399094225
30
0
11
1249.5763437847
21
-121.428232048465
31
0
0
LINE
8
layer0
10
1249.5763437847
20
-121.428232048465
30
0
11
1249.5763437847
21
-117.098105029543
31
0
0
LINE
8
layer0
10
1240.81369450923
20
10.157411473441
30
0
11
1240.81369450923
21
-115.416272075303
31
0
0
LINE
8
layer0
10
1240.81369450923
20
-115.416272075303
30
0
11
1249.5763437847
21
-117.098105029543
31
0
0
LINE
8
layer0
10
1249.5763437847
20
-117.098105029543
30
0
11
1249.5763437847
21
8.4755785192005
31
0
0
LINE
8
layer0
10
1249.5763437847
20
8.4755785192005
30
0
11
1240.81369450923
21
10.157411473441
31
0
0
LINE
8
layer0
10
1258.94954840726
20
-117.34371944906
30
0
11
1249.5763437847
21
-117.098105029543
31
0
0
LINE
8
layer0
10
1249.5763437847
20
-117.098105029543
30
0
11
1249.5763437847
21
-121.428232048465
31
0
0
LINE
8
layer0
10
1249.5763437847
20
-121.428232048465
30
0
11
1258.94954840726
21
-121.673846467982
31
0
0
LINE
8
layer0
10
1258.94954840726
20
-121.673846467982
30
0
11
1258.94954840726
21
-117.34371944906
31
0
0
LINE
8
layer0
10
1249.5763437847
20
8.4755785192005
30
0
11
1249.5763437847
21
-117.098105029543
31
0
0
LINE
8
layer0
10
1249.5763437847
20
-117.098105029543
30
0
11
1258.94954840726
21
-117.34371944906
31
0
0
LINE
8
layer0
10
1258.94954840726
20
-117.34371944906
30
0
11
1258.94954840726
21
8.22996409968351
31
0
0
LINE
8
layer0
10
1258.94954840726
20
8.22996409968351
30
0
11
1249.5763437847
21
8.4755785192005
31
0
0
LINE
8
layer0
10
1268.01579380151
20
-116.129072883175
30
0
11
1258.94954840726
21
-117.34371944906
31
0
0
LINE
8
layer0
10
1258.94954840726
20
-117.34371944906
30
0
11
1258.94954840726
21
-121.673846467982
31
0
0
LINE
8
layer0
10
1258.94954840726
20
-121.673846467982
30
0
11
1268.01579380151
21
-120.459199902097
31
0
0
LINE
8
layer0
10
1268.01579380151
20
-120.459199902097
30
0
11
1268.01579380151
21
-116.129072883175
31
0
0
LINE
8
layer0
10
1258.94954840726
20
8.22996409968351
30
0
11
1258.94954840726
21
-117.34371944906
31
0
0
LINE
8
layer0
10
1258.94954840726
20
-117.34371944906
30
0
11
1261.3681098144
21
-117.019693661117
31
0
0
LINE
8
layer0
10
1261.3681098144
20
-117.019693661117
30
0
11
1261.3681098144
21
8.55398988762704
31
0
0
LINE
8
layer0
10
1261.3681098144
20
8.55398988762704
30
0
11
1258.94954840726
21
8.22996409968351
31
0
0
LINE
8
layer0
10
1261.3681098144
20
8.55398988762704
30
0
11
1261.3681098144
21
-117.019693661117
31
0
0
LINE
8
layer0
10
1261.3681098144
20
-117.019693661117
30
0
11
1268.01579380151
21
-116.129072883175
31
0
0
LINE
8
layer0
10
1268.01579380151
20
-116.129072883175
30
0
11
1268.01579380151
21
9.44461066556858
31
0
0
LINE
8
layer0
10
1268.01579380151
20
9.44461066556858
30
0
11
1261.3681098144
21
8.55398988762704
31
0
0
LINE
8
layer0
10
1275.8876127
20
-113.573063400697
30
0
11
1268.01579380151
21
-116.129072883175
31
0
0
LINE
8
layer0
10
1268.01579380151
20
-116.129072883175
30
0
11
1268.01579380151
21
-120.459199902097
31
0
0
LINE
8
layer0
10
1268.01579380151
20
-120.459199902097
30
0
11
1275.8876127
21
-117.903190419619
31
0
0
LINE
8
layer0
10
1275.8876127
20
-117.903190419619
30
0
11
1275.8876127
21
-113.573063400697
31
0
0
LINE
8
layer0
10
1268.01579380151
20
9.44461066556858
30
0
11
1268.01579380151
21
-116.129072883175
31
0
0
LINE
8
layer0
10
1268.01579380151
20
-116.129072883175
30
0
11
1268.18526001969
21
-116.074046558735
31
0
0
LINE
8
layer0
10
1268.18526001969
20
-116.074046558735
30
0
11
1268.18526001969
21
9.49963699000887
31
0
0
LINE
8
layer0
10
1268.18526001969
20
9.49963699000887
30
0
11
1268.01579380151
21
9.44461066556858
31
0
0
LINE
8
layer0
10
1268.18526001969
20
9.49963699000887
30
0
11
1268.18526001969
21
-116.074046558735
31
0
0
LINE
8
layer0
10
1268.18526001969
20
-116.074046558735
30
0
11
1275.8876127
21
-113.573063400697
31
0
0
LINE
8
layer0
10
1275.8876127
20
-113.573063400697
30
0
11
1275.8876127
21
12.0006201480467
31
0
0
LINE
8
layer0
10
1275.8876127
20
12.0006201480467
30
0
11
1268.18526001969
21
9.49963699000887
31
0
0
LINE
8
layer0
10
1281.79445662277
20
-109.925891018536
30
0
11
1275.8876127
21
-113.573063400697
31
0
0
LINE
8
layer0
10
1275.8876127
20
-113.573063400697
30
0
11
1275.8876127
21
-117.903190419619
31
0
0
LINE
8
layer0
10
1275.8876127
20
-117.903190419619
30
0
11
1281.79445662277
21
-114.256018037458
31
0
0
LINE
8
layer0
10
1281.79445662277
20
-114.256018037458
30
0
11
1281.79445662277
21
-109.925891018536
31
0
0
LINE
8
layer0
10
1275.8876127
20
12.0006201480467
30
0
11
1275.8876127
21
-113.573063400697
31
0
0
LINE
8
layer0
10
1275.8876127
20
-113.573063400697
30
0
11
1277.18670098195
21
-112.770943187962
31
0
0
LINE
8
layer0
10
1277.18670098195
20
-112.770943187962
30
0
11
1277.18670098195
21
12.8027403607817
31
0
0
LINE
8
layer0
10
1277.18670098195
20
12.8027403607817
30
0
11
1275.8876127
21
12.0006201480467
31
0
0
LINE
8
layer0
10
1277.18670098195
20
12.8027403607817
30
0
11
1277.18670098195
21
-112.770943187962
31
0
0
LINE
8
layer0
10
1277.18670098195
20
-112.770943187962
30
0
11
1281.79445662277
21
-109.925891018536
31
0
0
LINE
8
layer0
10
1281.79445662277
20
-109.925891018536
30
0
11
1281.79445662277
21
15.6477925302077
31
0
0
LINE
8
layer0
10
1281.79445662277
20
15.6477925302077
30
0
11
1277.18670098195
21
12.8027403607817
31
0
0
LINE
8
layer0
10
1423.29445662277
20
12.6167036169621
30
0
11
1281.79445662277
21
-109.925891018536
31
0
0
LINE
8
layer0
10
1281.79445662277
20
-109.925891018536
30
0
11
1281.79445662277
21
-114.256018037458
31
0
0
LINE
8
layer0
10
1281.79445662277
20
-114.256018037458
30
0
11
1423.29445662277
21
8.28657659803991
31
0
0
LINE
8
layer0
10
1423.29445662277
20
8.28657659803991
30
0
11
1423.29445662277
21
12.6167036169621
31
0
0
LINE
8
layer0
10
1281.79445662277
20
15.6477925302077
30
0
11
1281.79445662277
21
-109.925891018536
31
0
0
LINE
8
layer0
10
1281.79445662277
20
-109.925891018536
30
0
11
1283.34242292276
21
-108.585312878544
31
0
0
LINE
8
layer0
10
1283.34242292276
20
-108.585312878544
30
0
11
1283.34242292276
21
16.9883706702
31
0
0
LINE
8
layer0
10
1283.34242292276
20
16.9883706702
30
0
11
1281.79445662277
21
15.6477925302077
31
0
0
LINE
8
layer0
10
1283.34242292276
20
16.9883706702
30
0
11
1283.34242292276
21
-108.585312878544
31
0
0
LINE
8
layer0
10
1283.34242292276
20
-108.585312878544
30
0
11
1289.70984603222
21
-103.070962709108
31
0
0
LINE
8
layer0
10
1289.70984603222
20
-103.070962709108
30
0
11
1289.70984603222
21
22.5027208396355
31
0
0
LINE
8
layer0
10
1289.70984603222
20
22.5027208396355
30
0
11
1283.34242292276
21
16.9883706702
31
0
0
LINE
8
layer0
10
1289.70984603222
20
22.5027208396355
30
0
11
1289.70984603222
21
-103.070962709108
31
0
0
LINE
8
layer0
10
1289.70984603222
20
-103.070962709108
30
0
11
1309.2210248028
21
-86.1737862360028
31
0
0
LINE
8
layer0
10
1309.2210248028
20
-86.1737862360028
30
0
11
1309.2210248028
21
39.3998973127408
31
0
0
LINE
8
layer0
10
1309.2210248028
20
39.3998973127408
30
0
11
1289.70984603222
21
22.5027208396355
31
0
0
LINE
8
layer0
10
1309.2210248028
20
39.3998973127408
30
0
11
1309.2210248028
21
-86.1737862360028
31
0
0
LINE
8
layer0
10
1309.2210248028
20
-86.1737862360028
30
0
11
1423.29445662277
21
12.6167036169621
31
0
0
LINE
8
layer0
10
1423.29445662277
20
12.6167036169621
30
0
11
1423.29445662277
21
138.190387165706
31
0
0
LINE
8
layer0
10
1423.29445662277
20
138.190387165706
30
0
11
1309.2210248028
21
39.3998973127408
31
0
0
LINE
8
layer0
10
1426.65812253125
20
16.9980282546957
30
0
11
1423.29445662277
21
12.6167036169621
31
0
0
LINE
8
layer0
10
1423.29445662277
20
12.6167036169621
30
0
11
1423.29445662277
21
8.28657659803991
31
0
0
LINE
8
layer0
10
1423.29445662277
20
8.28657659803991
30
0
11
1426.65812253125
21
12.6679012357735
31
0
0
LINE
8
layer0
10
1426.65812253125
20
12.6679012357735
30
0
11
1426.65812253125
21
16.9980282546957
31
0
0
LINE
8
layer0
10
1423.29445662277
20
138.190387165706
30
0
11
1423.29445662277
21
12.6167036169621
31
0
0
LINE
8
layer0
10
1423.29445662277
20
12.6167036169621
30
0
11
1426.65812253125
21
16.9980282546957
31
0
0
LINE
8
layer0
10
1426.65812253125
20
16.9980282546957
30
0
11
1426.65812253125
21
142.571711803439
31
0
0
LINE
8
layer0
10
1426.65812253125
20
142.571711803439
30
0
11
1423.29445662277
21
138.190387165706
31
0
0
LINE
8
layer0
10
1427.14935137028
20
21.6846305659768
30
0
11
1426.65812253125
21
16.9980282546957
31
0
0
LINE
8
layer0
10
1426.65812253125
20
16.9980282546957
30
0
11
1426.65812253125
21
12.6679012357735
31
0
0
LINE
8
layer0
10
1426.65812253125
20
12.6679012357735
30
0
11
1427.14935137028
21
17.3545035470547
31
0
0
LINE
8
layer0
10
1427.14935137028
20
17.3545035470547
30
0
11
1427.14935137028
21
21.6846305659768
31
0
0
LINE
8
layer0
10
1426.65812253125
20
142.571711803439
30
0
11
1426.65812253125
21
16.9980282546957
31
0
0
LINE
8
layer0
10
1426.65812253125
20
16.9980282546957
30
0
11
1427.14935137028
21
21.6846305659768
31
0
0
LINE
8
layer0
10
1427.14935137028
20
21.6846305659768
30
0
11
1427.14935137028
21
147.25831411472
31
0
0
LINE
8
layer0
10
1427.14935137028
20
147.25831411472
30
0
11
1426.65812253125
21
142.571711803439
31
0
0
LINE
8
layer0
10
1424.72005823851
20
26.217753263099
30
0
11
1427.14935137028
21
21.6846305659768
31
0
0
LINE
8
layer0
10
1427.14935137028
20
21.6846305659768
30
0
11
1427.14935137028
21
17.3545035470547
31
0
0
LINE
8
layer0
10
1427.14935137028
20
17.3545035470547
30
0
11
1424.72005823851
21
21.8876262441768
31
0
0
LINE
8
layer0
10
1424.72005823851
20
21.8876262441768
30
0
11
1424.72005823851
21
26.217753263099
31
0
0
LINE
8
layer0
10
1427.14935137028
20
147.25831411472
30
0
11
1427.14935137028
21
21.6846305659768
31
0
0
LINE
8
layer0
10
1427.14935137028
20
21.6846305659768
30
0
11
1426.5012997944
21
22.8939112695446
31
0
0
LINE
8
layer0
10
1426.5012997944
20
22.8939112695446
30
0
11
1426.5012997944
21
148.467594818288
31
0
0
LINE
8
layer0
10
1426.5012997944
20
148.467594818288
30
0
11
1427.14935137028
21
147.25831411472
31
0
0
LINE
8
layer0
10
1426.5012997944
20
148.467594818288
30
0
11
1426.5012997944
21
22.8939112695446
31
0
0
LINE
8
layer0
10
1426.5012997944
20
22.8939112695446
30
0
11
1424.99248909964
21
25.70939035546
31
0
0
LINE
8
layer0
10
1424.99248909964
20
25.70939035546
30
0
11
1424.99248909964
21
151.283073904204
31
0
0
LINE
8
layer0
10
1424.99248909964
20
151.283073904204
30
0
11
1426.5012997944
21
148.467594818288
31
0
0
LINE
8
layer0
10
1424.99248909964
20
151.283073904204
30
0
11
1424.99248909964
21
25.70939035546
31
0
0
LINE
8
layer0
10
1424.99248909964
20
25.70939035546
30
0
11
1424.72005823851
21
26.217753263099
31
0
0
LINE
8
layer0
10
1424.72005823851
20
26.217753263099
30
0
11
1424.72005823851
21
151.791436811843
31
0
0
LINE
8
layer0
10
1424.72005823851
20
151.791436811843
30
0
11
1424.99248909964
21
151.283073904204
31
0
0
LINE
8
layer0
10
1419.60803927356
20
30.1536627123449
30
0
11
1424.72005823851
21
26.217753263099
31
0
0
LINE
8
layer0
10
1424.72005823851
20
26.217753263099
30
0
11
1424.72005823851
21
21.8876262441768
31
0
0
LINE
8
layer0
10
1424.72005823851
20
21.8876262441768
30
0
11
1419.60803927356
21
25.8235356934227
31
0
0
LINE
8
layer0
10
1419.60803927356
20
25.8235356934227
30
0
11
1419.60803927356
21
30.1536627123449
31
0
0
LINE
8
layer0
10
1420.84573397378
20
154.774404908702
30
0
11
1420.84573397378
21
29.2007213599589
31
0
0
LINE
8
layer0
10
1420.84573397378
20
29.2007213599589
30
0
11
1419.60803927356
21
30.1536627123449
31
0
0
LINE
8
layer0
10
1419.60803927356
20
30.1536627123449
30
0
11
1419.60803927356
21
155.727346261089
31
0
0
LINE
8
layer0
10
1419.60803927356
20
155.727346261089
30
0
11
1420.84573397378
21
154.774404908702
31
0
0
LINE
8
layer0
10
1424.72005823851
20
151.791436811843
30
0
11
1424.72005823851
21
26.217753263099
31
0
0
LINE
8
layer0
10
1424.72005823851
20
26.217753263099
30
0
11
1420.84573397378
21
29.2007213599589
31
0
0
LINE
8
layer0
10
1420.84573397378
20
29.2007213599589
30
0
11
1420.84573397378
21
154.774404908702
31
0
0
LINE
8
layer0
10
1420.84573397378
20
154.774404908702
30
0
11
1424.72005823851
21
151.791436811843
31
0
0
LINE
8
layer0
10
1412.31369450923
20
33.1070846737287
30
0
11
1419.60803927356
21
30.1536627123449
31
0
0
LINE
8
layer0
10
1419.60803927356
20
30.1536627123449
30
0
11
1419.60803927356
21
25.8235356934227
31
0
0
LINE
8
layer0
10
1419.60803927356
20
25.8235356934227
30
0
11
1412.31369450923
21
28.7769576548065
31
0
0
LINE
8
layer0
10
1412.31369450923
20
28.7769576548065
30
0
11
1412.31369450923
21
33.1070846737287
31
0
0
LINE
8
layer0
10
1419.60803927356
20
155.727346261089
30
0
11
1419.60803927356
21
30.1536627123449
31
0
0
LINE
8
layer0
10
1419.60803927356
20
30.1536627123449
30
0
11
1412.31369450923
21
33.1070846737287
31
0
0
LINE
8
layer0
10
1412.31369450923
20
33.1070846737287
30
0
11
1412.31369450923
21
158.680768222472
31
0
0
LINE
8
layer0
10
1412.31369450923
20
158.680768222472
30
0
11
1419.60803927356
21
155.727346261089
31
0
0
LINE
8
layer0
10
1404.56850398085
20
33.8995529189981
30
0
11
1123.11024775091
21
115.149552918998
31
0
0
LINE
8
layer0
10
1123.11024775091
20
115.149552918998
30
0
11
1114.34759847544
21
116.831385873239
31
0
0
LINE
8
layer0
10
1114.34759847544
20
116.831385873239
30
0
11
1104.97439385288
21
117.077000292756
31
0
0
LINE
8
layer0
10
1104.97439385288
20
117.077000292756
30
0
11
1095.90814845863
21
115.86235372687
31
0
0
LINE
8
layer0
10
1095.90814845863
20
115.86235372687
30
0
11
1088.03632956014
21
113.306344244392
31
0
0
LINE
8
layer0
10
1088.03632956014
20
113.306344244392
30
0
11
1082.12948563738
21
109.659171862232
31
0
0
LINE
8
layer0
10
1082.12948563738
20
109.659171862232
30
0
11
945.629485637376
21
-8.55329575434439
31
0
0
LINE
8
layer0
10
945.629485637376
20
-8.55329575434439
30
0
11
942.265819728895
21
-12.934620392078
31
0
0
LINE
8
layer0
10
942.265819728895
20
-12.934620392078
30
0
11
941.774590889861
21
-17.6212227033592
31
0
0
LINE
8
layer0
10
941.774590889861
20
-17.6212227033592
30
0
11
944.203884021631
21
-22.1543454004814
31
0
0
LINE
8
layer0
10
944.203884021631
20
-22.1543454004814
30
0
11
949.315902986587
21
-26.0902548497272
31
0
0
LINE
8
layer0
10
949.315902986587
20
-26.0902548497272
30
0
11
956.610247750909
21
-29.043676811111
31
0
0
LINE
8
layer0
10
956.610247750909
20
-29.043676811111
30
0
11
1238.06850398085
21
-110.293676811111
31
0
0
LINE
8
layer0
10
1238.06850398085
20
-110.293676811111
30
0
11
1246.83115325632
21
-111.975509765351
31
0
0
LINE
8
layer0
10
1246.83115325632
20
-111.975509765351
30
0
11
1256.20435787888
21
-112.221124184868
31
0
0
LINE
8
layer0
10
1256.20435787888
20
-112.221124184868
30
0
11
1265.27060327313
21
-111.006477618983
31
0
0
LINE
8
layer0
10
1265.27060327313
20
-111.006477618983
30
0
11
1273.14242217162
21
-108.450468136505
31
0
0
LINE
8
layer0
10
1273.14242217162
20
-108.450468136505
30
0
11
1279.04926609438
21
-104.803295754344
31
0
0
LINE
8
layer0
10
1279.04926609438
20
-104.803295754344
30
0
11
1415.54926609438
21
13.4091718622315
31
0
0
LINE
8
layer0
10
1415.54926609438
20
13.4091718622315
30
0
11
1418.91293200287
21
17.7904964999651
31
0
0
LINE
8
layer0
10
1418.91293200287
20
17.7904964999651
30
0
11
1419.4041608419
21
22.4770988112463
31
0
0
LINE
8
layer0
10
1419.4041608419
20
22.4770988112463
30
0
11
1416.97486771013
21
27.0102215083685
31
0
0
LINE
8
layer0
10
1416.97486771013
20
27.0102215083685
30
0
11
1411.86284874517
21
30.9461309576143
31
0
0
LINE
8
layer0
10
1411.86284874517
20
30.9461309576143
30
0
11
1404.56850398085
21
33.8995529189981
31
0
0
LINE
8
layer0
10
1404.56850398085
20
33.8995529189981
30
0
11
1404.56850398085
21
159.473236467742
31
0
0
LINE
8
layer0
10
1404.56850398085
20
159.473236467742
30
0
11
1123.11024775091
21
240.723236467742
31
0
0
LINE
8
layer0
10
1123.11024775091
20
240.723236467742
30
0
11
1123.11024775091
21
115.149552918998
31
0
0
LINE
8
layer0
10
1123.11024775091
20
115.149552918998
30
0
11
1404.56850398085
21
33.8995529189981
31
0
0
LINE
8
layer0
10
1123.11024775091
20
115.149552918998
30
0
11
1123.11024775091
21
240.723236467742
31
0
0
LINE
8
layer0
10
1123.11024775091
20
240.723236467742
30
0
11
1114.34759847544
21
242.405069421982
31
0
0
LINE
8
layer0
10
1114.34759847544
20
242.405069421982
30
0
11
1114.34759847544
21
116.831385873239
31
0
0
LINE
8
layer0
10
1114.34759847544
20
116.831385873239
30
0
11
1123.11024775091
21
115.149552918998
31
0
0
LINE
8
layer0
10
1114.34759847544
20
116.831385873239
30
0
11
1114.34759847544
21
242.405069421982
31
0
0
LINE
8
layer0
10
1114.34759847544
20
242.405069421982
30
0
11
1104.97439385288
21
242.650683841499
31
0
0
LINE
8
layer0
10
1104.97439385288
20
242.650683841499
30
0
11
1104.97439385288
21
117.077000292756
31
0
0
LINE
8
layer0
10
1104.97439385288
20
117.077000292756
30
0
11
1114.34759847544
21
116.831385873239
31
0
0
LINE
8
layer0
10
1104.97439385288
20
117.077000292756
30
0
11
1104.97439385288
21
242.650683841499
31
0
0
LINE
8
layer0
10
1104.97439385288
20
242.650683841499
30
0
11
1095.90814845863
21
241.436037275614
31
0
0
LINE
8
layer0
10
1095.90814845863
20
241.436037275614
30
0
11
1095.90814845863
21
115.86235372687
31
0
0
LINE
8
layer0
10
1095.90814845863
20
115.86235372687
30
0
11
1104.97439385288
21
117.077000292756
31
0
0
LINE
8
layer0
10
1095.90814845863
20
115.86235372687
30
0
11
1095.90814845863
21
241.436037275614
31
0
0
LINE
8
layer0
10
1095.90814845863
20
241.436037275614
30
0
11
1088.03632956014
21
238.880027793136
31
0
0
LINE
8
layer0
10
1088.03632956014
20
238.880027793136
30
0
11
1088.03632956014
21
113.306344244392
31
0
0
LINE
8
layer0
10
1088.03632956014
20
113.306344244392
30
0
11
1095.90814845863
21
115.86235372687
31
0
0
LINE
8
layer0
10
1088.03632956014
20
113.306344244392
30
0
11
1088.03632956014
21
238.880027793136
31
0
0
LINE
8
layer0
10
1088.03632956014
20
238.880027793136
30
0
11
1082.12948563738
21
235.232855410975
31
0
0
LINE
8
layer0
10
1082.12948563738
20
235.232855410975
30
0
11
1082.12948563738
21
109.659171862232
31
0
0
LINE
8
layer0
10
1082.12948563738
20
109.659171862232
30
0
11
1088.03632956014
21
113.306344244392
31
0
0
LINE
8
layer0
10
1082.12948563738
20
109.659171862232
30
0
11
1082.12948563738
21
235.232855410975
31
0
0
LINE
8
layer0
10
1082.12948563738
20
235.232855410975
30
0
11
945.629485637376
21
117.020387794399
31
0
0
LINE
8
layer0
10
945.629485637376
20
117.020387794399
30
0
11
945.629485637376
21
-8.55329575434439
31
0
0
LINE
8
layer0
10
945.629485637376
20
-8.55329575434439
30
0
11
1082.12948563738
21
109.659171862232
31
0
0
LINE
8
layer0
10
945.629485637376
20
-8.55329575434439
30
0
11
945.629485637376
21
117.020387794399
31
0
0
LINE
8
layer0
10
945.629485637376
20
117.020387794399
30
0
11
942.265819728895
21
112.639063156666
31
0
0
LINE
8
layer0
10
942.265819728895
20
112.639063156666
30
0
11
942.265819728895
21
-12.934620392078
31
0
0
LINE
8
layer0
10
942.265819728895
20
-12.934620392078
30
0
11
945.629485637376
21
-8.55329575434439
31
0
0
LINE
8
layer0
10
942.265819728895
20
-12.934620392078
30
0
11
942.265819728895
21
112.639063156666
31
0
0
LINE
8
layer0
10
942.265819728895
20
112.639063156666
30
0
11
941.774590889861
21
107.952460845384
31
0
0
LINE
8
layer0
10
941.774590889861
20
107.952460845384
30
0
11
941.774590889861
21
-17.6212227033592
31
0
0
LINE
8
layer0
10
941.774590889861
20
-17.6212227033592
30
0
11
942.265819728895
21
-12.934620392078
31
0
0
LINE
8
layer0
10
941.774590889861
20
-17.6212227033592
30
0
11
941.774590889861
21
107.952460845384
31
0
0
LINE
8
layer0
10
941.774590889861
20
107.952460845384
30
0
11
944.203884021631
21
103.419338148262
31
0
0
LINE
8
layer0
10
944.203884021631
20
103.419338148262
30
0
11
944.203884021631
21
-22.1543454004814
31
0
0
LINE
8
layer0
10
944.203884021631
20
-22.1543454004814
30
0
11
941.774590889861
21
-17.6212227033592
31
0
0
LINE
8
layer0
10
944.203884021631
20
-22.1543454004814
30
0
11
944.203884021631
21
103.419338148262
31
0
0
LINE
8
layer0
10
944.203884021631
20
103.419338148262
30
0
11
949.315902986587
21
99.4834286990164
31
0
0
LINE
8
layer0
10
949.315902986587
20
99.4834286990164
30
0
11
949.315902986587
21
-26.0902548497272
31
0
0
LINE
8
layer0
10
949.315902986587
20
-26.0902548497272
30
0
11
944.203884021631
21
-22.1543454004814
31
0
0
LINE
8
layer0
10
949.315902986587
20
-26.0902548497272
30
0
11
949.315902986587
21
99.4834286990164
31
0
0
LINE
8
layer0
10
949.315902986587
20
99.4834286990164
30
0
11
956.610247750909
21
96.5300067376327
31
0
0
LINE
8
layer0
10
956.610247750909
20
96.5300067376327
30
0
11
956.610247750909
21
-29.043676811111
31
0
0
LINE
8
layer0
10
956.610247750909
20
-29.043676811111
30
0
11
949.315902986587
21
-26.0902548497272
31
0
0
LINE
8
layer0
10
956.610247750909
20
-29.043676811111
30
0
11
956.610247750909
21
96.5300067376327
31
0
0
LINE
8
layer0
10
956.610247750909
20
96.5300067376327
30
0
11
1238.06850398085
21
15.2800067376327
31
0
0
LINE
8
layer0
10
1238.06850398085
20
15.2800067376327
30
0
11
1238.06850398085
21
-110.293676811111
31
0
0
LINE
8
layer0
10
1238.06850398085
20
-110.293676811111
30
0
11
956.610247750909
21
-29.043676811111
31
0
0
LINE
8
layer0
10
1238.06850398085
20
-110.293676811111
30
0
11
1238.06850398085
21
15.2800067376327
31
0
0
LINE
8
layer0
10
1238.06850398085
20
15.2800067376327
30
0
11
1246.83115325632
21
13.5981737833922
31
0
0
LINE
8
layer0
10
1246.83115325632
20
13.5981737833922
30
0
11
1246.83115325632
21
-111.975509765351
31
0
0
LINE
8
layer0
10
1246.83115325632
20
-111.975509765351
30
0
11
1238.06850398085
21
-110.293676811111
31
0
0
LINE
8
layer0
10
1246.83115325632
20
-111.975509765351
30
0
11
1246.83115325632
21
13.5981737833922
31
0
0
LINE
8
layer0
10
1246.83115325632
20
13.5981737833922
30
0
11
1256.20435787888
21
13.3525593638751
31
0
0
LINE
8
layer0
10
1256.20435787888
20
13.3525593638751
30
0
11
1256.20435787888
21
-112.221124184868
31
0
0
LINE
8
layer0
10
1256.20435787888
20
-112.221124184868
30
0
11
1246.83115325632
21
-111.975509765351
31
0
0
LINE
8
layer0
10
1256.20435787888
20
-112.221124184868
30
0
11
1256.20435787888
21
13.3525593638751
31
0
0
LINE
8
layer0
10
1256.20435787888
20
13.3525593638751
30
0
11
1265.27060327313
21
14.5672059297602
31
0
0
LINE
8
layer0
10
1265.27060327313
20
14.5672059297602
30
0
11
1265.27060327313
21
-111.006477618983
31
0
0
LINE
8
layer0
10
1265.27060327313
20
-111.006477618983
30
0
11
1256.20435787888
21
-112.221124184868
31
0
0
LINE
8
layer0
10
1265.27060327313
20
-111.006477618983
30
0
11
1265.27060327313
21
14.5672059297602
31
0
0
LINE
8
layer0
10
1265.27060327313
20
14.5672059297602
30
0
11
1273.14242217162
21
17.1232154122383
31
0
0
LINE
8
layer0
10
1273.14242217162
20
17.1232154122383
30
0
11
1273.14242217162
21
-108.450468136505
31
0
0
LINE
8
layer0
10
1273.14242217162
20
-108.450468136505
30
0
11
1265.27060327313
21
-111.006477618983
31
0
0
LINE
8
layer0
10
1273.14242217162
20
-108.450468136505
30
0
11
1273.14242217162
21
17.1232154122383
31
0
0
LINE
8
layer0
10
1273.14242217162
20
17.1232154122383
30
0
11
1279.04926609438
21
20.7703877943993
31
0
0
LINE
8
layer0
10
1279.04926609438
20
20.7703877943993
30
0
11
1279.04926609438
21
-104.803295754344
31
0
0
LINE
8
layer0
10
1279.04926609438
20
-104.803295754344
30
0
11
1273.14242217162
21
-108.450468136505
31
0
0
LINE
8
layer0
10
1279.04926609438
20
-104.803295754344
30
0
11
1279.04926609438
21
20.7703877943993
31
0
0
LINE
8
layer0
10
1279.04926609438
20
20.7703877943993
30
0
11
1415.54926609438
21
138.982855410975
31
0
0
LINE
8
layer0
10
1415.54926609438
20
138.982855410975
30
0
11
1415.54926609438
21
13.4091718622315
31
0
0
LINE
8
layer0
10
1415.54926609438
20
13.4091718622315
30
0
11
1279.04926609438
21
-104.803295754344
31
0
0
LINE
8
layer0
10
1415.54926609438
20
13.4091718622315
30
0
11
1415.54926609438
21
138.982855410975
31
0
0
LINE
8
layer0
10
1415.54926609438
20
138.982855410975
30
0
11
1418.91293200287
21
143.364180048709
31
0
0
LINE
8
layer0
10
1418.91293200287
20
143.364180048709
30
0
11
1418.91293200287
21
17.7904964999651
31
0
0
LINE
8
layer0
10
1418.91293200287
20
17.7904964999651
30
0
11
1415.54926609438
21
13.4091718622315
31
0
0
LINE
8
layer0
10
1418.91293200287
20
17.7904964999651
30
0
11
1418.91293200287
21
143.364180048709
31
0
0
LINE
8
layer0
10
1418.91293200287
20
143.364180048709
30
0
11
1419.4041608419
21
148.05078235999
31
0
0
LINE
8
layer0
10
1419.4041608419
20
148.05078235999
30
0
11
1419.4041608419
21
22.4770988112463
31
0
0
LINE
8
layer0
10
1419.4041608419
20
22.4770988112463
30
0
11
1418.91293200287
21
17.7904964999651
31
0
0
LINE
8
layer0
10
1419.4041608419
20
22.4770988112463
30
0
11
1419.4041608419
21
148.05078235999
31
0
0
LINE
8
layer0
10
1419.4041608419
20
148.05078235999
30
0
11
1416.97486771013
21
152.583905057112
31
0
0
LINE
8
layer0
10
1416.97486771013
20
152.583905057112
30
0
11
1416.97486771013
21
27.0102215083685
31
0
0
LINE
8
layer0
10
1416.97486771013
20
27.0102215083685
30
0
11
1419.4041608419
21
22.4770988112463
31
0
0
LINE
8
layer0
10
1416.97486771013
20
27.0102215083685
30
0
11
1416.97486771013
21
152.583905057112
31
0
0
LINE
8
layer0
10
1416.97486771013
20
152.583905057112
30
0
11
1411.86284874517
21
156.519814506358
31
0
0
LINE
8
layer0
10
1411.86284874517
20
156.519814506358
30
0
11
1411.86284874517
21
30.9461309576143
31
0
0
LINE
8
layer0
10
1411.86284874517
20
30.9461309576143
30
0
11
1416.97486771013
21
27.0102215083685
31
0
0
LINE
8
layer0
10
1411.86284874517
20
30.9461309576143
30
0
11
1411.86284874517
21
156.519814506358
31
0
0
LINE
8
layer0
10
1411.86284874517
20
156.519814506358
30
0
11
1404.56850398085
21
159.473236467742
31
0
0
LINE
8
layer0
10
1404.56850398085
20
159.473236467742
30
0
11
1404.56850398085
21
33.8995529189981
31
0
0
LINE
8
layer0
10
1404.56850398085
20
33.8995529189981
30
0
11
1411.86284874517
21
30.9461309576143
31
0
0
LINE
8
layer0
10
1412.31369450923
20
158.680768222472
30
0
11
1122.19518424145
21
242.430768222472
31
0
0
LINE
8
layer0
10
1122.19518424145
20
242.430768222472
30
0
11
1113.43253496598
21
244.112601176713
31
0
0
LINE
8
layer0
10
1113.43253496598
20
244.112601176713
30
0
11
1111.1631447769
21
244.172068026781
31
0
0
LINE
8
layer0
10
1111.1631447769
20
244.172068026781
30
0
11
1420.84573397378
21
154.774404908702
31
0
0
LINE
8
layer0
10
1420.84573397378
20
154.774404908702
30
0
11
1419.60803927356
21
155.727346261089
31
0
0
LINE
8
layer0
10
1419.60803927356
20
155.727346261089
30
0
11
1412.31369450923
21
158.680768222472
31
0
0
LINE
8
layer0
10
1104.18907226092
20
244.354815853342
30
0
11
1123.11024775091
21
240.723236467742
31
0
0
LINE
8
layer0
10
1123.11024775091
20
240.723236467742
30
0
11
1111.1631447769
21
244.172068026781
31
0
0
LINE
8
layer0
10
1111.1631447769
20
244.172068026781
30
0
11
1104.18907226092
21
244.354815853342
31
0
0
LINE
8
layer0
10
1094.33383443707
20
242.929507886155
30
0
11
1114.34759847544
21
242.405069421982
31
0
0
LINE
8
layer0
10
1114.34759847544
20
242.405069421982
30
0
11
1104.18907226092
21
244.354815853342
31
0
0
LINE
8
layer0
10
1104.18907226092
20
244.354815853342
30
0
11
1104.05933034342
21
244.35821559623
31
0
0
LINE
8
layer0
10
1104.05933034342
20
244.35821559623
30
0
11
1094.99308494917
21
243.143569030345
31
0
0
LINE
8
layer0
10
1094.99308494917
20
243.143569030345
30
0
11
1094.33383443707
21
242.929507886155
31
0
0
LINE
8
layer0
10
1086.44130951309
20
240.167721350447
30
0
11
1104.97439385288
21
242.650683841499
31
0
0
LINE
8
layer0
10
1104.97439385288
20
242.650683841499
30
0
11
1094.33383443707
21
242.929507886155
31
0
0
LINE
8
layer0
10
1094.33383443707
20
242.929507886155
30
0
11
1087.12126605068
21
240.587559547867
31
0
0
LINE
8
layer0
10
1087.12126605068
20
240.587559547867
30
0
11
1086.44130951309
21
240.167721350447
31
0
0
LINE
8
layer0
10
1080.70555898223
20
236.499698754493
30
0
11
1095.90814845863
21
241.436037275614
31
0
0
LINE
8
layer0
10
1095.90814845863
20
241.436037275614
30
0
11
1086.44130951309
21
240.167721350447
31
0
0
LINE
8
layer0
10
1086.44130951309
20
240.167721350447
30
0
11
1081.21442212791
21
236.940387165706
31
0
0
LINE
8
layer0
10
1081.21442212791
20
236.940387165706
30
0
11
1080.70555898223
21
236.499698754493
31
0
0
LINE
8
layer0
10
1072.07223273457
20
229.023018904861
30
0
11
1088.03632956014
21
238.880027793136
31
0
0
LINE
8
layer0
10
1088.03632956014
20
238.880027793136
30
0
11
1080.70555898223
21
236.499698754493
31
0
0
LINE
8
layer0
10
1080.70555898223
20
236.499698754493
30
0
11
1072.07223273457
21
229.023018904861
31
0
0
LINE
8
layer0
10
936.231822519297
20
108.881772797935
30
0
11
1082.12948563738
21
235.232855410975
31
0
0
LINE
8
layer0
10
1082.12948563738
20
235.232855410975
30
0
11
1072.07223273457
21
229.023018904861
31
0
0
LINE
8
layer0
10
1072.07223273457
20
229.023018904861
30
0
11
939.714422127914
21
114.397792530208
31
0
0
LINE
8
layer0
10
939.714422127914
20
114.397792530208
30
0
11
936.350756219434
21
110.016467892474
31
0
0
LINE
8
layer0
10
936.350756219434
20
110.016467892474
30
0
11
936.231822519297
21
108.881772797935
31
0
0
LINE
8
layer0
10
936.18626263212
20
104.720169301171
30
0
11
945.629485637376
21
117.020387794399
31
0
0
LINE
8
layer0
10
945.629485637376
20
117.020387794399
30
0
11
936.231822519297
21
108.881772797935
31
0
0
LINE
8
layer0
10
936.231822519297
20
108.881772797935
30
0
11
935.859527380399
21
105.329865581193
31
0
0
LINE
8
layer0
10
935.859527380399
20
105.329865581193
30
0
11
936.18626263212
21
104.720169301171
31
0
0
LINE
8
layer0
10
940.820270050763
20
98.8476976579985
30
0
11
942.265819728895
21
112.639063156666
31
0
0
LINE
8
layer0
10
942.265819728895
20
112.639063156666
30
0
11
936.18626263212
21
104.720169301171
31
0
0
LINE
8
layer0
10
936.18626263212
20
104.720169301171
30
0
11
938.28882051217
21
100.796742884071
31
0
0
LINE
8
layer0
10
938.28882051217
20
100.796742884071
30
0
11
940.820270050763
21
98.8476976579985
31
0
0
LINE
8
layer0
10
948.915056251931
20
94.628171084918
30
0
11
941.774590889861
21
107.952460845384
31
0
0
LINE
8
layer0
10
941.774590889861
20
107.952460845384
30
0
11
940.820270050763
21
98.8476976579985
31
0
0
LINE
8
layer0
10
940.820270050763
20
98.8476976579985
30
0
11
943.400839477126
21
96.8608334348247
31
0
0
LINE
8
layer0
10
943.400839477126
20
96.8608334348247
30
0
11
948.915056251931
21
94.628171084918
31
0
0
LINE
8
layer0
10
960.074913841381
20
91.1997167687173
30
0
11
944.203884021631
21
103.419338148262
31
0
0
LINE
8
layer0
10
944.203884021631
20
103.419338148262
30
0
11
948.915056251931
21
94.628171084918
31
0
0
LINE
8
layer0
10
948.915056251931
20
94.628171084918
30
0
11
950.695184241448
21
93.907411473441
31
0
0
LINE
8
layer0
10
950.695184241448
20
93.907411473441
30
0
11
960.074913841381
21
91.1997167687173
31
0
0
LINE
8
layer0
10
993.869266787591
20
81.4441273834255
30
0
11
949.315902986587
21
99.4834286990164
31
0
0
LINE
8
layer0
10
949.315902986587
20
99.4834286990164
30
0
11
960.074913841381
21
91.1997167687173
31
0
0
LINE
8
layer0
10
960.074913841381
20
91.1997167687173
30
0
11
993.869266787591
21
81.4441273834255
31
0
0
LINE
8
layer0
10
1261.3681098144
20
8.55398988762704
30
0
11
956.610247750909
21
96.5300067376327
31
0
0
LINE
8
layer0
10
956.610247750909
20
96.5300067376327
30
0
11
993.869266787591
21
81.4441273834255
31
0
0
LINE
8
layer0
10
993.869266787591
20
81.4441273834255
30
0
11
1240.81369450923
21
10.157411473441
31
0
0
LINE
8
layer0
10
1240.81369450923
20
10.157411473441
30
0
11
1249.5763437847
21
8.4755785192005
31
0
0
LINE
8
layer0
10
1249.5763437847
20
8.4755785192005
30
0
11
1258.94954840726
21
8.22996409968351
31
0
0
LINE
8
layer0
10
1258.94954840726
20
8.22996409968351
30
0
11
1261.3681098144
21
8.55398988762704
31
0
0
LINE
8
layer0
10
1268.18526001969
20
9.49963699000887
30
0
11
1238.06850398085
21
15.2800067376327
31
0
0
LINE
8
layer0
10
1238.06850398085
20
15.2800067376327
30
0
11
1261.3681098144
21
8.55398988762704
31
0
0
LINE
8
layer0
10
1261.3681098144
20
8.55398988762704
30
0
11
1268.01579380151
21
9.44461066556858
31
0
0
LINE
8
layer0
10
1268.01579380151
20
9.44461066556858
30
0
11
1268.18526001969
21
9.49963699000887
31
0
0
LINE
8
layer0
10
1277.18670098195
20
12.8027403607817
30
0
11
1246.83115325632
21
13.5981737833922
31
0
0
LINE
8
layer0
10
1246.83115325632
20
13.5981737833922
30
0
11
1268.18526001969
21
9.49963699000887
31
0
0
LINE
8
layer0
10
1268.18526001969
20
9.49963699000887
30
0
11
1275.8876127
21
12.0006201480467
31
0
0
LINE
8
layer0
10
1275.8876127
20
12.0006201480467
30
0
11
1277.18670098195
21
12.8027403607817
31
0
0
LINE
8
layer0
10
1283.34242292276
20
16.9883706702
30
0
11
1256.20435787888
21
13.3525593638752
31
0
0
LINE
8
layer0
10
1256.20435787888
20
13.3525593638752
30
0
11
1277.18670098195
21
12.8027403607817
31
0
0
LINE
8
layer0
10
1277.18670098195
20
12.8027403607817
30
0
11
1281.79445662277
21
15.6477925302077
31
0
0
LINE
8
layer0
10
1281.79445662277
20
15.6477925302077
30
0
11
1283.34242292276
21
16.9883706702
31
0
0
LINE
8
layer0
10
1289.70984603222
20
22.5027208396355
30
0
11
1265.27060327313
21
14.5672059297602
31
0
0
LINE
8
layer0
10
1265.27060327313
20
14.5672059297602
30
0
11
1283.34242292276
21
16.9883706702
31
0
0
LINE
8
layer0
10
1283.34242292276
20
16.9883706702
30
0
11
1289.70984603222
21
22.5027208396355
31
0
0
LINE
8
layer0
10
1309.2210248028
20
39.3998973127408
30
0
11
1273.14242217162
21
17.1232154122383
31
0
0
LINE
8
layer0
10
1273.14242217162
20
17.1232154122383
30
0
11
1289.70984603222
21
22.5027208396355
31
0
0
LINE
8
layer0
10
1289.70984603222
20
22.5027208396355
30
0
11
1309.2210248028
21
39.3998973127408
31
0
0
LINE
8
layer0
10
1426.5012997944
20
148.467594818288
30
0
11
1279.04926609438
21
20.7703877943993
31
0
0
LINE
8
layer0
10
1279.04926609438
20
20.7703877943993
30
0
11
1309.2210248028
21
39.3998973127408
31
0
0
LINE
8
layer0
10
1309.2210248028
20
39.3998973127408
30
0
11
1423.29445662277
21
138.190387165706
31
0
0
LINE
8
layer0
10
1423.29445662277
20
138.190387165706
30
0
11
1426.65812253125
21
142.571711803439
31
0
0
LINE
8
layer0
10
1426.65812253125
20
142.571711803439
30
0
11
1427.14935137028
21
147.25831411472
31
0
0
LINE
8
layer0
10
1427.14935137028
20
147.25831411472
30
0
11
1426.5012997944
21
148.467594818288
31
0
0
LINE
8
layer0
10
1424.99248909964
20
151.283073904204
30
0
11
1415.54926609438
21
138.982855410975
31
0
0
LINE
8
layer0
10
1415.54926609438
20
138.982855410975
30
0
11
1426.5012997944
21
148.467594818288
31
0
0
LINE
8
layer0
10
1426.5012997944
20
148.467594818288
30
0
11
1424.99248909964
21
151.283073904204
31
0
0
LINE
8
layer0
10
1420.84573397378
20
154.774404908702
30
0
11
1420.13054114596
21
154.980863294534
31
0
0
LINE
8
layer0
10
1420.13054114596
20
154.980863294534
30
0
11
1418.91293200287
21
143.364180048709
31
0
0
LINE
8
layer0
10
1418.91293200287
20
143.364180048709
30
0
11
1424.99248909964
21
151.283073904204
31
0
0
LINE
8
layer0
10
1424.99248909964
20
151.283073904204
30
0
11
1424.72005823851
21
151.791436811843
31
0
0
LINE
8
layer0
10
1424.72005823851
20
151.791436811843
30
0
11
1420.84573397378
21
154.774404908702
31
0
0
LINE
8
layer0
10
1414.87772875763
20
156.497219617736
30
0
11
1419.4041608419
21
148.05078235999
31
0
0
LINE
8
layer0
10
1419.4041608419
20
148.05078235999
30
0
11
1420.13054114596
21
154.980863294534
31
0
0
LINE
8
layer0
10
1420.13054114596
20
154.980863294534
30
0
11
1414.87772875763
21
156.497219617736
31
0
0
LINE
8
layer0
10
1410.10136705664
20
157.876036474643
30
0
11
1416.97486771013
21
152.583905057112
31
0
0
LINE
8
layer0
10
1416.97486771013
20
152.583905057112
30
0
11
1414.87772875763
21
156.497219617736
31
0
0
LINE
8
layer0
10
1414.87772875763
20
156.497219617736
30
0
11
1410.10136705664
21
157.876036474643
31
0
0
LINE
8
layer0
10
1404.56850398085
20
159.473236467742
30
0
11
1411.86284874517
21
156.519814506358
31
0
0
LINE
8
layer0
10
1411.86284874517
20
156.519814506358
30
0
11
1410.10136705664
21
157.876036474643
31
0
0
LINE
8
layer0
10
1410.10136705664
20
157.876036474643
30
0
11
1404.56850398085
21
159.473236467742
31
0
0
ENDBLK
0
BLOCK
8
layer0
2
PF_OBJECT51
70
0
10
0
20
0
30
0
0
LINE
8
layer0
10
1327.98752152311
20
237.974490682901
30
0
11
1316.33937586588
21
245.564570166425
31
0
0
LINE
8
layer0
10
1316.33937586588
20
245.564570166425
30
0
11
1308.83937586588
21
273.710395789419
31
0
0
LINE
8
layer0
10
1308.83937586588
20
273.710395789419
30
0
11
1313.49863412877
21
270.674363996009
31
0
0
LINE
8
layer0
10
1313.49863412877
20
270.674363996009
30
0
11
1327.98752152311
21
237.974490682901
31
0
0
LINE
8
layer0
10
1325.49001096049
20
228.489252619119
30
0
11
1327.98752152311
21
237.974490682901
31
0
0
LINE
8
layer0
10
1327.98752152311
20
237.974490682901
30
0
11
1313.49863412877
21
270.674363996009
31
0
0
LINE
8
layer0
10
1313.49863412877
20
270.674363996009
30
0
11
1312.49962990372
21
266.880268770497
31
0
0
LINE
8
layer0
10
1312.49962990372
20
266.880268770497
30
0
11
1325.49001096049
21
228.489252619119
31
0
0
LINE
8
layer0
10
1310.30985199344
20
222.665179790506
30
0
11
1325.49001096049
21
228.489252619119
31
0
0
LINE
8
layer0
10
1325.49001096049
20
228.489252619119
30
0
11
1312.49962990372
21
266.880268770497
31
0
0
LINE
8
layer0
10
1312.49962990372
20
266.880268770497
30
0
11
1306.42756631691
21
264.550639639051
31
0
0
LINE
8
layer0
10
1306.42756631691
20
264.550639639051
30
0
11
1310.30985199344
21
222.665179790506
31
0
0
LINE
8
layer0
10
1291.33937586588
20
223.913935071814
30
0
11
1310.30985199344
21
222.665179790506
31
0
0
LINE
8
layer0
10
1310.30985199344
20
222.665179790506
30
0
11
1306.42756631691
21
264.550639639051
31
0
0
LINE
8
layer0
10
1306.42756631691
20
264.550639639051
30
0
11
1298.83937586588
21
265.050141751575
31
0
0
LINE
8
layer0
10
1298.83937586588
20
265.050141751575
30
0
11
1291.33937586588
21
223.913935071814
31
0
0
LINE
8
layer0
10
1279.69123020865
20
231.504014555338
30
0
11
1291.33937586588
21
223.913935071814
31
0
0
LINE
8
layer0
10
1291.33937586588
20
223.913935071814
30
0
11
1298.83937586588
21
265.050141751575
31
0
0
LINE
8
layer0
10
1298.83937586588
20
265.050141751575
30
0
11
1294.18011760299
21
268.086173544984
31
0
0
LINE
8
layer0
10
1294.18011760299
20
268.086173544984
30
0
11
1279.69123020865
21
231.504014555338
31
0
0
LINE
8
layer0
10
1282.18874077127
20
240.989252619119
30
0
11
1279.69123020865
21
231.504014555338
31
0
0
LINE
8
layer0
10
1279.69123020865
20
231.504014555338
30
0
11
1294.18011760299
21
268.086173544984
31
0
0
LINE
8
layer0
10
1294.18011760299
20
268.086173544984
30
0
11
1295.17912182804
21
271.880268770497
31
0
0
LINE
8
layer0
10
1295.17912182804
20
271.880268770497
30
0
11
1282.18874077127
21
240.989252619119
31
0
0
LINE
8
layer0
10
1297.36889973832
20
246.813325447733
30
0
11
1282.18874077127
21
240.989252619119
31
0
0
LINE
8
layer0
10
1282.18874077127
20
240.989252619119
30
0
11
1295.17912182804
21
271.880268770497
31
0
0
LINE
8
layer0
10
1295.17912182804
20
271.880268770497
30
0
11
1301.25118541485
21
274.209897901942
31
0
0
LINE
8
layer0
10
1301.25118541485
20
274.209897901942
30
0
11
1297.36889973832
21
246.813325447733
31
0
0
LINE
8
layer0
10
1316.33937586588
20
245.564570166425
30
0
11
1297.36889973832
21
246.813325447733
31
0
0
LINE
8
layer0
10
1297.36889973832
20
246.813325447733
30
0
11
1301.25118541485
21
274.209897901942
31
0
0
LINE
8
layer0
10
1301.25118541485
20
274.209897901942
30
0
11
1308.83937586588
21
273.710395789419
31
0
0
LINE
8
layer0
10
1308.83937586588
20
273.710395789419
30
0
11
1316.33937586588
21
245.564570166425
31
0
0
LINE
8
layer0
10
1308.83937586588
20
273.710395789419
30
0
11
1301.25118541485
21
274.209897901942
31
0
0
LINE
8
layer0
10
1301.25118541485
20
274.209897901942
30
0
11
1295.17912182804
21
271.880268770497
31
0
0
LINE
8
layer0
10
1295.17912182804
20
271.880268770497
30
0
11
1294.18011760299
21
268.086173544984
31
0
0
LINE
8
layer0
10
1294.18011760299
20
268.086173544984
30
0
11
1298.83937586588
21
265.050141751575
31
0
0
LINE
8
layer0
10
1298.83937586588
20
265.050141751575
30
0
11
1306.42756631691
21
264.550639639051
31
0
0
LINE
8
layer0
10
1306.42756631691
20
264.550639639051
30
0
11
1312.49962990372
21
266.880268770497
31
0
0
LINE
8
layer0
10
1312.49962990372
20
266.880268770497
30
0
11
1313.49863412877
21
270.674363996009
31
0
0
LINE
8
layer0
10
1313.49863412877
20
270.674363996009
30
0
11
1308.83937586588
21
273.710395789419
31
0
0
LINE
8
layer0
10
1297.36889973832
20
246.813325447733
30
0
11
1316.33937586588
21
245.564570166425
31
0
0
LINE
8
layer0
10
1316.33937586588
20
245.564570166425
30
0
11
1327.98752152311
21
237.974490682901
31
0
0
LINE
8
layer0
10
1327.98752152311
20
237.974490682901
30
0
11
1325.49001096049
21
228.489252619119
31
0
0
LINE
8
layer0
10
1325.49001096049
20
228.489252619119
30
0
11
1310.30985199344
21
222.665179790506
31
0
0
LINE
8
layer0
10
1310.30985199344
20
222.665179790506
30
0
11
1291.33937586588
21
223.913935071814
31
0
0
LINE
8
layer0
10
1291.33937586588
20
223.913935071814
30
0
11
1279.69123020865
21
231.504014555338
31
0
0
LINE
8
layer0
10
1279.69123020865
20
231.504014555338
30
0
11
1282.18874077127
21
240.989252619119
31
0
0
LINE
8
layer0
10
1282.18874077127
20
240.989252619119
30
0
11
1297.36889973832
21
246.813325447733
31
0
0
ENDBLK
0
BLOCK
8
layer0
2
PF_OBJECT52
70
0
10
0
20
0
30
0
0
LINE
8
layer0
10
1311.08381956305
20
270.350840189631
30
0
11
1307.58937586588
21
272.627864034688
31
0
0
LINE
8
layer0
10
1307.58937586588
20
272.627864034688
30
0
11
1307.58937586588
21
367.890658450977
31
0
0
LINE
8
layer0
10
1307.58937586588
20
367.890658450977
30
0
11
1311.08381956305
21
365.613634605919
31
0
0
LINE
8
layer0
10
1311.08381956305
20
365.613634605919
30
0
11
1311.08381956305
21
270.350840189631
31
0
0
LINE
8
layer0
10
1310.33456639426
20
267.505268770497
30
0
11
1311.08381956305
21
270.350840189631
31
0
0
LINE
8
layer0
10
1311.08381956305
20
270.350840189631
30
0
11
1311.08381956305
21
365.613634605919
31
0
0
LINE
8
layer0
10
1311.08381956305
20
365.613634605919
30
0
11
1310.33456639426
21
362.768063186785
31
0
0
LINE
8
layer0
10
1310.33456639426
20
362.768063186785
30
0
11
1310.33456639426
21
267.505268770497
31
0
0
LINE
8
layer0
10
1305.78051870415
20
265.758046921913
30
0
11
1310.33456639426
21
267.505268770497
31
0
0
LINE
8
layer0
10
1310.33456639426
20
267.505268770497
30
0
11
1310.33456639426
21
362.768063186785
31
0
0
LINE
8
layer0
10
1310.33456639426
20
362.768063186785
30
0
11
1305.78051870415
21
361.020841338201
31
0
0
LINE
8
layer0
10
1305.78051870415
20
361.020841338201
30
0
11
1305.78051870415
21
265.758046921913
31
0
0
LINE
8
layer0
10
1300.08937586588
20
266.132673506305
30
0
11
1305.78051870415
21
265.758046921913
31
0
0
LINE
8
layer0
10
1305.78051870415
20
265.758046921913
30
0
11
1305.78051870415
21
361.020841338201
31
0
0
LINE
8
layer0
10
1305.78051870415
20
361.020841338201
30
0
11
1300.08937586588
21
361.395467922593
31
0
0
LINE
8
layer0
10
1300.08937586588
20
361.395467922593
30
0
11
1300.08937586588
21
266.132673506305
31
0
0
LINE
8
layer0
10
1296.59493216871
20
268.409697351362
30
0
11
1300.08937586588
21
266.132673506305
31
0
0
LINE
8
layer0
10
1300.08937586588
20
266.132673506305
30
0
11
1300.08937586588
21
361.395467922593
31
0
0
LINE
8
layer0
10
1300.08937586588
20
361.395467922593
30
0
11
1296.59493216871
21
363.672491767651
31
0
0
LINE
8
layer0
10
1296.59493216871
20
363.672491767651
30
0
11
1296.59493216871
21
268.409697351362
31
0
0
LINE
8
layer0
10
1297.3441853375
20
271.255268770497
30
0
11
1296.59493216871
21
268.409697351362
31
0
0
LINE
8
layer0
10
1296.59493216871
20
268.409697351362
30
0
11
1296.59493216871
21
363.672491767651
31
0
0
LINE
8
layer0
10
1296.59493216871
20
363.672491767651
30
0
11
1297.3441853375
21
366.518063186785
31
0
0
LINE
8
layer0
10
1297.3441853375
20
366.518063186785
30
0
11
1297.3441853375
21
271.255268770497
31
0
0
LINE
8
layer0
10
1301.89823302761
20
273.002490619081
30
0
11
1297.3441853375
21
271.255268770497
31
0
0
LINE
8
layer0
10
1297.3441853375
20
271.255268770497
30
0
11
1297.3441853375
21
366.518063186785
31
0
0
LINE
8
layer0
10
1297.3441853375
20
366.518063186785
30
0
11
1301.89823302761
21
368.265285035369
31
0
0
LINE
8
layer0
10
1301.89823302761
20
368.265285035369
30
0
11
1301.89823302761
21
273.002490619081
31
0
0
LINE
8
layer0
10
1307.58937586588
20
272.627864034688
30
0
11
1301.89823302761
21
273.002490619081
31
0
0
LINE
8
layer0
10
1301.89823302761
20
273.002490619081
30
0
11
1301.89823302761
21
368.265285035369
31
0
0
LINE
8
layer0
10
1301.89823302761
20
368.265285035369
30
0
11
1307.58937586588
21
367.890658450977
31
0
0
LINE
8
layer0
10
1307.58937586588
20
367.890658450977
30
0
11
1307.58937586588
21
272.627864034688
31
0
0
LINE
8
layer0
10
1307.58937586588
20
367.890658450977
30
0
11
1301.89823302761
21
368.265285035369
31
0
0
LINE
8
layer0
10
1301.89823302761
20
368.265285035369
30
0
11
1297.3441853375
21
366.518063186785
31
0
0
LINE
8
layer0
10
1297.3441853375
20
366.518063186785
30
0
11
1296.59493216871
21
363.672491767651
31
0
0
LINE
8
layer0
10
1296.59493216871
20
363.672491767651
30
0
11
1300.08937586588
21
361.395467922593
31
0
0
LINE
8
layer0
10
1300.08937586588
20
361.395467922593
30
0
11
1305.78051870415
21
361.020841338201
31
0
0
LINE
8
layer0
10
1305.78051870415
20
361.020841338201
30
0
11
1310.33456639426
21
362.768063186785
31
0
0
LINE
8
layer0
10
1310.33456639426
20
362.768063186785
30
0
11
1311.08381956305
21
365.613634605919
31
0
0
LINE
8
layer0
10
1311.08381956305
20
365.613634605919
30
0
11
1307.58937586588
21
367.890658450977
31
0
0
LINE
8
layer0
10
1301.89823302761
20
273.002490619081
30
0
11
1307.58937586588
21
272.627864034688
31
0
0
LINE
8
layer0
10
1307.58937586588
20
272.627864034688
30
0
11
1311.08381956305
21
270.350840189631
31
0
0
LINE
8
layer0
10
1311.08381956305
20
270.350840189631
30
0
11
1310.33456639426
21
267.505268770497
31
0
0
LINE
8
layer0
10
1310.33456639426
20
267.505268770497
30
0
11
1305.78051870415
21
265.758046921913
31
0
0
LINE
8
layer0
10
1305.78051870415
20
265.758046921913
30
0
11
1300.08937586588
21
266.132673506305
31
0
0
LINE
8
layer0
10
1300.08937586588
20
266.132673506305
30
0
11
1296.59493216871
21
268.409697351362
31
0
0
LINE
8
layer0
10
1296.59493216871
20
268.409697351362
30
0
11
1297.3441853375
21
271.255268770497
31
0
0
LINE
8
layer0
10
1297.3441853375
20
271.255268770497
30
0
11
1301.89823302761
21
273.002490619081
31
0
0
ENDBLK
0
BLOCK
8
layer0
2
PF_OBJECT53
70
0
10
0
20
0
30
0
0
LINE
8
layer0
10
1246.22982598355
20
320.651729488102
30
0
11
1246.14322344317
21
320.676729488102
31
0
0
LINE
8
layer0
10
1246.14322344317
20
320.676729488102
30
0
11
1241.75312004039
21
318.653690519847
31
0
0
LINE
8
layer0
10
1241.75312004039
20
318.653690519847
30
0
11
1241.50368488942
21
315.671177457808
31
0
0
LINE
8
layer0
10
1241.50368488942
20
315.671177457808
30
0
11
1245.54066889681
21
313.471943802671
31
0
0
LINE
8
layer0
10
1245.54066889681
20
313.471943802671
30
0
11
1251.50516604446
21
313.341054220235
31
0
0
LINE
8
layer0
10
1251.50516604446
20
313.341054220235
30
0
11
1255.91197842454
21
315.354990614602
31
0
0
LINE
8
layer0
10
1255.91197842454
20
315.354990614602
30
0
11
1256.18610048217
21
318.336961927886
31
0
0
LINE
8
layer0
10
1256.18610048217
20
318.336961927886
30
0
11
1252.1673561626
21
320.544531216116
31
0
0
LINE
8
layer0
10
1252.1673561626
20
320.544531216116
30
0
11
1246.22982598355
21
320.651729488102
31
0
0
LINE
8
layer0
10
1296.22982598355
20
363.952999677324
30
0
11
1296.14322344317
21
363.977999677324
31
0
0
LINE
8
layer0
10
1296.14322344317
20
363.977999677324
30
0
11
1297.45217802049
21
366.890489697478
31
0
0
LINE
8
layer0
10
1297.45217802049
20
366.890489697478
30
0
11
1302.4933246027
21
368.489754817163
31
0
0
LINE
8
layer0
10
1302.4933246027
20
368.489754817163
30
0
11
1308.3210010348
21
367.841306292197
31
0
0
LINE
8
layer0
10
1308.3210010348
20
367.841306292197
30
0
11
1311.52995701559
21
365.324048058084
31
0
0
LINE
8
layer0
10
1311.52995701559
20
365.324048058084
30
0
11
1310.24512304737
21
362.408874125469
31
0
0
LINE
8
layer0
10
1310.24512304737
20
362.408874125469
30
0
11
1305.21725825487
21
360.799190136003
31
0
0
LINE
8
layer0
10
1305.21725825487
20
360.799190136003
30
0
11
1299.38426392664
21
361.43557282792
31
0
0
LINE
8
layer0
10
1299.38426392664
20
361.43557282792
30
0
11
1296.22982598355
21
363.952999677324
31
0
0
LINE
8
layer0
10
1246.14322344317
20
320.676729488102
30
0
11
1246.22982598355
21
320.651729488102
31
0
0
LINE
8
layer0
10
1246.22982598355
20
320.651729488102
30
0
11
1252.1673561626
21
320.544531216116
31
0
0
LINE
8
layer0
10
1252.1673561626
20
320.544531216116
30
0
11
1256.18610048217
21
318.336961927886
31
0
0
LINE
8
layer0
10
1256.18610048217
20
318.336961927886
30
0
11
1255.91197842454
21
315.354990614602
31
0
0
LINE
8
layer0
10
1255.91197842454
20
315.354990614602
30
0
11
1251.50516604446
21
313.341054220235
31
0
0
LINE
8
layer0
10
1251.50516604446
20
313.341054220235
30
0
11
1245.54066889681
21
313.471943802671
31
0
0
LINE
8
layer0
10
1245.54066889681
20
313.471943802671
30
0
11
1241.50368488942
21
315.671177457808
31
0
0
LINE
8
layer0
10
1241.50368488942
20
315.671177457808
30
0
11
1241.75312004039
21
318.653690519847
31
0
0
LINE
8
layer0
10
1241.75312004039
20
318.653690519847
30
0
11
1246.14322344317
21
320.676729488102
31
0
0
LINE
8
layer0
10
1296.14322344317
20
363.977999677324
30
0
11
1296.22982598355
21
363.952999677324
31
0
0
LINE
8
layer0
10
1296.22982598355
20
363.952999677324
30
0
11
1299.38426392664
21
361.43557282792
31
0
0
LINE
8
layer0
10
1299.38426392664
20
361.43557282792
30
0
11
1305.21725825487
21
360.799190136003
31
0
0
LINE
8
layer0
10
1305.21725825487
20
360.799190136003
30
0
11
1310.24512304737
21
362.408874125469
31
0
0
LINE
8
layer0
10
1310.24512304737
20
362.408874125469
30
0
11
1311.52995701559
21
365.324048058084
31
0
0
LINE
8
layer0
10
1311.52995701559
20
365.324048058084
30
0
11
1308.3210010348
21
367.841306292197
31
0
0
LINE
8
layer0
10
1308.3210010348
20
367.841306292197
30
0
11
1302.4933246027
21
368.489754817163
31
0
0
LINE
8
layer0
10
1302.4933246027
20
368.489754817163
30
0
11
1297.45217802049
21
366.890489697478
31
0
0
LINE
8
layer0
10
1297.45217802049
20
366.890489697478
30
0
11
1296.14322344317
21
363.977999677324
31
0
0
LINE
8
layer0
10
1246.14322344317
20
320.676729488102
30
0
11
1241.75312004039
21
318.653690519847
31
0
0
LINE
8
layer0
10
1241.75312004039
20
318.653690519847
30
0
11
1242.36169906725
21
329.209729893981
31
0
0
LINE
8
layer0
10
1242.36169906725
20
329.209729893981
30
0
11
1246.68953342483
21
330.152688110154
31
0
0
LINE
8
layer0
10
1246.68953342483
20
330.152688110154
30
0
11
1246.14322344317
21
320.676729488102
31
0
0
LINE
8
layer0
10
1241.75312004039
20
318.653690519847
30
0
11
1241.50368488942
21
315.671177457808
31
0
0
LINE
8
layer0
10
1241.50368488942
20
315.671177457808
30
0
11
1242.17006986848
21
327.229883503745
31
0
0
LINE
8
layer0
10
1242.17006986848
20
327.229883503745
30
0
11
1242.36169906725
21
329.209729893981
31
0
0
LINE
8
layer0
10
1242.36169906725
20
329.209729893981
30
0
11
1241.75312004039
21
318.653690519847
31
0
0
LINE
8
layer0
10
1241.50368488942
20
315.671177457808
30
0
11
1245.54066889681
21
313.471943802671
31
0
0
LINE
8
layer0
10
1245.54066889681
20
313.471943802671
30
0
11
1246.22661933878
21
325.370020395037
31
0
0
LINE
8
layer0
10
1246.22661933878
20
325.370020395037
30
0
11
1242.17006986848
21
327.229883503745
31
0
0
LINE
8
layer0
10
1242.17006986848
20
327.229883503745
30
0
11
1241.50368488942
21
315.671177457808
31
0
0
LINE
8
layer0
10
1245.54066889681
20
313.471943802671
30
0
11
1251.50516604446
21
313.341054220235
31
0
0
LINE
8
layer0
10
1251.50516604446
20
313.341054220235
30
0
11
1252.16100889354
21
324.71690293103
31
0
0
LINE
8
layer0
10
1252.16100889354
20
324.71690293103
30
0
11
1246.22661933878
21
325.370020395037
31
0
0
LINE
8
layer0
10
1246.22661933878
20
325.370020395037
30
0
11
1245.54066889681
21
313.471943802671
31
0
0
LINE
8
layer0
10
1251.50516604446
20
313.341054220235
30
0
11
1255.91197842454
21
315.354990614602
31
0
0
LINE
8
layer0
10
1255.91197842454
20
315.354990614602
30
0
11
1256.50563320938
21
325.652163219641
31
0
0
LINE
8
layer0
10
1256.50563320938
20
325.652163219641
30
0
11
1252.16100889354
21
324.71690293103
31
0
0
LINE
8
layer0
10
1252.16100889354
20
324.71690293103
30
0
11
1251.50516604446
21
313.341054220235
31
0
0
LINE
8
layer0
10
1255.91197842454
20
315.354990614602
30
0
11
1256.18610048217
21
318.336961927886
31
0
0
LINE
8
layer0
10
1256.18610048217
20
318.336961927886
30
0
11
1256.72182470024
21
327.629306372793
31
0
0
LINE
8
layer0
10
1256.72182470024
20
327.629306372793
30
0
11
1256.50563320938
21
325.652163219641
31
0
0
LINE
8
layer0
10
1256.50563320938
20
325.652163219641
30
0
11
1255.91197842454
21
315.354990614602
31
0
0
LINE
8
layer0
10
1256.18610048217
20
318.336961927886
30
0
11
1252.1673561626
21
320.544531216116
31
0
0
LINE
8
layer0
10
1252.1673561626
20
320.544531216116
30
0
11
1252.68325752289
21
329.493040500781
31
0
0
LINE
8
layer0
10
1252.68325752289
20
329.493040500781
30
0
11
1256.72182470024
21
327.629306372793
31
0
0
LINE
8
layer0
10
1256.72182470024
20
327.629306372793
30
0
11
1256.18610048217
21
318.336961927886
31
0
0
LINE
8
layer0
10
1252.1673561626
20
320.544531216116
30
0
11
1246.22982598355
21
320.651729488102
31
0
0
LINE
8
layer0
10
1246.22982598355
20
320.651729488102
30
0
11
1246.77613596521
21
330.127688110154
31
0
0
LINE
8
layer0
10
1246.77613596521
20
330.127688110154
30
0
11
1252.68325752289
21
329.493040500781
31
0
0
LINE
8
layer0
10
1252.68325752289
20
329.493040500781
30
0
11
1252.1673561626
21
320.544531216116
31
0
0
LINE
8
layer0
10
1246.22982598355
20
320.651729488102
30
0
11
1246.14322344317
21
320.676729488102
31
0
0
LINE
8
layer0
10
1246.14322344317
20
320.676729488102
30
0
11
1246.68953342483
21
330.152688110154
31
0
0
LINE
8
layer0
10
1246.68953342483
20
330.152688110154
30
0
11
1246.77613596521
21
330.127688110154
31
0
0
LINE
8
layer0
10
1246.77613596521
20
330.127688110154
30
0
11
1246.22982598355
21
320.651729488102
31
0
0
LINE
8
layer0
10
1246.68953342483
20
330.152688110154
30
0
11
1242.36169906725
21
329.209729893981
31
0
0
LINE
8
layer0
10
1242.36169906725
20
329.209729893981
30
0
11
1244.16083832409
21
340.358509488922
31
0
0
LINE
8
layer0
10
1244.16083832409
20
340.358509488922
30
0
11
1248.30458700211
21
340.160738514636
31
0
0
LINE
8
layer0
10
1248.30458700211
20
340.160738514636
30
0
11
1246.68953342483
21
330.152688110154
31
0
0
LINE
8
layer0
10
1242.36169906725
20
329.209729893981
30
0
11
1242.17006986848
21
327.229883503745
31
0
0
LINE
8
layer0
10
1242.17006986848
20
327.229883503745
30
0
11
1244.1401005844
21
339.437631271778
31
0
0
LINE
8
layer0
10
1244.1401005844
20
339.437631271778
30
0
11
1244.16083832409
21
340.358509488922
31
0
0
LINE
8
layer0
10
1244.16083832409
20
340.358509488922
30
0
11
1242.36169906725
21
329.209729893981
31
0
0
LINE
8
layer0
10
1242.17006986848
20
327.229883503745
30
0
11
1246.22661933878
21
325.370020395037
31
0
0
LINE
8
layer0
10
1246.22661933878
20
325.370020395037
30
0
11
1248.25449133883
21
337.93619496398
31
0
0
LINE
8
layer0
10
1248.25449133883
20
337.93619496398
30
0
11
1244.1401005844
21
339.437631271778
31
0
0
LINE
8
layer0
10
1244.1401005844
20
339.437631271778
30
0
11
1242.17006986848
21
327.229883503745
31
0
0
LINE
8
layer0
10
1246.22661933878
20
325.370020395037
30
0
11
1252.16100889354
21
324.71690293103
31
0
0
LINE
8
layer0
10
1252.16100889354
20
324.71690293103
30
0
11
1254.09987396121
21
336.731525602181
31
0
0
LINE
8
layer0
10
1254.09987396121
20
336.731525602181
30
0
11
1248.25449133883
21
337.93619496398
31
0
0
LINE
8
layer0
10
1248.25449133883
20
337.93619496398
30
0
11
1246.22661933878
21
325.370020395037
31
0
0
LINE
8
layer0
10
1252.16100889354
20
324.71690293103
30
0
11
1256.50563320938
21
325.652163219641
31
0
0
LINE
8
layer0
10
1256.50563320938
20
325.652163219641
30
0
11
1258.26065200114
21
336.527540220027
31
0
0
LINE
8
layer0
10
1258.26065200114
20
336.527540220027
30
0
11
1254.09987396121
21
336.731525602181
31
0
0
LINE
8
layer0
10
1254.09987396121
20
336.731525602181
30
0
11
1252.16100889354
21
324.71690293103
31
0
0
LINE
8
layer0
10
1256.50563320938
20
325.652163219641
30
0
11
1256.72182470024
21
327.629306372793
31
0
0
LINE
8
layer0
10
1256.72182470024
20
327.629306372793
30
0
11
1258.30558363542
21
337.443432340378
31
0
0
LINE
8
layer0
10
1258.30558363542
20
337.443432340378
30
0
11
1258.26065200114
21
336.527540220027
31
0
0
LINE
8
layer0
10
1258.26065200114
20
336.527540220027
30
0
11
1256.50563320938
21
325.652163219641
31
0
0
LINE
8
layer0
10
1256.72182470024
20
327.629306372793
30
0
11
1252.68325752289
21
329.493040500781
31
0
0
LINE
8
layer0
10
1252.68325752289
20
329.493040500781
30
0
11
1254.20841423874
21
338.944024357707
31
0
0
LINE
8
layer0
10
1254.20841423874
20
338.944024357707
30
0
11
1258.30558363542
21
337.443432340378
31
0
0
LINE
8
layer0
10
1258.30558363542
20
337.443432340378
30
0
11
1256.72182470024
21
327.629306372793
31
0
0
LINE
8
layer0
10
1252.68325752289
20
329.493040500781
30
0
11
1246.77613596521
21
330.127688110154
31
0
0
LINE
8
layer0
10
1246.77613596521
20
330.127688110154
30
0
11
1248.39118954249
21
340.135738514636
31
0
0
LINE
8
layer0
10
1248.39118954249
20
340.135738514636
30
0
11
1254.20841423874
21
338.944024357707
31
0
0
LINE
8
layer0
10
1254.20841423874
20
338.944024357707
30
0
11
1252.68325752289
21
329.493040500781
31
0
0
LINE
8
layer0
10
1246.77613596521
20
330.127688110154
30
0
11
1246.68953342483
21
330.152688110154
31
0
0
LINE
8
layer0
10
1246.68953342483
20
330.152688110154
30
0
11
1248.30458700211
21
340.160738514636
31
0
0
LINE
8
layer0
10
1248.30458700211
20
340.160738514636
30
0
11
1248.39118954249
21
340.135738514636
31
0
0
LINE
8
layer0
10
1248.39118954249
20
340.135738514636
30
0
11
1246.77613596521
21
330.127688110154
31
0
0
LINE
8
layer0
10
1248.30458700211
20
340.160738514636
30
0
11
1244.16083832409
21
340.358509488922
31
0
0
LINE
8
layer0
10
1244.16083832409
20
340.358509488922
30
0
11
1247.07190679215
21
351.61277413859
31
0
0
LINE
8
layer0
10
1247.07190679215
20
351.61277413859
30
0
11
1250.9177985838
21
350.263480874918
31
0
0
LINE
8
layer0
10
1250.9177985838
20
350.263480874918
30
0
11
1248.30458700211
21
340.160738514636
31
0
0
LINE
8
layer0
10
1244.16083832409
20
340.358509488922
30
0
11
1244.1401005844
21
339.437631271778
31
0
0
LINE
8
layer0
10
1244.1401005844
20
339.437631271778
30
0
11
1247.32767724164
21
351.760883605171
31
0
0
LINE
8
layer0
10
1247.32767724164
20
351.760883605171
30
0
11
1247.07190679215
21
351.61277413859
31
0
0
LINE
8
layer0
10
1247.07190679215
20
351.61277413859
30
0
11
1244.16083832409
21
340.358509488922
31
0
0
LINE
8
layer0
10
1244.1401005844
20
339.437631271778
30
0
11
1248.25449133883
21
337.93619496398
31
0
0
LINE
8
layer0
10
1248.25449133883
20
337.93619496398
30
0
11
1251.53565715974
21
350.621265381642
31
0
0
LINE
8
layer0
10
1251.53565715974
20
350.621265381642
30
0
11
1247.32767724164
21
351.760883605171
31
0
0
LINE
8
layer0
10
1247.32767724164
20
351.760883605171
30
0
11
1244.1401005844
21
339.437631271778
31
0
0
LINE
8
layer0
10
1248.25449133883
20
337.93619496398
30
0
11
1254.09987396121
21
336.731525602181
31
0
0
LINE
8
layer0
10
1254.09987396121
20
336.731525602181
30
0
11
1257.2370235403
21
348.859825570404
31
0
0
LINE
8
layer0
10
1257.2370235403
20
348.859825570404
30
0
11
1251.53565715974
21
350.621265381642
31
0
0
LINE
8
layer0
10
1251.53565715974
20
350.621265381642
30
0
11
1248.25449133883
21
337.93619496398
31
0
0
LINE
8
layer0
10
1254.09987396121
20
336.731525602181
30
0
11
1258.26065200114
21
336.527540220027
31
0
0
LINE
8
layer0
10
1258.26065200114
20
336.527540220027
30
0
11
1261.1003320571
21
347.505815454996
31
0
0
LINE
8
layer0
10
1261.1003320571
20
347.505815454996
30
0
11
1257.2370235403
21
348.859825570404
31
0
0
LINE
8
layer0
10
1257.2370235403
20
348.859825570404
30
0
11
1254.09987396121
21
336.731525602181
31
0
0
LINE
8
layer0
10
1258.26065200114
20
336.527540220027
30
0
11
1258.30558363542
21
337.443432340378
31
0
0
LINE
8
layer0
10
1258.30558363542
20
337.443432340378
30
0
11
1260.86815942253
21
347.350415432456
31
0
0
LINE
8
layer0
10
1260.86815942253
20
347.350415432456
30
0
11
1261.1003320571
21
347.505815454996
31
0
0
LINE
8
layer0
10
1261.1003320571
20
347.505815454996
30
0
11
1258.26065200114
21
336.527540220027
31
0
0
LINE
8
layer0
10
1258.30558363542
20
337.443432340378
30
0
11
1254.20841423874
21
338.944024357707
31
0
0
LINE
8
layer0
10
1254.20841423874
20
338.944024357707
30
0
11
1256.67616964315
21
348.484429441493
31
0
0
LINE
8
layer0
10
1256.67616964315
20
348.484429441493
30
0
11
1260.86815942253
21
347.350415432456
31
0
0
LINE
8
layer0
10
1260.86815942253
20
347.350415432456
30
0
11
1258.30558363542
21
337.443432340378
31
0
0
LINE
8
layer0
10
1254.20841423874
20
338.944024357707
30
0
11
1248.39118954249
21
340.135738514636
31
0
0
LINE
8
layer0
10
1248.39118954249
20
340.135738514636
30
0
11
1251.00440112418
21
350.238480874918
31
0
0
LINE
8
layer0
10
1251.00440112418
20
350.238480874918
30
0
11
1256.67616964315
21
348.484429441493
31
0
0
LINE
8
layer0
10
1256.67616964315
20
348.484429441493
30
0
11
1254.20841423874
21
338.944024357707
31
0
0
LINE
8
layer0
10
1248.39118954249
20
340.135738514636
30
0
11
1248.30458700211
21
340.160738514636
31
0
0
LINE
8
layer0
10
1248.30458700211
20
340.160738514636
30
0
11
1250.9177985838
21
350.263480874918
31
0
0
LINE
8
layer0
10
1250.9177985838
20
350.263480874918
30
0
11
1251.00440112418
21
350.238480874918
31
0
0
LINE
8
layer0
10
1251.00440112418
20
350.238480874918
30
0
11
1248.39118954249
21
340.135738514636
31
0
0
LINE
8
layer0
10
1250.9177985838
20
350.263480874918
30
0
11
1247.07190679215
21
351.61277413859
31
0
0
LINE
8
layer0
10
1247.07190679215
20
351.61277413859
30
0
11
1250.96767681052
21
362.480658473841
31
0
0
LINE
8
layer0
10
1250.96767681052
20
362.480658473841
30
0
11
1254.4149582842
21
360.01937687152
31
0
0
LINE
8
layer0
10
1254.4149582842
20
360.01937687152
30
0
11
1250.9177985838
21
350.263480874918
31
0
0
LINE
8
layer0
10
1247.07190679215
20
351.61277413859
30
0
11
1247.32767724164
21
351.760883605171
31
0
0
LINE
8
layer0
10
1247.32767724164
20
351.760883605171
30
0
11
1251.59348744458
21
363.661055243429
31
0
0
LINE
8
layer0
10
1251.59348744458
20
363.661055243429
30
0
11
1250.96767681052
21
362.480658473841
31
0
0
LINE
8
layer0
10
1250.96767681052
20
362.480658473841
30
0
11
1247.07190679215
21
351.61277413859
31
0
0
LINE
8
layer0
10
1247.32767724164
20
351.760883605171
30
0
11
1251.53565715974
21
350.621265381642
31
0
0
LINE
8
layer0
10
1251.53565715974
20
350.621265381642
30
0
11
1255.92671411035
21
362.87083320105
31
0
0
LINE
8
layer0
10
1255.92671411035
20
362.87083320105
30
0
11
1251.59348744458
21
363.661055243429
31
0
0
LINE
8
layer0
10
1251.59348744458
20
363.661055243429
30
0
11
1247.32767724164
21
351.760883605171
31
0
0
LINE
8
layer0
10
1251.53565715974
20
350.621265381642
30
0
11
1257.2370235403
21
348.859825570404
31
0
0
LINE
8
layer0
10
1257.2370235403
20
348.859825570404
30
0
11
1261.43534914049
21
360.571737929046
31
0
0
LINE
8
layer0
10
1261.43534914049
20
360.571737929046
30
0
11
1255.92671411035
21
362.87083320105
31
0
0
LINE
8
layer0
10
1255.92671411035
20
362.87083320105
30
0
11
1251.53565715974
21
350.621265381642
31
0
0
LINE
8
layer0
10
1257.2370235403
20
348.859825570404
30
0
11
1261.1003320571
21
347.505815454996
31
0
0
LINE
8
layer0
10
1261.1003320571
20
347.505815454996
30
0
11
1264.90056573253
21
358.10718561717
31
0
0
LINE
8
layer0
10
1264.90056573253
20
358.10718561717
30
0
11
1261.43534914049
21
360.571737929046
31
0
0
LINE
8
layer0
10
1261.43534914049
20
360.571737929046
30
0
11
1257.2370235403
21
348.859825570404
31
0
0
LINE
8
layer0
10
1261.1003320571
20
347.505815454996
30
0
11
1260.86815942253
21
347.350415432456
31
0
0
LINE
8
layer0
10
1260.86815942253
20
347.350415432456
30
0
11
1264.29755520306
21
356.917272948924
31
0
0
LINE
8
layer0
10
1264.29755520306
20
356.917272948924
30
0
11
1264.90056573253
21
358.10718561717
31
0
0
LINE
8
layer0
10
1264.90056573253
20
358.10718561717
30
0
11
1261.1003320571
21
347.505815454996
31
0
0
LINE
8
layer0
10
1260.86815942253
20
347.350415432456
30
0
11
1256.67616964315
21
348.484429441493
31
0
0
LINE
8
layer0
10
1256.67616964315
20
348.484429441493
30
0
11
1259.97867098335
21
357.697294270036
31
0
0
LINE
8
layer0
10
1259.97867098335
20
357.697294270036
30
0
11
1264.29755520306
21
356.917272948924
31
0
0
LINE
8
layer0
10
1264.29755520306
20
356.917272948924
30
0
11
1260.86815942253
21
347.350415432456
31
0
0
LINE
8
layer0
10
1256.67616964315
20
348.484429441493
30
0
11
1251.00440112418
21
350.238480874918
31
0
0
LINE
8
layer0
10
1251.00440112418
20
350.238480874918
30
0
11
1254.50156082458
21
359.99437687152
31
0
0
LINE
8
layer0
10
1254.50156082458
20
359.99437687152
30
0
11
1259.97867098335
21
357.697294270036
31
0
0
LINE
8
layer0
10
1259.97867098335
20
357.697294270036
30
0
11
1256.67616964315
21
348.484429441493
31
0
0
LINE
8
layer0
10
1251.00440112418
20
350.238480874918
30
0
11
1250.9177985838
21
350.263480874918
31
0
0
LINE
8
layer0
10
1250.9177985838
20
350.263480874918
30
0
11
1254.4149582842
21
360.01937687152
31
0
0
LINE
8
layer0
10
1254.4149582842
20
360.01937687152
30
0
11
1254.50156082458
21
359.99437687152
31
0
0
LINE
8
layer0
10
1254.50156082458
20
359.99437687152
30
0
11
1251.00440112418
21
350.238480874918
31
0
0
LINE
8
layer0
10
1254.4149582842
20
360.01937687152
30
0
11
1250.96767681052
21
362.480658473841
31
0
0
LINE
8
layer0
10
1250.96767681052
20
362.480658473841
30
0
11
1255.67788453541
21
372.487183799331
31
0
0
LINE
8
layer0
10
1255.67788453541
20
372.487183799331
30
0
11
1258.64322344317
21
369.002047035407
31
0
0
LINE
8
layer0
10
1258.64322344317
20
369.002047035407
30
0
11
1254.4149582842
21
360.01937687152
31
0
0
LINE
8
layer0
10
1250.96767681052
20
362.480658473841
30
0
11
1251.59348744458
21
363.661055243429
31
0
0
LINE
8
layer0
10
1251.59348744458
20
363.661055243429
30
0
11
1256.75109481774
21
374.618051582602
31
0
0
LINE
8
layer0
10
1256.75109481774
20
374.618051582602
30
0
11
1255.67788453541
21
372.487183799331
31
0
0
LINE
8
layer0
10
1255.67788453541
20
372.487183799331
30
0
11
1250.96767681052
21
362.480658473841
31
0
0
LINE
8
layer0
10
1251.59348744458
20
363.661055243429
30
0
11
1255.92671411035
21
362.87083320105
31
0
0
LINE
8
layer0
10
1255.92671411035
20
362.87083320105
30
0
11
1261.23575193131
21
374.149533528547
31
0
0
LINE
8
layer0
10
1261.23575193131
20
374.149533528547
30
0
11
1256.75109481774
21
374.618051582602
31
0
0
LINE
8
layer0
10
1256.75109481774
20
374.618051582602
30
0
11
1251.59348744458
21
363.661055243429
31
0
0
LINE
8
layer0
10
1255.92671411035
20
362.87083320105
30
0
11
1261.43534914049
21
360.571737929046
31
0
0
LINE
8
layer0
10
1261.43534914049
20
360.571737929046
30
0
11
1266.51136378724
21
371.355395908044
31
0
0
LINE
8
layer0
10
1266.51136378724
20
371.355395908044
30
0
11
1261.23575193131
21
374.149533528547
31
0
0
LINE
8
layer0
10
1261.23575193131
20
374.149533528547
30
0
11
1255.92671411035
21
362.87083320105
31
0
0
LINE
8
layer0
10
1261.43534914049
20
360.571737929046
30
0
11
1264.90056573253
21
358.10718561717
31
0
0
LINE
8
layer0
10
1264.90056573253
20
358.10718561717
30
0
11
1269.49526458025
21
367.868319959444
31
0
0
LINE
8
layer0
10
1269.49526458025
20
367.868319959444
30
0
11
1266.51136378724
21
371.355395908044
31
0
0
LINE
8
layer0
10
1266.51136378724
20
371.355395908044
30
0
11
1261.43534914049
21
360.571737929046
31
0
0
LINE
8
layer0
10
1264.90056573253
20
358.10718561717
30
0
11
1264.29755520306
21
356.917272948924
31
0
0
LINE
8
layer0
10
1264.29755520306
20
356.917272948924
30
0
11
1268.44388992535
21
365.725887309437
31
0
0
LINE
8
layer0
10
1268.44388992535
20
365.725887309437
30
0
11
1269.49526458025
21
367.868319959444
31
0
0
LINE
8
layer0
10
1269.49526458025
20
367.868319959444
30
0
11
1264.90056573253
21
358.10718561717
31
0
0
LINE
8
layer0
10
1264.29755520306
20
356.917272948924
30
0
11
1259.97867098335
21
357.697294270036
31
0
0
LINE
8
layer0
10
1259.97867098335
20
357.697294270036
30
0
11
1263.97158310361
21
366.179972442096
31
0
0
LINE
8
layer0
10
1263.97158310361
20
366.179972442096
30
0
11
1268.44388992535
21
365.725887309437
31
0
0
LINE
8
layer0
10
1268.44388992535
20
365.725887309437
30
0
11
1264.29755520306
21
356.917272948924
31
0
0
LINE
8
layer0
10
1259.97867098335
20
357.697294270036
30
0
11
1254.50156082458
21
359.99437687152
31
0
0
LINE
8
layer0
10
1254.50156082458
20
359.99437687152
30
0
11
1258.72982598355
21
368.977047035407
31
0
0
LINE
8
layer0
10
1258.72982598355
20
368.977047035407
30
0
11
1263.97158310361
21
366.179972442096
31
0
0
LINE
8
layer0
10
1263.97158310361
20
366.179972442096
30
0
11
1259.97867098335
21
357.697294270036
31
0
0
LINE
8
layer0
10
1254.50156082458
20
359.99437687152
30
0
11
1254.4149582842
21
360.01937687152
31
0
0
LINE
8
layer0
10
1254.4149582842
20
360.01937687152
30
0
11
1258.64322344317
21
369.002047035407
31
0
0
LINE
8
layer0
10
1258.64322344317
20
369.002047035407
30
0
11
1258.72982598355
21
368.977047035407
31
0
0
LINE
8
layer0
10
1258.72982598355
20
368.977047035407
30
0
11
1254.50156082458
21
359.99437687152
31
0
0
LINE
8
layer0
10
1258.64322344317
20
369.002047035407
30
0
11
1255.67788453541
21
372.487183799331
31
0
0
LINE
8
layer0
10
1255.67788453541
20
372.487183799331
30
0
11
1260.99667128718
21
381.195016941699
31
0
0
LINE
8
layer0
10
1260.99667128718
20
381.195016941699
30
0
11
1263.4177985838
21
376.818905576784
31
0
0
LINE
8
layer0
10
1263.4177985838
20
376.818905576784
30
0
11
1258.64322344317
21
369.002047035407
31
0
0
LINE
8
layer0
10
1255.67788453541
20
372.487183799331
30
0
11
1256.75109481774
21
374.618051582602
31
0
0
LINE
8
layer0
10
1256.75109481774
20
374.618051582602
30
0
11
1262.57508716996
21
384.152999305166
31
0
0
LINE
8
layer0
10
1262.57508716996
20
384.152999305166
30
0
11
1260.99667128718
21
381.195016941699
31
0
0
LINE
8
layer0
10
1260.99667128718
20
381.195016941699
30
0
11
1255.67788453541
21
372.487183799331
31
0
0
LINE
8
layer0
10
1256.75109481774
20
374.618051582602
30
0
11
1261.23575193131
21
374.149533528547
31
0
0
LINE
8
layer0
10
1261.23575193131
20
374.149533528547
30
0
11
1267.23074019424
21
383.964433038614
31
0
0
LINE
8
layer0
10
1267.23074019424
20
383.964433038614
30
0
11
1262.57508716996
21
384.152999305166
31
0
0
LINE
8
layer0
10
1262.57508716996
20
384.152999305166
30
0
11
1256.75109481774
21
374.618051582602
31
0
0
LINE
8
layer0
10
1261.23575193131
20
374.149533528547
30
0
11
1266.51136378724
21
371.355395908044
31
0
0
LINE
8
layer0
10
1266.51136378724
20
371.355395908044
30
0
11
1272.24322128308
21
380.739501907985
31
0
0
LINE
8
layer0
10
1272.24322128308
20
380.739501907985
30
0
11
1267.23074019424
21
383.964433038614
31
0
0
LINE
8
layer0
10
1267.23074019424
20
383.964433038614
30
0
11
1261.23575193131
21
374.149533528547
31
0
0
LINE
8
layer0
10
1266.51136378724
20
371.355395908044
30
0
11
1269.49526458025
21
367.868319959444
31
0
0
LINE
8
layer0
10
1269.49526458025
20
367.868319959444
30
0
11
1274.68361821281
21
376.362610071941
31
0
0
LINE
8
layer0
10
1274.68361821281
20
376.362610071941
30
0
11
1272.24322128308
21
380.739501907985
31
0
0
LINE
8
layer0
10
1272.24322128308
20
380.739501907985
30
0
11
1266.51136378724
21
371.355395908044
31
0
0
LINE
8
layer0
10
1269.49526458025
20
367.868319959444
30
0
11
1268.44388992535
21
365.725887309437
31
0
0
LINE
8
layer0
10
1268.44388992535
20
365.725887309437
30
0
11
1273.1259488657
21
373.391279798019
31
0
0
LINE
8
layer0
10
1273.1259488657
20
373.391279798019
30
0
11
1274.68361821281
21
376.362610071941
31
0
0
LINE
8
layer0
10
1274.68361821281
20
376.362610071941
30
0
11
1269.49526458025
21
367.868319959444
31
0
0
LINE
8
layer0
10
1268.44388992535
20
365.725887309437
30
0
11
1263.97158310361
21
366.179972442096
31
0
0
LINE
8
layer0
10
1263.97158310361
20
366.179972442096
30
0
11
1268.48039658416
21
373.561730217151
31
0
0
LINE
8
layer0
10
1268.48039658416
20
373.561730217151
30
0
11
1273.1259488657
21
373.391279798019
31
0
0
LINE
8
layer0
10
1273.1259488657
20
373.391279798019
30
0
11
1268.44388992535
21
365.725887309437
31
0
0
LINE
8
layer0
10
1263.97158310361
20
366.179972442096
30
0
11
1258.72982598355
21
368.977047035407
31
0
0
LINE
8
layer0
10
1258.72982598355
20
368.977047035407
30
0
11
1263.50440112418
21
376.793905576784
31
0
0
LINE
8
layer0
10
1263.50440112418
20
376.793905576784
30
0
11
1268.48039658416
21
373.561730217151
31
0
0
LINE
8
layer0
10
1268.48039658416
20
373.561730217151
30
0
11
1263.97158310361
21
366.179972442096
31
0
0
LINE
8
layer0
10
1258.72982598355
20
368.977047035407
30
0
11
1258.64322344317
21
369.002047035407
31
0
0
LINE
8
layer0
10
1258.64322344317
20
369.002047035407
30
0
11
1263.4177985838
21
376.818905576784
31
0
0
LINE
8
layer0
10
1263.4177985838
20
376.818905576784
30
0
11
1263.50440112418
21
376.793905576784
31
0
0
LINE
8
layer0
10
1263.50440112418
20
376.793905576784
30
0
11
1258.72982598355
21
368.977047035407
31
0
0
LINE
8
layer0
10
1263.4177985838
20
376.818905576784
30
0
11
1260.99667128718
21
381.195016941699
31
0
0
LINE
8
layer0
10
1260.99667128718
20
381.195016941699
30
0
11
1266.69158056238
21
388.223583807804
31
0
0
LINE
8
layer0
10
1266.69158056238
20
388.223583807804
30
0
11
1268.53001186148
21
383.128318267943
31
0
0
LINE
8
layer0
10
1268.53001186148
20
383.128318267943
30
0
11
1263.4177985838
21
376.818905576784
31
0
0
LINE
8
layer0
10
1260.99667128718
20
381.195016941699
30
0
11
1262.57508716996
21
384.152999305166
31
0
0
LINE
8
layer0
10
1262.57508716996
20
384.152999305166
30
0
11
1268.81092808882
21
391.849175441889
31
0
0
LINE
8
layer0
10
1268.81092808882
20
391.849175441889
30
0
11
1266.69158056238
21
388.223583807804
31
0
0
LINE
8
layer0
10
1266.69158056238
20
388.223583807804
30
0
11
1260.99667128718
21
381.195016941699
31
0
0
LINE
8
layer0
10
1262.57508716996
20
384.152999305166
30
0
11
1267.23074019424
21
383.964433038614
31
0
0
LINE
8
layer0
10
1267.23074019424
20
383.964433038614
30
0
11
1273.6496691449
21
391.886573525546
31
0
0
LINE
8
layer0
10
1273.6496691449
20
391.886573525546
30
0
11
1268.81092808882
21
391.849175441889
31
0
0
LINE
8
layer0
10
1268.81092808882
20
391.849175441889
30
0
11
1262.57508716996
21
384.152999305166
31
0
0
LINE
8
layer0
10
1267.23074019424
20
383.964433038614
30
0
11
1272.24322128308
21
380.739501907985
31
0
0
LINE
8
layer0
10
1272.24322128308
20
380.739501907985
30
0
11
1278.38041195094
21
388.313925466733
31
0
0
LINE
8
layer0
10
1278.38041195094
20
388.313925466733
30
0
11
1273.6496691449
21
391.886573525546
31
0
0
LINE
8
layer0
10
1273.6496691449
20
391.886573525546
30
0
11
1267.23074019424
21
383.964433038614
31
0
0
LINE
8
layer0
10
1272.24322128308
20
380.739501907985
30
0
11
1274.68361821281
21
376.362610071941
31
0
0
LINE
8
layer0
10
1274.68361821281
20
376.362610071941
30
0
11
1280.23887067999
21
383.218814716618
31
0
0
LINE
8
layer0
10
1280.23887067999
20
383.218814716618
30
0
11
1278.38041195094
21
388.313925466733
31
0
0
LINE
8
layer0
10
1278.38041195094
20
388.313925466733
30
0
11
1272.24322128308
21
380.739501907985
31
0
0
LINE
8
layer0
10
1274.68361821281
20
376.362610071941
30
0
11
1273.1259488657
21
373.391279798019
31
0
0
LINE
8
layer0
10
1273.1259488657
20
373.391279798019
30
0
11
1278.13910358142
21
379.578435980284
31
0
0
LINE
8
layer0
10
1278.13910358142
20
379.578435980284
30
0
11
1280.23887067999
21
383.218814716618
31
0
0
LINE
8
layer0
10
1280.23887067999
20
383.218814716618
30
0
11
1274.68361821281
21
376.362610071941
31
0
0
LINE
8
layer0
10
1273.1259488657
20
373.391279798019
30
0
11
1268.48039658416
21
373.561730217151
31
0
0
LINE
8
layer0
10
1268.48039658416
20
373.561730217151
30
0
11
1273.30805464021
21
379.519949358825
31
0
0
LINE
8
layer0
10
1273.30805464021
20
379.519949358825
30
0
11
1278.13910358142
21
379.578435980284
31
0
0
LINE
8
layer0
10
1278.13910358142
20
379.578435980284
30
0
11
1273.1259488657
21
373.391279798019
31
0
0
LINE
8
layer0
10
1268.48039658416
20
373.561730217151
30
0
11
1263.50440112418
21
376.793905576784
31
0
0
LINE
8
layer0
10
1263.50440112418
20
376.793905576784
30
0
11
1268.61661440186
21
383.103318267943
31
0
0
LINE
8
layer0
10
1268.61661440186
20
383.103318267943
30
0
11
1273.30805464021
21
379.519949358825
31
0
0
LINE
8
layer0
10
1273.30805464021
20
379.519949358825
30
0
11
1268.48039658416
21
373.561730217151
31
0
0
LINE
8
layer0
10
1263.50440112418
20
376.793905576784
30
0
11
1263.4177985838
21
376.818905576784
31
0
0
LINE
8
layer0
10
1263.4177985838
20
376.818905576784
30
0
11
1268.53001186148
21
383.128318267943
31
0
0
LINE
8
layer0
10
1268.53001186148
20
383.128318267943
30
0
11
1268.61661440186
21
383.103318267943
31
0
0
LINE
8
layer0
10
1268.61661440186
20
383.103318267943
30
0
11
1263.50440112418
21
376.793905576784
31
0
0
LINE
8
layer0
10
1268.53001186148
20
383.128318267943
30
0
11
1266.69158056238
21
388.223583807804
31
0
0
LINE
8
layer0
10
1266.69158056238
20
388.223583807804
30
0
11
1272.5137174985
21
393.265702298792
31
0
0
LINE
8
layer0
10
1272.5137174985
20
393.265702298792
30
0
11
1273.75643502486
21
387.65453349836
31
0
0
LINE
8
layer0
10
1273.75643502486
20
387.65453349836
30
0
11
1268.53001186148
21
383.128318267943
31
0
0
LINE
8
layer0
10
1266.69158056238
20
388.223583807804
30
0
11
1268.81092808882
21
391.849175441889
31
0
0
LINE
8
layer0
10
1268.81092808882
20
391.849175441889
30
0
11
1275.1860814033
21
397.370220165246
31
0
0
LINE
8
layer0
10
1275.1860814033
20
397.370220165246
30
0
11
1272.5137174985
21
393.265702298792
31
0
0
LINE
8
layer0
10
1272.5137174985
20
393.265702298792
30
0
11
1266.69158056238
21
388.223583807804
31
0
0
LINE
8
layer0
10
1268.81092808882
20
391.849175441889
30
0
11
1273.6496691449
21
391.886573525546
31
0
0
LINE
8
layer0
10
1273.6496691449
20
391.886573525546
30
0
11
1280.21200078672
21
397.569719435419
31
0
0
LINE
8
layer0
10
1280.21200078672
20
397.569719435419
30
0
11
1275.1860814033
21
397.370220165246
31
0
0
LINE
8
layer0
10
1275.1860814033
20
397.370220165246
30
0
11
1268.81092808882
21
391.849175441889
31
0
0
LINE
8
layer0
10
1273.6496691449
20
391.886573525546
30
0
11
1278.38041195094
21
388.313925466733
31
0
0
LINE
8
layer0
10
1278.38041195094
20
388.313925466733
30
0
11
1284.65471110911
21
393.747627928655
31
0
0
LINE
8
layer0
10
1284.65471110911
20
393.747627928655
30
0
11
1280.21200078672
21
397.569719435419
31
0
0
LINE
8
layer0
10
1280.21200078672
20
397.569719435419
30
0
11
1273.6496691449
21
391.886573525546
31
0
0
LINE
8
layer0
10
1278.38041195094
20
388.313925466733
30
0
11
1280.23887067999
21
383.218814716618
31
0
0
LINE
8
layer0
10
1280.23887067999
20
383.218814716618
30
0
11
1285.91823079192
21
388.137284850785
31
0
0
LINE
8
layer0
10
1285.91823079192
20
388.137284850785
30
0
11
1284.65471110911
21
393.747627928655
31
0
0
LINE
8
layer0
10
1284.65471110911
20
393.747627928655
30
0
11
1278.38041195094
21
388.313925466733
31
0
0
LINE
8
layer0
10
1280.23887067999
20
383.218814716618
30
0
11
1278.13910358142
21
379.578435980284
31
0
0
LINE
8
layer0
10
1278.13910358142
20
379.578435980284
30
0
11
1283.26425515563
21
384.016947441799
31
0
0
LINE
8
layer0
10
1283.26425515563
20
384.016947441799
30
0
11
1285.91823079192
21
388.137284850785
31
0
0
LINE
8
layer0
10
1285.91823079192
20
388.137284850785
30
0
11
1280.23887067999
21
383.218814716618
31
0
0
LINE
8
layer0
10
1278.13910358142
20
379.578435980284
30
0
11
1273.30805464021
21
379.519949358825
31
0
0
LINE
8
layer0
10
1273.30805464021
20
379.519949358825
30
0
11
1278.24356544903
21
383.794227099921
31
0
0
LINE
8
layer0
10
1278.24356544903
20
383.794227099921
30
0
11
1283.26425515563
21
384.016947441799
31
0
0
LINE
8
layer0
10
1283.26425515563
20
384.016947441799
30
0
11
1278.13910358142
21
379.578435980284
31
0
0
LINE
8
layer0
10
1273.30805464021
20
379.519949358825
30
0
11
1268.61661440186
21
383.103318267943
31
0
0
LINE
8
layer0
10
1268.61661440186
20
383.103318267943
30
0
11
1273.84303756524
21
387.62953349836
31
0
0
LINE
8
layer0
10
1273.84303756524
20
387.62953349836
30
0
11
1278.24356544903
21
383.794227099921
31
0
0
LINE
8
layer0
10
1278.24356544903
20
383.794227099921
30
0
11
1273.30805464021
21
379.519949358825
31
0
0
LINE
8
layer0
10
1268.61661440186
20
383.103318267943
30
0
11
1268.53001186148
21
383.128318267943
31
0
0
LINE
8
layer0
10
1268.53001186148
20
383.128318267943
30
0
11
1273.75643502486
21
387.65453349836
31
0
0
LINE
8
layer0
10
1273.75643502486
20
387.65453349836
30
0
11
1273.84303756524
21
387.62953349836
31
0
0
LINE
8
layer0
10
1273.84303756524
20
387.62953349836
30
0
11
1268.61661440186
21
383.103318267943
31
0
0
LINE
8
layer0
10
1273.75643502486
20
387.65453349836
30
0
11
1272.5137174985
21
393.265702298792
31
0
0
LINE
8
layer0
10
1272.5137174985
20
393.265702298792
30
0
11
1278.2086267737
21
396.101007641838
31
0
0
LINE
8
layer0
10
1278.2086267737
20
396.101007641838
30
0
11
1278.86864830255
21
390.199733943275
31
0
0
LINE
8
layer0
10
1278.86864830255
20
390.199733943275
30
0
11
1273.75643502486
21
387.65453349836
31
0
0
LINE
8
layer0
10
1272.5137174985
20
393.265702298792
30
0
11
1275.1860814033
21
397.370220165246
31
0
0
LINE
8
layer0
10
1275.1860814033
20
397.370220165246
30
0
11
1281.42192232216
21
400.474837327914
31
0
0
LINE
8
layer0
10
1281.42192232216
20
400.474837327914
30
0
11
1278.2086267737
21
396.101007641838
31
0
0
LINE
8
layer0
10
1278.2086267737
20
396.101007641838
30
0
11
1272.5137174985
21
393.265702298792
31
0
0
LINE
8
layer0
10
1275.1860814033
20
397.370220165246
30
0
11
1280.21200078672
21
397.569719435419
31
0
0
LINE
8
layer0
10
1280.21200078672
20
397.569719435419
30
0
11
1286.63092973738
21
400.765490021209
31
0
0
LINE
8
layer0
10
1286.63092973738
20
400.765490021209
30
0
11
1281.42192232216
21
400.474837327914
31
0
0
LINE
8
layer0
10
1281.42192232216
20
400.474837327914
30
0
11
1275.1860814033
21
397.370220165246
31
0
0
LINE
8
layer0
10
1280.21200078672
20
397.569719435419
30
0
11
1284.65471110911
21
393.747627928655
31
0
0
LINE
8
layer0
10
1284.65471110911
20
393.747627928655
30
0
11
1290.79190177697
21
396.803130422368
31
0
0
LINE
8
layer0
10
1290.79190177697
20
396.803130422368
30
0
11
1286.63092973738
21
400.765490021209
31
0
0
LINE
8
layer0
10
1286.63092973738
20
400.765490021209
30
0
11
1280.21200078672
21
397.569719435419
31
0
0
LINE
8
layer0
10
1284.65471110911
20
393.747627928655
30
0
11
1285.91823079192
21
388.137284850785
31
0
0
LINE
8
layer0
10
1285.91823079192
20
388.137284850785
30
0
11
1291.4734832591
21
390.903059728138
31
0
0
LINE
8
layer0
10
1291.4734832591
20
390.903059728138
30
0
11
1290.79190177697
21
396.803130422368
31
0
0
LINE
8
layer0
10
1290.79190177697
20
396.803130422368
30
0
11
1284.65471110911
21
393.747627928655
31
0
0
LINE
8
layer0
10
1285.91823079192
20
388.137284850785
30
0
11
1283.26425515563
21
384.016947441799
31
0
0
LINE
8
layer0
10
1283.26425515563
20
384.016947441799
30
0
11
1288.27740987134
21
386.512829933354
31
0
0
LINE
8
layer0
10
1288.27740987134
20
386.512829933354
30
0
11
1291.4734832591
21
390.903059728138
31
0
0
LINE
8
layer0
10
1291.4734832591
20
390.903059728138
30
0
11
1285.91823079192
21
388.137284850785
31
0
0
LINE
8
layer0
10
1283.26425515563
20
384.016947441799
30
0
11
1278.24356544903
21
383.794227099921
31
0
0
LINE
8
layer0
10
1278.24356544903
20
383.794227099921
30
0
11
1283.07122350508
21
386.197756992892
31
0
0
LINE
8
layer0
10
1283.07122350508
20
386.197756992892
30
0
11
1288.27740987134
21
386.512829933354
31
0
0
LINE
8
layer0
10
1288.27740987134
20
386.512829933354
30
0
11
1283.26425515563
21
384.016947441799
31
0
0
LINE
8
layer0
10
1278.24356544903
20
383.794227099921
30
0
11
1273.84303756524
21
387.62953349836
31
0
0
LINE
8
layer0
10
1273.84303756524
20
387.62953349836
30
0
11
1278.95525084293
21
390.174733943275
31
0
0
LINE
8
layer0
10
1278.95525084293
20
390.174733943275
30
0
11
1283.07122350508
21
386.197756992892
31
0
0
LINE
8
layer0
10
1283.07122350508
20
386.197756992892
30
0
11
1278.24356544903
21
383.794227099921
31
0
0
LINE
8
layer0
10
1273.84303756524
20
387.62953349836
30
0
11
1273.75643502486
21
387.65453349836
31
0
0
LINE
8
layer0
10
1273.75643502486
20
387.65453349836
30
0
11
1278.86864830255
21
390.199733943275
31
0
0
LINE
8
layer0
10
1278.86864830255
20
390.199733943275
30
0
11
1278.95525084293
21
390.174733943275
31
0
0
LINE
8
layer0
10
1278.95525084293
20
390.174733943275
30
0
11
1273.84303756524
21
387.62953349836
31
0
0
LINE
8
layer0
10
1278.86864830255
20
390.199733943275
30
0
11
1278.2086267737
21
396.101007641838
31
0
0
LINE
8
layer0
10
1278.2086267737
20
396.101007641838
30
0
11
1283.52741352547
21
396.605583388146
31
0
0
LINE
8
layer0
10
1283.52741352547
20
396.605583388146
30
0
11
1283.64322344317
21
390.652682130018
31
0
0
LINE
8
layer0
10
1283.64322344317
20
390.652682130018
30
0
11
1278.86864830255
21
390.199733943275
31
0
0
LINE
8
layer0
10
1278.2086267737
20
396.101007641838
30
0
11
1281.42192232216
21
400.474837327914
31
0
0
LINE
8
layer0
10
1281.42192232216
20
400.474837327914
30
0
11
1287.24591467438
21
401.027340262279
31
0
0
LINE
8
layer0
10
1287.24591467438
20
401.027340262279
30
0
11
1283.52741352547
21
396.605583388146
31
0
0
LINE
8
layer0
10
1283.52741352547
20
396.605583388146
30
0
11
1278.2086267737
21
396.101007641838
31
0
0
LINE
8
layer0
10
1281.42192232216
20
400.474837327914
30
0
11
1286.63092973738
21
400.765490021209
31
0
0
LINE
8
layer0
10
1286.63092973738
20
400.765490021209
30
0
11
1292.62591800031
21
401.33421477331
31
0
0
LINE
8
layer0
10
1292.62591800031
20
401.33421477331
30
0
11
1287.24591467438
21
401.027340262279
31
0
0
LINE
8
layer0
10
1287.24591467438
20
401.027340262279
30
0
11
1281.42192232216
21
400.474837327914
31
0
0
LINE
8
layer0
10
1286.63092973738
20
400.765490021209
30
0
11
1290.79190177697
21
396.803130422368
31
0
0
LINE
8
layer0
10
1290.79190177697
20
396.803130422368
30
0
11
1296.52375927281
21
397.346892826969
31
0
0
LINE
8
layer0
10
1296.52375927281
20
397.346892826969
30
0
11
1292.62591800031
21
401.33421477331
31
0
0
LINE
8
layer0
10
1292.62591800031
20
401.33421477331
30
0
11
1286.63092973738
21
400.765490021209
31
0
0
LINE
8
layer0
10
1290.79190177697
20
396.803130422368
30
0
11
1291.4734832591
21
390.903059728138
31
0
0
LINE
8
layer0
10
1291.4734832591
20
390.903059728138
30
0
11
1296.66183689166
21
391.395261714877
31
0
0
LINE
8
layer0
10
1296.66183689166
20
391.395261714877
30
0
11
1296.52375927281
21
397.346892826969
31
0
0
LINE
8
layer0
10
1296.52375927281
20
397.346892826969
30
0
11
1290.79190177697
21
396.803130422368
31
0
0
LINE
8
layer0
10
1291.4734832591
20
390.903059728138
30
0
11
1288.27740987134
21
386.512829933354
31
0
0
LINE
8
layer0
10
1288.27740987134
20
386.512829933354
30
0
11
1292.9594688117
21
386.957001413496
31
0
0
LINE
8
layer0
10
1292.9594688117
20
386.957001413496
30
0
11
1296.66183689166
21
391.395261714877
31
0
0
LINE
8
layer0
10
1296.66183689166
20
391.395261714877
30
0
11
1291.4734832591
21
390.903059728138
31
0
0
LINE
8
layer0
10
1288.27740987134
20
386.512829933354
30
0
11
1283.07122350508
21
386.197756992892
31
0
0
LINE
8
layer0
10
1283.07122350508
20
386.197756992892
30
0
11
1287.58003698563
21
386.625493247999
31
0
0
LINE
8
layer0
10
1287.58003698563
20
386.625493247999
30
0
11
1292.9594688117
21
386.957001413496
31
0
0
LINE
8
layer0
10
1292.9594688117
20
386.957001413496
30
0
11
1288.27740987134
21
386.512829933354
31
0
0
LINE
8
layer0
10
1283.07122350508
20
386.197756992892
30
0
11
1278.95525084293
21
390.174733943275
31
0
0
LINE
8
layer0
10
1278.95525084293
20
390.174733943275
30
0
11
1283.72982598355
21
390.627682130018
31
0
0
LINE
8
layer0
10
1283.72982598355
20
390.627682130018
30
0
11
1287.58003698563
21
386.625493247999
31
0
0
LINE
8
layer0
10
1287.58003698563
20
386.625493247999
30
0
11
1283.07122350508
21
386.197756992892
31
0
0
LINE
8
layer0
10
1278.95525084293
20
390.174733943275
30
0
11
1278.86864830255
21
390.199733943275
31
0
0
LINE
8
layer0
10
1278.86864830255
20
390.199733943275
30
0
11
1283.64322344317
21
390.652682130018
31
0
0
LINE
8
layer0
10
1283.64322344317
20
390.652682130018
30
0
11
1283.72982598355
21
390.627682130018
31
0
0
LINE
8
layer0
10
1283.72982598355
20
390.627682130018
30
0
11
1278.95525084293
21
390.174733943275
31
0
0
LINE
8
layer0
10
1283.64322344317
20
390.652682130018
30
0
11
1283.52741352547
21
396.605583388146
31
0
0
LINE
8
layer0
10
1283.52741352547
20
396.605583388146
30
0
11
1288.23762125036
21
394.75737715638
31
0
0
LINE
8
layer0
10
1288.23762125036
20
394.75737715638
30
0
11
1287.87148860214
21
388.993582049343
31
0
0
LINE
8
layer0
10
1287.87148860214
20
388.993582049343
30
0
11
1283.64322344317
21
390.652682130018
31
0
0
LINE
8
layer0
10
1283.52741352547
20
396.605583388146
30
0
11
1287.24591467438
21
401.027340262279
31
0
0
LINE
8
layer0
10
1287.24591467438
20
401.027340262279
30
0
11
1292.40352204754
21
399.003581938906
31
0
0
LINE
8
layer0
10
1292.40352204754
20
399.003581938906
30
0
11
1288.23762125036
21
394.75737715638
31
0
0
LINE
8
layer0
10
1288.23762125036
20
394.75737715638
30
0
11
1283.52741352547
21
396.605583388146
31
0
0
LINE
8
layer0
10
1287.24591467438
20
401.027340262279
30
0
11
1292.62591800031
21
401.33421477331
31
0
0
LINE
8
layer0
10
1292.62591800031
20
401.33421477331
30
0
11
1297.93495582126
21
399.251037691011
31
0
0
LINE
8
layer0
10
1297.93495582126
20
399.251037691011
30
0
11
1292.40352204754
21
399.003581938906
31
0
0
LINE
8
layer0
10
1292.40352204754
20
399.003581938906
30
0
11
1287.24591467438
21
401.027340262279
31
0
0
LINE
8
layer0
10
1292.62591800031
20
401.33421477331
30
0
11
1296.52375927281
21
397.346892826969
31
0
0
LINE
8
layer0
10
1296.52375927281
20
397.346892826969
30
0
11
1301.59977391956
21
395.355150116114
31
0
0
LINE
8
layer0
10
1301.59977391956
20
395.355150116114
30
0
11
1297.93495582126
21
399.251037691011
31
0
0
LINE
8
layer0
10
1297.93495582126
20
399.251037691011
30
0
11
1292.62591800031
21
401.33421477331
31
0
0
LINE
8
layer0
10
1296.52375927281
20
397.346892826969
30
0
11
1296.66183689166
21
391.395261714877
31
0
0
LINE
8
layer0
10
1296.66183689166
20
391.395261714877
30
0
11
1301.25653573939
21
389.592379222336
31
0
0
LINE
8
layer0
10
1301.25653573939
20
389.592379222336
30
0
11
1301.59977391956
21
395.355150116114
31
0
0
LINE
8
layer0
10
1301.59977391956
20
395.355150116114
30
0
11
1296.52375927281
21
397.346892826969
31
0
0
LINE
8
layer0
10
1296.66183689166
20
391.395261714877
30
0
11
1292.9594688117
21
386.957001413496
31
0
0
LINE
8
layer0
10
1292.9594688117
20
386.957001413496
30
0
11
1297.10580353398
21
385.33004945717
31
0
0
LINE
8
layer0
10
1297.10580353398
20
385.33004945717
30
0
11
1301.25653573939
21
389.592379222336
31
0
0
LINE
8
layer0
10
1301.25653573939
20
389.592379222336
30
0
11
1296.66183689166
21
391.395261714877
31
0
0
LINE
8
layer0
10
1292.9594688117
20
386.957001413496
30
0
11
1287.58003698563
21
386.625493247999
31
0
0
LINE
8
layer0
10
1287.58003698563
20
386.625493247999
30
0
11
1291.57294910589
21
385.058741738388
31
0
0
LINE
8
layer0
10
1291.57294910589
20
385.058741738388
30
0
11
1297.10580353398
21
385.33004945717
31
0
0
LINE
8
layer0
10
1297.10580353398
20
385.33004945717
30
0
11
1292.9594688117
21
386.957001413496
31
0
0
LINE
8
layer0
10
1287.58003698563
20
386.625493247999
30
0
11
1283.72982598355
21
390.627682130018
31
0
0
LINE
8
layer0
10
1283.72982598355
20
390.627682130018
30
0
11
1287.95809114252
21
388.968582049343
31
0
0
LINE
8
layer0
10
1287.95809114252
20
388.968582049343
30
0
11
1291.57294910589
21
385.058741738388
31
0
0
LINE
8
layer0
10
1291.57294910589
20
385.058741738388
30
0
11
1287.58003698563
21
386.625493247999
31
0
0
LINE
8
layer0
10
1283.72982598355
20
390.627682130018
30
0
11
1283.64322344317
21
390.652682130018
31
0
0
LINE
8
layer0
10
1283.64322344317
20
390.652682130018
30
0
11
1287.87148860214
21
388.993582049343
31
0
0
LINE
8
layer0
10
1287.87148860214
20
388.993582049343
30
0
11
1287.95809114252
21
388.968582049343
31
0
0
LINE
8
layer0
10
1287.95809114252
20
388.968582049343
30
0
11
1283.72982598355
21
390.627682130018
31
0
0
LINE
8
layer0
10
1287.87148860214
20
388.993582049343
30
0
11
1288.23762125036
21
394.75737715638
31
0
0
LINE
8
layer0
10
1288.23762125036
20
394.75737715638
30
0
11
1292.13339126873
21
390.637164427545
31
0
0
LINE
8
layer0
10
1292.13339126873
20
390.637164427545
30
0
11
1291.36864830255
21
385.29494433602
31
0
0
LINE
8
layer0
10
1291.36864830255
20
385.29494433602
30
0
11
1287.87148860214
21
388.993582049343
31
0
0
LINE
8
layer0
10
1288.23762125036
20
394.75737715638
30
0
11
1292.40352204754
21
399.003581938906
31
0
0
LINE
8
layer0
10
1292.40352204754
20
399.003581938906
30
0
11
1296.66933225048
21
394.492010307597
31
0
0
LINE
8
layer0
10
1296.66933225048
20
394.492010307597
30
0
11
1292.13339126873
21
390.637164427545
31
0
0
LINE
8
layer0
10
1292.13339126873
20
390.637164427545
30
0
11
1288.23762125036
21
394.75737715638
31
0
0
LINE
8
layer0
10
1292.40352204754
20
399.003581938906
30
0
11
1297.93495582126
21
399.251037691011
31
0
0
LINE
8
layer0
10
1297.93495582126
20
399.251037691011
30
0
11
1302.32601277188
21
394.607003609001
31
0
0
LINE
8
layer0
10
1302.32601277188
20
394.607003609001
30
0
11
1296.66933225048
21
394.492010307597
31
0
0
LINE
8
layer0
10
1296.66933225048
20
394.492010307597
30
0
11
1292.40352204754
21
399.003581938906
31
0
0
LINE
8
layer0
10
1297.93495582126
20
399.251037691011
30
0
11
1301.59977391956
21
395.355150116114
31
0
0
LINE
8
layer0
10
1301.59977391956
20
395.355150116114
30
0
11
1305.79809951975
21
390.914951003711
31
0
0
LINE
8
layer0
10
1305.79809951975
20
390.914951003711
30
0
11
1302.32601277188
21
394.607003609001
31
0
0
LINE
8
layer0
10
1302.32601277188
20
394.607003609001
30
0
11
1297.93495582126
21
399.251037691011
31
0
0
LINE
8
layer0
10
1301.59977391956
20
395.355150116114
30
0
11
1301.25653573939
21
389.592379222336
31
0
0
LINE
8
layer0
10
1301.25653573939
20
389.592379222336
30
0
11
1305.05676941481
21
385.573206866627
31
0
0
LINE
8
layer0
10
1305.05676941481
20
385.573206866627
30
0
11
1305.79809951975
21
390.914951003711
31
0
0
LINE
8
layer0
10
1305.79809951975
20
390.914951003711
30
0
11
1301.59977391956
21
395.355150116114
31
0
0
LINE
8
layer0
10
1301.25653573939
20
389.592379222336
30
0
11
1297.10580353398
21
385.33004945717
31
0
0
LINE
8
layer0
10
1297.10580353398
20
385.33004945717
30
0
11
1300.53519931452
21
381.70307967185
31
0
0
LINE
8
layer0
10
1300.53519931452
20
381.70307967185
30
0
11
1305.05676941481
21
385.573206866627
31
0
0
LINE
8
layer0
10
1305.05676941481
20
385.573206866627
30
0
11
1301.25653573939
21
389.592379222336
31
0
0
LINE
8
layer0
10
1297.10580353398
20
385.33004945717
30
0
11
1291.57294910589
21
385.058741738388
31
0
0
LINE
8
layer0
10
1291.57294910589
20
385.058741738388
30
0
11
1294.87545044609
21
381.565977023136
31
0
0
LINE
8
layer0
10
1294.87545044609
20
381.565977023136
30
0
11
1300.53519931452
21
381.70307967185
31
0
0
LINE
8
layer0
10
1300.53519931452
20
381.70307967185
30
0
11
1297.10580353398
21
385.33004945717
31
0
0
LINE
8
layer0
10
1291.57294910589
20
385.058741738388
30
0
11
1287.95809114252
21
388.968582049343
31
0
0
LINE
8
layer0
10
1287.95809114252
20
388.968582049343
30
0
11
1291.45525084293
21
385.26994433602
31
0
0
LINE
8
layer0
10
1291.45525084293
20
385.26994433602
30
0
11
1294.87545044609
21
381.565977023136
31
0
0
LINE
8
layer0
10
1294.87545044609
20
381.565977023136
30
0
11
1291.57294910589
21
385.058741738388
31
0
0
LINE
8
layer0
10
1287.95809114252
20
388.968582049343
30
0
11
1287.87148860214
21
388.993582049343
31
0
0
LINE
8
layer0
10
1287.87148860214
20
388.993582049343
30
0
11
1291.36864830255
21
385.29494433602
31
0
0
LINE
8
layer0
10
1291.36864830255
20
385.29494433602
30
0
11
1291.45525084293
21
385.26994433602
31
0
0
LINE
8
layer0
10
1291.45525084293
20
385.26994433602
30
0
11
1287.95809114252
21
388.968582049343
31
0
0
LINE
8
layer0
10
1291.36864830255
20
385.29494433602
30
0
11
1292.13339126873
21
390.637164427545
31
0
0
LINE
8
layer0
10
1292.13339126873
20
390.637164427545
30
0
11
1295.04445973679
21
384.425018268865
31
0
0
LINE
8
layer0
10
1295.04445973679
20
384.425018268865
30
0
11
1293.98185988424
21
379.718417206155
31
0
0
LINE
8
layer0
10
1293.98185988424
20
379.718417206155
30
0
11
1291.36864830255
21
385.29494433602
31
0
0
LINE
8
layer0
10
1292.13339126873
20
390.637164427545
30
0
11
1296.66933225048
21
394.492010307597
31
0
0
LINE
8
layer0
10
1296.66933225048
20
394.492010307597
30
0
11
1299.85690890772
21
387.689802697561
31
0
0
LINE
8
layer0
10
1299.85690890772
20
387.689802697561
30
0
11
1295.04445973679
21
384.425018268865
31
0
0
LINE
8
layer0
10
1295.04445973679
20
384.425018268865
30
0
11
1292.13339126873
21
390.637164427545
31
0
0
LINE
8
layer0
10
1296.66933225048
20
394.492010307597
30
0
11
1302.32601277188
21
394.607003609001
31
0
0
LINE
8
layer0
10
1302.32601277188
20
394.607003609001
30
0
11
1305.60717859279
21
387.605079101211
31
0
0
LINE
8
layer0
10
1305.60717859279
20
387.605079101211
30
0
11
1299.85690890772
21
387.689802697561
31
0
0
LINE
8
layer0
10
1299.85690890772
20
387.689802697561
30
0
11
1296.66933225048
21
394.492010307597
31
0
0
LINE
8
layer0
10
1302.32601277188
20
394.607003609001
30
0
11
1305.79809951975
21
390.914951003711
31
0
0
LINE
8
layer0
10
1305.79809951975
20
390.914951003711
30
0
11
1308.93524909883
21
384.220353497411
31
0
0
LINE
8
layer0
10
1308.93524909883
20
384.220353497411
30
0
11
1305.60717859279
21
387.605079101211
31
0
0
LINE
8
layer0
10
1305.60717859279
20
387.605079101211
30
0
11
1302.32601277188
21
394.607003609001
31
0
0
LINE
8
layer0
10
1305.79809951975
20
390.914951003711
30
0
11
1305.05676941481
21
385.573206866627
31
0
0
LINE
8
layer0
10
1305.05676941481
20
385.573206866627
30
0
11
1307.89644947077
21
379.513401765824
31
0
0
LINE
8
layer0
10
1307.89644947077
20
379.513401765824
30
0
11
1308.93524909883
21
384.220353497411
31
0
0
LINE
8
layer0
10
1308.93524909883
20
384.220353497411
30
0
11
1305.79809951975
21
390.914951003711
31
0
0
LINE
8
layer0
10
1305.05676941481
20
385.573206866627
30
0
11
1300.53519931452
21
381.70307967185
31
0
0
LINE
8
layer0
10
1300.53519931452
20
381.70307967185
30
0
11
1303.09777510162
21
376.234608041287
31
0
0
LINE
8
layer0
10
1303.09777510162
20
376.234608041287
30
0
11
1307.89644947077
21
379.513401765824
31
0
0
LINE
8
layer0
10
1307.89644947077
20
379.513401765824
30
0
11
1305.05676941481
21
385.573206866627
31
0
0
LINE
8
layer0
10
1300.53519931452
20
381.70307967185
30
0
11
1294.87545044609
21
381.565977023136
31
0
0
LINE
8
layer0
10
1294.87545044609
20
381.565977023136
30
0
11
1297.3432058505
21
376.299849680446
31
0
0
LINE
8
layer0
10
1297.3432058505
20
376.299849680446
30
0
11
1303.09777510162
21
376.234608041287
31
0
0
LINE
8
layer0
10
1303.09777510162
20
376.234608041287
30
0
11
1300.53519931452
21
381.70307967185
31
0
0
LINE
8
layer0
10
1294.87545044609
20
381.565977023136
30
0
11
1291.45525084293
21
385.26994433602
31
0
0
LINE
8
layer0
10
1291.45525084293
20
385.26994433602
30
0
11
1294.06846242462
21
379.693417206155
31
0
0
LINE
8
layer0
10
1294.06846242462
20
379.693417206155
30
0
11
1297.3432058505
21
376.299849680446
31
0
0
LINE
8
layer0
10
1297.3432058505
20
376.299849680446
30
0
11
1294.87545044609
21
381.565977023136
31
0
0
LINE
8
layer0
10
1291.45525084293
20
385.26994433602
30
0
11
1291.36864830255
21
385.29494433602
31
0
0
LINE
8
layer0
10
1291.36864830255
20
385.29494433602
30
0
11
1293.98185988424
21
379.718417206155
31
0
0
LINE
8
layer0
10
1293.98185988424
20
379.718417206155
30
0
11
1294.06846242462
21
379.693417206155
31
0
0
LINE
8
layer0
10
1294.06846242462
20
379.693417206155
30
0
11
1291.45525084293
21
385.26994433602
31
0
0
LINE
8
layer0
10
1293.98185988424
20
379.718417206155
30
0
11
1295.04445973679
21
384.425018268865
31
0
0
LINE
8
layer0
10
1295.04445973679
20
384.425018268865
30
0
11
1296.84359899362
21
376.392439276659
31
0
0
LINE
8
layer0
10
1296.84359899362
20
376.392439276659
30
0
11
1295.59691346152
21
372.507721654468
31
0
0
LINE
8
layer0
10
1295.59691346152
20
372.507721654468
30
0
11
1293.98185988424
21
379.718417206155
31
0
0
LINE
8
layer0
10
1295.04445973679
20
384.425018268865
30
0
11
1299.85690890772
21
387.689802697561
31
0
0
LINE
8
layer0
10
1299.85690890772
20
387.689802697561
30
0
11
1301.82693962364
21
378.894248221971
31
0
0
LINE
8
layer0
10
1301.82693962364
20
378.894248221971
30
0
11
1296.84359899362
21
376.392439276659
31
0
0
LINE
8
layer0
10
1296.84359899362
20
376.392439276659
30
0
11
1295.04445973679
21
384.425018268865
31
0
0
LINE
8
layer0
10
1299.85690890772
20
387.689802697561
30
0
11
1305.60717859279
21
387.605079101211
31
0
0
LINE
8
layer0
10
1305.60717859279
20
387.605079101211
30
0
11
1307.63505059283
21
378.551281867594
31
0
0
LINE
8
layer0
10
1307.63505059283
20
378.551281867594
30
0
11
1301.82693962364
21
378.894248221971
31
0
0
LINE
8
layer0
10
1301.82693962364
20
378.894248221971
30
0
11
1299.85690890772
21
387.689802697561
31
0
0
LINE
8
layer0
10
1305.60717859279
20
387.605079101211
30
0
11
1308.93524909883
21
384.220353497411
31
0
0
LINE
8
layer0
10
1308.93524909883
20
384.220353497411
30
0
11
1310.8741141665
21
375.563943632482
31
0
0
LINE
8
layer0
10
1310.8741141665
20
375.563943632482
30
0
11
1307.63505059283
21
378.551281867594
31
0
0
LINE
8
layer0
10
1307.63505059283
20
378.551281867594
30
0
11
1305.60717859279
21
387.605079101211
31
0
0
LINE
8
layer0
10
1308.93524909883
20
384.220353497411
30
0
11
1307.89644947077
21
379.513401765824
31
0
0
LINE
8
layer0
10
1307.89644947077
20
379.513401765824
30
0
11
1309.65146826253
21
371.677806481004
31
0
0
LINE
8
layer0
10
1309.65146826253
20
371.677806481004
30
0
11
1310.8741141665
21
375.563943632482
31
0
0
LINE
8
layer0
10
1310.8741141665
20
375.563943632482
30
0
11
1308.93524909883
21
384.220353497411
31
0
0
LINE
8
layer0
10
1307.89644947077
20
379.513401765824
30
0
11
1303.09777510162
21
376.234608041287
31
0
0
LINE
8
layer0
10
1303.09777510162
20
376.234608041287
30
0
11
1304.6815340368
21
369.163633016374
31
0
0
LINE
8
layer0
10
1304.6815340368
20
369.163633016374
30
0
11
1309.65146826253
21
371.677806481004
31
0
0
LINE
8
layer0
10
1309.65146826253
20
371.677806481004
30
0
11
1307.89644947077
21
379.513401765824
31
0
0
LINE
8
layer0
10
1303.09777510162
20
376.234608041287
30
0
11
1297.3432058505
21
376.299849680446
31
0
0
LINE
8
layer0
10
1297.3432058505
20
376.299849680446
30
0
11
1298.86836256635
21
369.490514744874
31
0
0
LINE
8
layer0
10
1298.86836256635
20
369.490514744874
30
0
11
1304.6815340368
21
369.163633016374
31
0
0
LINE
8
layer0
10
1304.6815340368
20
369.163633016374
30
0
11
1303.09777510162
21
376.234608041287
31
0
0
LINE
8
layer0
10
1297.3432058505
20
376.299849680446
30
0
11
1294.06846242462
21
379.693417206155
31
0
0
LINE
8
layer0
10
1294.06846242462
20
379.693417206155
30
0
11
1295.6835160019
21
372.482721654468
31
0
0
LINE
8
layer0
10
1295.6835160019
20
372.482721654468
30
0
11
1298.86836256635
21
369.490514744874
31
0
0
LINE
8
layer0
10
1298.86836256635
20
369.490514744874
30
0
11
1297.3432058505
21
376.299849680446
31
0
0
LINE
8
layer0
10
1294.06846242462
20
379.693417206155
30
0
11
1293.98185988424
21
379.718417206155
31
0
0
LINE
8
layer0
10
1293.98185988424
20
379.718417206155
30
0
11
1295.59691346152
21
372.507721654468
31
0
0
LINE
8
layer0
10
1295.59691346152
20
372.507721654468
30
0
11
1295.6835160019
21
372.482721654468
31
0
0
LINE
8
layer0
10
1295.6835160019
20
372.482721654468
30
0
11
1294.06846242462
21
379.693417206155
31
0
0
LINE
8
layer0
10
1295.59691346152
20
372.507721654468
30
0
11
1296.84359899362
21
376.392439276659
31
0
0
LINE
8
layer0
10
1296.84359899362
20
376.392439276659
30
0
11
1297.45217802049
21
366.890489697478
31
0
0
LINE
8
layer0
10
1297.45217802049
20
366.890489697478
30
0
11
1296.14322344317
21
363.977999677324
31
0
0
LINE
8
layer0
10
1296.14322344317
20
363.977999677324
30
0
11
1295.59691346152
21
372.507721654468
31
0
0
LINE
8
layer0
10
1296.84359899362
20
376.392439276659
30
0
11
1301.82693962364
21
378.894248221971
31
0
0
LINE
8
layer0
10
1301.82693962364
20
378.894248221971
30
0
11
1302.4933246027
21
368.489754817163
31
0
0
LINE
8
layer0
10
1302.4933246027
20
368.489754817163
30
0
11
1297.45217802049
21
366.890489697478
31
0
0
LINE
8
layer0
10
1297.45217802049
20
366.890489697478
30
0
11
1296.84359899362
21
376.392439276659
31
0
0
LINE
8
layer0
10
1301.82693962364
20
378.894248221971
30
0
11
1307.63505059283
21
378.551281867594
31
0
0
LINE
8
layer0
10
1307.63505059283
20
378.551281867594
30
0
11
1308.3210010348
21
367.841306292197
31
0
0
LINE
8
layer0
10
1308.3210010348
20
367.841306292197
30
0
11
1302.4933246027
21
368.489754817163
31
0
0
LINE
8
layer0
10
1302.4933246027
20
368.489754817163
30
0
11
1301.82693962364
21
378.894248221971
31
0
0
LINE
8
layer0
10
1307.63505059283
20
378.551281867594
30
0
11
1310.8741141665
21
375.563943632482
31
0
0
LINE
8
layer0
10
1310.8741141665
20
375.563943632482
30
0
11
1311.52995701559
21
365.324048058084
31
0
0
LINE
8
layer0
10
1311.52995701559
20
365.324048058084
30
0
11
1308.3210010348
21
367.841306292197
31
0
0
LINE
8
layer0
10
1308.3210010348
20
367.841306292197
30
0
11
1307.63505059283
21
378.551281867594
31
0
0
LINE
8
layer0
10
1310.8741141665
20
375.563943632482
30
0
11
1309.65146826253
21
371.677806481004
31
0
0
LINE
8
layer0
10
1309.65146826253
20
371.677806481004
30
0
11
1310.24512304737
21
362.408874125469
31
0
0
LINE
8
layer0
10
1310.24512304737
20
362.408874125469
30
0
11
1311.52995701559
21
365.324048058084
31
0
0
LINE
8
layer0
10
1311.52995701559
20
365.324048058084
30
0
11
1310.8741141665
21
375.563943632482
31
0
0
LINE
8
layer0
10
1309.65146826253
20
371.677806481004
30
0
11
1304.6815340368
21
369.163633016374
31
0
0
LINE
8
layer0
10
1304.6815340368
20
369.163633016374
30
0
11
1305.21725825487
21
360.799190136003
31
0
0
LINE
8
layer0
10
1305.21725825487
20
360.799190136003
30
0
11
1310.24512304737
21
362.408874125469
31
0
0
LINE
8
layer0
10
1310.24512304737
20
362.408874125469
30
0
11
1309.65146826253
21
371.677806481004
31
0
0
LINE
8
layer0
10
1304.6815340368
20
369.163633016374
30
0
11
1298.86836256635
21
369.490514744874
31
0
0
LINE
8
layer0
10
1298.86836256635
20
369.490514744874
30
0
11
1299.38426392664
21
361.43557282792
31
0
0
LINE
8
layer0
10
1299.38426392664
20
361.43557282792
30
0
11
1305.21725825487
21
360.799190136003
31
0
0
LINE
8
layer0
10
1305.21725825487
20
360.799190136003
30
0
11
1304.6815340368
21
369.163633016374
31
0
0
LINE
8
layer0
10
1298.86836256635
20
369.490514744874
30
0
11
1295.6835160019
21
372.482721654468
31
0
0
LINE
8
layer0
10
1295.6835160019
20
372.482721654468
30
0
11
1296.22982598355
21
363.952999677324
31
0
0
LINE
8
layer0
10
1296.22982598355
20
363.952999677324
30
0
11
1299.38426392664
21
361.43557282792
31
0
0
LINE
8
layer0
10
1299.38426392664
20
361.43557282792
30
0
11
1298.86836256635
21
369.490514744874
31
0
0
LINE
8
layer0
10
1295.6835160019
20
372.482721654468
30
0
11
1295.59691346152
21
372.507721654468
31
0
0
LINE
8
layer0
10
1295.59691346152
20
372.507721654468
30
0
11
1296.14322344317
21
363.977999677324
31
0
0
LINE
8
layer0
10
1296.14322344317
20
363.977999677324
30
0
11
1296.22982598355
21
363.952999677324
31
0
0
LINE
8
layer0
10
1296.22982598355
20
363.952999677324
30
0
11
1295.6835160019
21
372.482721654468
31
0
0
ENDBLK
0
BLOCK
8
layer0
2
PF_OBJECT54
70
0
10
0
20
0
30
0
0
LINE
8
layer0
10
1298.16805888745
20
261.712663310025
30
0
11
1298.39305987647
21
263.977252172629
31
0
0
LINE
8
layer0
10
1298.39305987647
20
263.977252172629
30
0
11
1263.94655349371
21
286.554266191134
31
0
0
LINE
8
layer0
10
1263.94655349371
20
286.554266191134
30
0
11
1263.49655151568
21
282.025088465926
31
0
0
LINE
8
layer0
10
1263.49655151568
20
282.025088465926
30
0
11
1298.16805888745
21
261.712663310025
31
0
0
LINE
8
layer0
10
1296.19217910611
20
255.258001105761
30
0
11
1298.16805888745
21
261.712663310025
31
0
0
LINE
8
layer0
10
1298.16805888745
20
261.712663310025
30
0
11
1263.49655151568
21
282.025088465926
31
0
0
LINE
8
layer0
10
1263.49655151568
20
282.025088465926
30
0
11
1259.544791953
21
269.115764057397
31
0
0
LINE
8
layer0
10
1259.544791953
20
269.115764057397
30
0
11
1296.19217910611
21
255.258001105761
31
0
0
LINE
8
layer0
10
1293.62286411073
20
248.394319138557
30
0
11
1296.19217910611
21
255.258001105761
31
0
0
LINE
8
layer0
10
1296.19217910611
20
255.258001105761
30
0
11
1259.544791953
21
269.115764057397
31
0
0
LINE
8
layer0
10
1259.544791953
20
269.115764057397
30
0
11
1254.40616196224
21
255.38840012299
31
0
0
LINE
8
layer0
10
1254.40616196224
20
255.38840012299
30
0
11
1293.62286411073
21
248.394319138557
31
0
0
LINE
8
layer0
10
1291.9651837796
20
245.142269216987
30
0
11
1293.62286411073
21
248.394319138557
31
0
0
LINE
8
layer0
10
1293.62286411073
20
248.394319138557
30
0
11
1254.40616196224
21
255.38840012299
31
0
0
LINE
8
layer0
10
1254.40616196224
20
255.38840012299
30
0
11
1251.09080129998
21
248.884300279848
31
0
0
LINE
8
layer0
10
1251.09080129998
20
248.884300279848
30
0
11
1291.9651837796
21
245.142269216987
31
0
0
LINE
8
layer0
10
1292.19018476862
20
247.406858079591
30
0
11
1291.9651837796
21
245.142269216987
31
0
0
LINE
8
layer0
10
1291.9651837796
20
245.142269216987
30
0
11
1251.09080129998
21
248.884300279848
31
0
0
LINE
8
layer0
10
1251.09080129998
20
248.884300279848
30
0
11
1251.54080327801
21
253.413478005057
31
0
0
LINE
8
layer0
10
1251.54080327801
20
253.413478005057
30
0
11
1292.19018476862
21
247.406858079591
31
0
0
LINE
8
layer0
10
1294.16606454996
20
253.861520283855
30
0
11
1292.19018476862
21
247.406858079591
31
0
0
LINE
8
layer0
10
1292.19018476862
20
247.406858079591
30
0
11
1251.54080327801
21
253.413478005057
31
0
0
LINE
8
layer0
10
1251.54080327801
20
253.413478005057
30
0
11
1255.49256284069
21
266.322802413586
31
0
0
LINE
8
layer0
10
1255.49256284069
20
266.322802413586
30
0
11
1294.16606454996
21
253.861520283855
31
0
0
LINE
8
layer0
10
1296.73537954534
20
260.725202251059
30
0
11
1294.16606454996
21
253.861520283855
31
0
0
LINE
8
layer0
10
1294.16606454996
20
253.861520283855
30
0
11
1255.49256284069
21
266.322802413586
31
0
0
LINE
8
layer0
10
1255.49256284069
20
266.322802413586
30
0
11
1260.63119283145
21
280.050166347993
31
0
0
LINE
8
layer0
10
1260.63119283145
20
280.050166347993
30
0
11
1296.73537954534
21
260.725202251059
31
0
0
LINE
8
layer0
10
1298.39305987647
20
263.977252172629
30
0
11
1296.73537954534
21
260.725202251059
31
0
0
LINE
8
layer0
10
1296.73537954534
20
260.725202251059
30
0
11
1260.63119283145
21
280.050166347993
31
0
0
LINE
8
layer0
10
1260.63119283145
20
280.050166347993
30
0
11
1263.94655349371
21
286.554266191134
31
0
0
LINE
8
layer0
10
1263.94655349371
20
286.554266191134
30
0
11
1298.39305987647
21
263.977252172629
31
0
0
LINE
8
layer0
10
1263.94655349371
20
286.554266191134
30
0
11
1260.63119283145
21
280.050166347993
31
0
0
LINE
8
layer0
10
1260.63119283145
20
280.050166347993
30
0
11
1255.49256284069
21
266.322802413586
31
0
0
LINE
8
layer0
10
1255.49256284069
20
266.322802413586
30
0
11
1251.54080327801
21
253.413478005057
31
0
0
LINE
8
layer0
10
1251.54080327801
20
253.413478005057
30
0
11
1251.09080129998
21
248.884300279848
31
0
0
LINE
8
layer0
10
1251.09080129998
20
248.884300279848
30
0
11
1254.40616196224
21
255.38840012299
31
0
0
LINE
8
layer0
10
1254.40616196224
20
255.38840012299
30
0
11
1259.544791953
21
269.115764057397
31
0
0
LINE
8
layer0
10
1259.544791953
20
269.115764057397
30
0
11
1263.49655151568
21
282.025088465926
31
0
0
LINE
8
layer0
10
1263.49655151568
20
282.025088465926
30
0
11
1263.94655349371
21
286.554266191134
31
0
0
LINE
8
layer0
10
1296.73537954534
20
260.725202251059
30
0
11
1298.39305987647
21
263.977252172629
31
0
0
LINE
8
layer0
10
1298.39305987647
20
263.977252172629
30
0
11
1298.16805888745
21
261.712663310025
31
0
0
LINE
8
layer0
10
1298.16805888745
20
261.712663310025
30
0
11
1296.19217910611
21
255.258001105761
31
0
0
LINE
8
layer0
10
1296.19217910611
20
255.258001105761
30
0
11
1293.62286411073
21
248.394319138557
31
0
0
LINE
8
layer0
10
1293.62286411073
20
248.394319138557
30
0
11
1291.9651837796
21
245.142269216987
31
0
0
LINE
8
layer0
10
1291.9651837796
20
245.142269216987
30
0
11
1292.19018476862
21
247.406858079591
31
0
0
LINE
8
layer0
10
1292.19018476862
20
247.406858079591
30
0
11
1294.16606454996
21
253.861520283855
31
0
0
LINE
8
layer0
10
1294.16606454996
20
253.861520283855
30
0
11
1296.73537954534
21
260.725202251059
31
0
0
ENDBLK
0
BLOCK
8
layer0
2
PF_OBJECT55
70
0
10
0
20
0
30
0
0
LINE
8
layer0
10
1320.17961197798
20
253.957435298092
30
0
11
1315.71356795216
21
258.977252172629
31
0
0
LINE
8
layer0
10
1315.71356795216
20
258.977252172629
30
0
11
1341.2670615694
21
264.233758115446
31
0
0
LINE
8
layer0
10
1341.2670615694
20
264.233758115446
30
0
11
1350.19914962105
21
254.194124366372
31
0
0
LINE
8
layer0
10
1350.19914962105
20
254.194124366372
30
0
11
1320.17961197798
21
253.957435298092
31
0
0
LINE
8
layer0
10
1320.14682666349
20
246.361520283855
30
0
11
1320.17961197798
21
253.957435298092
31
0
0
LINE
8
layer0
10
1320.17961197798
20
253.957435298092
30
0
11
1350.19914962105
21
254.194124366372
31
0
0
LINE
8
layer0
10
1350.19914962105
20
254.194124366372
30
0
11
1350.13357899207
21
239.002294337897
31
0
0
LINE
8
layer0
10
1350.13357899207
20
239.002294337897
30
0
11
1320.14682666349
21
246.361520283855
31
0
0
LINE
8
layer0
10
1315.63441720126
20
240.639091126624
30
0
11
1320.14682666349
21
246.361520283855
31
0
0
LINE
8
layer0
10
1320.14682666349
20
246.361520283855
30
0
11
1350.13357899207
21
239.002294337897
31
0
0
LINE
8
layer0
10
1350.13357899207
20
239.002294337897
30
0
11
1341.10876006761
21
227.557436023435
31
0
0
LINE
8
layer0
10
1341.10876006761
20
227.557436023435
30
0
11
1315.63441720126
21
240.639091126624
31
0
0
LINE
8
layer0
10
1309.28569185529
20
240.142269216987
30
0
11
1315.63441720126
21
240.639091126624
31
0
0
LINE
8
layer0
10
1315.63441720126
20
240.639091126624
30
0
11
1341.10876006761
21
227.557436023435
31
0
0
LINE
8
layer0
10
1341.10876006761
20
227.557436023435
30
0
11
1328.41130937567
21
226.56379220416
31
0
0
LINE
8
layer0
10
1328.41130937567
20
226.56379220416
30
0
11
1309.28569185529
21
240.142269216987
31
0
0
LINE
8
layer0
10
1304.81964782947
20
245.162086091524
30
0
11
1309.28569185529
21
240.142269216987
31
0
0
LINE
8
layer0
10
1309.28569185529
20
240.142269216987
30
0
11
1328.41130937567
21
226.56379220416
31
0
0
LINE
8
layer0
10
1328.41130937567
20
226.56379220416
30
0
11
1319.47922132402
21
236.603425953234
31
0
0
LINE
8
layer0
10
1319.47922132402
20
236.603425953234
30
0
11
1304.81964782947
21
245.162086091524
31
0
0
LINE
8
layer0
10
1304.85243314396
20
252.758001105761
30
0
11
1304.81964782947
21
245.162086091524
31
0
0
LINE
8
layer0
10
1304.81964782947
20
245.162086091524
30
0
11
1319.47922132402
21
236.603425953234
31
0
0
LINE
8
layer0
10
1319.47922132402
20
236.603425953234
30
0
11
1319.544791953
21
251.795255981708
31
0
0
LINE
8
layer0
10
1319.544791953
20
251.795255981708
30
0
11
1304.85243314396
21
252.758001105761
31
0
0
LINE
8
layer0
10
1309.36484260619
20
258.480430262992
30
0
11
1304.85243314396
21
252.758001105761
31
0
0
LINE
8
layer0
10
1304.85243314396
20
252.758001105761
30
0
11
1319.544791953
21
251.795255981708
31
0
0
LINE
8
layer0
10
1319.544791953
20
251.795255981708
30
0
11
1328.56961087746
21
263.24011429617
31
0
0
LINE
8
layer0
10
1328.56961087746
20
263.24011429617
30
0
11
1309.36484260619
21
258.480430262992
31
0
0
LINE
8
layer0
10
1315.71356795216
20
258.977252172629
30
0
11
1309.36484260619
21
258.480430262992
31
0
0
LINE
8
layer0
10
1309.36484260619
20
258.480430262992
30
0
11
1328.56961087746
21
263.24011429617
31
0
0
LINE
8
layer0
10
1328.56961087746
20
263.24011429617
30
0
11
1341.2670615694
21
264.233758115446
31
0
0
LINE
8
layer0
10
1341.2670615694
20
264.233758115446
30
0
11
1315.71356795216
21
258.977252172629
31
0
0
LINE
8
layer0
10
1341.2670615694
20
264.233758115446
30
0
11
1328.56961087746
21
263.24011429617
31
0
0
LINE
8
layer0
10
1328.56961087746
20
263.24011429617
30
0
11
1319.544791953
21
251.795255981708
31
0
0
LINE
8
layer0
10
1319.544791953
20
251.795255981708
30
0
11
1319.47922132402
21
236.603425953234
31
0
0
LINE
8
layer0
10
1319.47922132402
20
236.603425953234
30
0
11
1328.41130937567
21
226.56379220416
31
0
0
LINE
8
layer0
10
1328.41130937567
20
226.56379220416
30
0
11
1341.10876006761
21
227.557436023435
31
0
0
LINE
8
layer0
10
1341.10876006761
20
227.557436023435
30
0
11
1350.13357899207
21
239.002294337897
31
0
0
LINE
8
layer0
10
1350.13357899207
20
239.002294337897
30
0
11
1350.19914962105
21
254.194124366372
31
0
0
LINE
8
layer0
10
1350.19914962105
20
254.194124366372
30
0
11
1341.2670615694
21
264.233758115446
31
0
0
LINE
8
layer0
10
1309.36484260619
20
258.480430262992
30
0
11
1315.71356795216
21
258.977252172629
31
0
0
LINE
8
layer0
10
1315.71356795216
20
258.977252172629
30
0
11
1320.17961197798
21
253.957435298092
31
0
0
LINE
8
layer0
10
1320.17961197798
20
253.957435298092
30
0
11
1320.14682666349
21
246.361520283855
31
0
0
LINE
8
layer0
10
1320.14682666349
20
246.361520283855
30
0
11
1315.63441720126
21
240.639091126624
31
0
0
LINE
8
layer0
10
1315.63441720126
20
240.639091126624
30
0
11
1309.28569185529
21
240.142269216987
31
0
0
LINE
8
layer0
10
1309.28569185529
20
240.142269216987
30
0
11
1304.81964782947
21
245.162086091524
31
0
0
LINE
8
layer0
10
1304.81964782947
20
245.162086091524
30
0
11
1304.85243314396
21
252.758001105761
31
0
0
LINE
8
layer0
10
1304.85243314396
20
252.758001105761
30
0
11
1309.36484260619
21
258.480430262992
31
0
0
ENDBLK
0
ENDSEC
0
SECTION
2
ENTITIES
0
INSERT
2
PF_OBJECT0
8
0
10
0
20
0
30
0
0
INSERT
2
PF_OBJECT1
8
0
10
0
20
0
30
0
0
INSERT
2
PF_OBJECT2
8
0
10
0
20
0
30
0
0
INSERT
2
PF_OBJECT3
8
0
10
0
20
0
30
0
0
INSERT
2
PF_OBJECT4
8
0
10
0
20
0
30
0
0
INSERT
2
PF_OBJECT5
8
0
10
0
20
0
30
0
0
INSERT
2
PF_OBJECT6
8
0
10
0
20
0
30
0
0
INSERT
2
PF_OBJECT7
8
0
10
0
20
0
30
0
0
INSERT
2
PF_OBJECT8
8
0
10
0
20
0
30
0
0
INSERT
2
PF_OBJECT9
8
0
10
0
20
0
30
0
0
INSERT
2
PF_OBJECT10
8
0
10
0
20
0
30
0
0
INSERT
2
PF_OBJECT11
8
0
10
0
20
0
30
0
0
INSERT
2
PF_OBJECT12
8
0
10
0
20
0
30
0
0
INSERT
2
PF_OBJECT13
8
0
10
0
20
0
30
0
0
INSERT
2
PF_OBJECT14
8
0
10
0
20
0
30
0
0
INSERT
2
PF_SKETCH15
8
0
10
0
20
0
30
0
0
INSERT
2
PF_SKETCH16
8
0
10
0
20
0
30
0
0
INSERT
2
PF_SKETCH17
8
0
10
0
20
0
30
0
0
INSERT
2
PF_SKETCH18
8
0
10
0
20
0
30
0
0
INSERT
2
PF_SKETCH19
8
0
10
0
20
0
30
0
0
INSERT
2
PF_SKETCH20
8
0
10
0
20
0
30
0
0
INSERT
2
PF_OBJECT21
8
0
10
0
20
0
30
0
0
INSERT
2
PF_OBJECT22
8
0
10
0
20
0
30
0
0
INSERT
2
PF_OBJECT23
8
0
10
0
20
0
30
0
0
INSERT
2
PF_OBJECT24
8
0
10
0
20
0
30
0
0
INSERT
2
PF_OBJECT25
8
0
10
0
20
0
30
0
0
INSERT
2
PF_OBJECT26
8
0
10
0
20
0
30
0
0
INSERT
2
PF_OBJECT27
8
0
10
0
20
0
30
0
0
INSERT
2
PF_OBJECT28
8
0
10
0
20
0
30
0
0
INSERT
2
PF_OBJECT29
8
0
10
0
20
0
30
0
0
INSERT
2
PF_OBJECT30
8
0
10
0
20
0
30
0
0
INSERT
2
PF_OBJECT31
8
0
10
0
20
0
30
0
0
INSERT
2
PF_OBJECT32
8
0
10
0
20
0
30
0
0
INSERT
2
PF_OBJECT33
8
0
10
0
20
0
30
0
0
INSERT
2
PF_OBJECT34
8
0
10
0
20
0
30
0
0
INSERT
2
PF_OBJECT35
8
0
10
0
20
0
30
0
0
INSERT
2
PF_OBJECT36
8
0
10
0
20
0
30
0
0
INSERT
2
PF_OBJECT37
8
0
10
0
20
0
30
0
0
INSERT
2
PF_SKETCH38
8
0
10
0
20
0
30
0
0
INSERT
2
PF_SKETCH39
8
0
10
0
20
0
30
0
0
INSERT
2
PF_SKETCH40
8
0
10
0
20
0
30
0
0
INSERT
2
PF_SKETCH41
8
0
10
0
20
0
30
0
0
INSERT
2
PF_SKETCH42
8
0
10
0
20
0
30
0
0
INSERT
2
PF_SKETCH43
8
0
10
0
20
0
30
0
0
INSERT
2
PF_OBJECT44
8
0
10
0
20
0
30
0
0
INSERT
2
PF_OBJECT45
8
0
10
0
20
0
30
0
0
INSERT
2
PF_OBJECT46
8
0
10
0
20
0
30
0
0
INSERT
2
PF_OBJECT47
8
0
10
0
20
0
30
0
0
INSERT
2
PF_OBJECT48
8
0
10
0
20
0
30
0
0
INSERT
2
PF_OBJECT49
8
0
10
0
20
0
30
0
0
INSERT
2
PF_OBJECT50
8
0
10
0
20
0
30
0
0
INSERT
2
PF_OBJECT51
8
0
10
0
20
0
30
0
0
INSERT
2
PF_OBJECT52
8
0
10
0
20
0
30
0
0
INSERT
2
PF_OBJECT53
8
0
10
0
20
0
30
0
0
INSERT
2
PF_OBJECT54
8
0
10
0
20
0
30
0
0
INSERT
2
PF_OBJECT55
8
0
10
0
20
0
30
0
0
ENDSEC
0
EOF
