0
SECTION
2
HEADER
9
$EXTMIN
10
-570.000000000001
20
-570
30
0
9
$EXTMAX
10
4570
20
2750
30
0
0
ENDSEC
0
SECTION
2
TABLES
0
TABLE
2
LAYER
5
2
70
3
0
LAYER
5
14
2
layer0
5
14
70
0
62
7
6
CONTINUOUS
0
ENDTAB
0
TABLE
2
DIMSTYLE
70
2
0
DIMSTYLE
2
PFDIMSTYLE
70
0
3

4

5

6

7

40
1
41
30
42
0
43
0
44
1
45
0
46
0
47
0
48
0
71
0
72
0
73
0
74
0
75
0
76
0
77
2
78
12
140
30
141
0
142
0
143
1
144
1
145
0
146
1
147
5
170
0
171
1
172
0
173
1
174
0
175
0
176
7
177
7
178
7
0
ENDTAB
0
ENDSEC
0
SECTION
2
BLOCKS
0
BLOCK
8
layer0
2
PF_OBJECT0
70
0
10
0
20
0
30
0
0
LINE
8
layer0
10
3499.10161513775
20
1325.27820916122
30
0
11
3499.10161513775
21
-969.689110867545
31
0
0
LINE
8
layer0
10
3499.10161513775
20
-969.689110867545
30
0
11
-25.6217782649107
21
47.8108891324554
31
0
0
LINE
8
layer0
10
-25.6217782649107
20
47.8108891324554
30
0
11
-25.6217782649108
21
2342.77820916122
31
0
0
LINE
8
layer0
10
-25.6217782649108
20
2342.77820916122
30
0
11
3499.10161513775
21
1325.27820916122
31
0
0
LINE
8
layer0
10
3464.10161513775
20
1294.96732002876
30
0
11
3499.10161513775
21
1325.27820916122
31
0
0
LINE
8
layer0
10
3499.10161513775
20
1325.27820916122
30
0
11
-25.6217782649107
21
2342.77820916122
31
0
0
LINE
8
layer0
10
-25.6217782649107
20
2342.77820916122
30
0
11
-2.46139223857096E-14
21
2294.96732002876
31
0
0
LINE
8
layer0
10
-2.46139223857096E-14
20
2294.96732002876
30
0
11
3464.10161513775
21
1294.96732002876
31
0
0
LINE
8
layer0
10
0
20
0
30
0
11
-25.6217782649108
21
47.8108891324554
31
0
0
LINE
8
layer0
10
-25.6217782649108
20
47.8108891324554
30
0
11
3499.10161513775
21
-969.689110867545
31
0
0
LINE
8
layer0
10
3499.10161513775
20
-969.689110867545
30
0
11
3464.10161513775
21
-1000
31
0
0
LINE
8
layer0
10
3464.10161513775
20
-1000
30
0
11
0
21
0
31
0
0
LINE
8
layer0
10
3464.10161513775
20
1294.96732002876
30
0
11
3464.10161513775
21
-1000
31
0
0
LINE
8
layer0
10
3464.10161513775
20
-1000
30
0
11
3499.10161513775
21
-969.689110867545
31
0
0
LINE
8
layer0
10
3499.10161513775
20
-969.689110867545
30
0
11
3499.10161513775
21
1325.27820916122
31
0
0
LINE
8
layer0
10
3499.10161513775
20
1325.27820916122
30
0
11
3464.10161513775
21
1294.96732002876
31
0
0
LINE
8
layer0
10
-25.6217782649108
20
2342.77820916122
30
0
11
-25.6217782649108
21
47.8108891324554
31
0
0
LINE
8
layer0
10
-25.6217782649108
20
47.8108891324554
30
0
11
-3.69208835785644E-14
21
1.06581410364015E-14
31
0
0
LINE
8
layer0
10
-3.69208835785644E-14
20
1.06581410364015E-14
30
0
11
-2.46139223857096E-14
21
2294.96732002876
31
0
0
LINE
8
layer0
10
-2.46139223857096E-14
20
2294.96732002876
30
0
11
-25.6217782649108
21
2342.77820916122
31
0
0
LINE
8
layer0
10
0
20
2294.96732002876
30
0
11
-2.46139223857096E-14
21
7.105427357601E-15
31
0
0
LINE
8
layer0
10
-2.46139223857096E-14
20
7.105427357601E-15
30
0
11
3464.10161513775
21
-1000
31
0
0
LINE
8
layer0
10
3464.10161513775
20
-1000
30
0
11
3464.10161513775
21
1294.96732002876
31
0
0
LINE
8
layer0
10
3464.10161513775
20
1294.96732002876
30
0
11
0
21
2294.96732002876
31
0
0
ENDBLK
0
BLOCK
8
layer0
2
PF_OBJECT1
70
0
10
0
20
0
30
0
0
LINE
8
layer0
10
-25.621778264911
20
2342.77820916122
30
0
11
-25.621778264911
21
47.8108891324557
31
0
0
LINE
8
layer0
10
-25.621778264911
20
47.8108891324557
30
0
11
-1560.62177826491
21
-1281.53810567666
31
0
0
LINE
8
layer0
10
-1560.62177826491
20
-1281.53810567666
30
0
11
-1560.62177826491
21
1013.4292143521
31
0
0
LINE
8
layer0
10
-1560.62177826491
20
1013.4292143521
30
0
11
-25.621778264911
21
2342.77820916122
31
0
0
LINE
8
layer0
10
-2.27373675443232E-13
20
2294.96732002876
30
0
11
-25.621778264911
21
2342.77820916122
31
0
0
LINE
8
layer0
10
-25.621778264911
20
2342.77820916122
30
0
11
-1560.62177826491
21
1013.4292143521
31
0
0
LINE
8
layer0
10
-1560.62177826491
20
1013.4292143521
30
0
11
-1500
21
995.929214352105
31
0
0
LINE
8
layer0
10
-1500
20
995.929214352105
30
0
11
-2.27373675443232E-13
21
2294.96732002876
31
0
0
LINE
8
layer0
10
-1500
20
-1299.03810567666
30
0
11
-1560.62177826491
21
-1281.53810567666
31
0
0
LINE
8
layer0
10
-1560.62177826491
20
-1281.53810567666
30
0
11
-25.621778264911
21
47.8108891324557
31
0
0
LINE
8
layer0
10
-25.621778264911
20
47.8108891324557
30
0
11
-2.27373675443232E-13
21
4.54747350886464E-13
31
0
0
LINE
8
layer0
10
-2.27373675443232E-13
20
4.54747350886464E-13
30
0
11
-1500
21
-1299.03810567666
31
0
0
LINE
8
layer0
10
-1560.62177826491
20
1013.4292143521
30
0
11
-1560.62177826491
21
-1281.53810567666
31
0
0
LINE
8
layer0
10
-1560.62177826491
20
-1281.53810567666
30
0
11
-1500
21
-1299.03810567666
31
0
0
LINE
8
layer0
10
-1500
20
-1299.03810567666
30
0
11
-1500
21
995.929214352105
31
0
0
LINE
8
layer0
10
-1500
20
995.929214352105
30
0
11
-1560.62177826491
21
1013.4292143521
31
0
0
LINE
8
layer0
10
-4.54747350886464E-13
20
2294.96732002876
30
0
11
-4.54747350886464E-13
21
2.27373675443232E-13
31
0
0
LINE
8
layer0
10
-4.54747350886464E-13
20
2.27373675443232E-13
30
0
11
-25.6217782649112
21
47.8108891324555
31
0
0
LINE
8
layer0
10
-25.6217782649112
20
47.8108891324555
30
0
11
-25.6217782649112
21
2342.77820916122
31
0
0
LINE
8
layer0
10
-25.6217782649112
20
2342.77820916122
30
0
11
-4.54747350886464E-13
21
2294.96732002876
31
0
0
LINE
8
layer0
10
-1500
20
995.929214352105
30
0
11
-1500
21
-1299.03810567666
31
0
0
LINE
8
layer0
10
-1500
20
-1299.03810567666
30
0
11
-2.27373675443232E-13
21
4.54747350886464E-13
31
0
0
LINE
8
layer0
10
-2.27373675443232E-13
20
4.54747350886464E-13
30
0
11
-2.27373675443232E-13
21
2294.96732002876
31
0
0
LINE
8
layer0
10
-2.27373675443232E-13
20
2294.96732002876
30
0
11
-1500
21
995.929214352105
31
0
0
ENDBLK
0
BLOCK
8
layer0
2
PF_OBJECT2
70
0
10
0
20
0
30
0
0
LINE
8
layer0
10
0
20
0
30
0
11
-1500
21
-1299.03810567666
31
0
0
LINE
8
layer0
10
-1500
20
-1299.03810567666
30
0
11
1964.10161513776
21
-2299.03810567666
31
0
0
LINE
8
layer0
10
1964.10161513776
20
-2299.03810567666
30
0
11
3464.10161513775
21
-1000
31
0
0
LINE
8
layer0
10
3464.10161513775
20
-1000
30
0
11
0
21
0
31
0
0
LINE
8
layer0
10
0
20
0
30
0
11
3464.10161513775
21
-1000
31
0
0
LINE
8
layer0
10
3464.10161513775
20
-1000
30
0
11
-1500
21
-1299.03810567666
31
0
0
LINE
8
layer0
10
-1500
20
-1299.03810567666
30
0
11
0
21
0
31
0
0
LINE
8
layer0
10
3464.10161513775
20
-1000
30
0
11
1964.10161513776
21
-2299.03810567666
31
0
0
LINE
8
layer0
10
1964.10161513776
20
-2299.03810567666
30
0
11
-1500
21
-1299.03810567666
31
0
0
LINE
8
layer0
10
-1500
20
-1299.03810567666
30
0
11
3464.10161513775
21
-1000
31
0
0
ENDBLK
0
BLOCK
8
layer0
2
PF_OBJECT3
70
0
10
0
20
0
30
0
0
LINE
8
layer0
10
1041.67534827
20
-201.978875334514
30
0
11
549.772918920436
21
-59.978875334514
31
0
0
LINE
8
layer0
10
549.772918920436
20
-59.978875334514
30
0
11
549.772918920436
21
-46.122468873963
31
0
0
LINE
8
layer0
10
549.772918920436
20
-46.122468873963
30
0
11
1041.67534827
21
-188.122468873963
31
0
0
LINE
8
layer0
10
1041.67534827
20
-188.122468873963
30
0
11
1041.67534827
21
-201.978875334514
31
0
0
LINE
8
layer0
10
294.272918920436
20
-281.248366001438
30
0
11
786.175348269997
21
-423.248366001438
31
0
0
LINE
8
layer0
10
786.175348269997
20
-423.248366001438
30
0
11
786.175348269997
21
-409.391959540887
31
0
0
LINE
8
layer0
10
786.175348269997
20
-409.391959540887
30
0
11
294.272918920436
21
-267.391959540887
31
0
0
LINE
8
layer0
10
294.272918920436
20
-267.391959540887
30
0
11
294.272918920436
21
-281.248366001438
31
0
0
LINE
8
layer0
10
549.772918920436
20
-59.978875334514
30
0
11
294.272918920436
21
-281.248366001438
31
0
0
LINE
8
layer0
10
294.272918920436
20
-281.248366001438
30
0
11
294.272918920436
21
-267.391959540887
31
0
0
LINE
8
layer0
10
294.272918920436
20
-267.391959540887
30
0
11
549.772918920436
21
-46.122468873963
31
0
0
LINE
8
layer0
10
549.772918920436
20
-46.122468873963
30
0
11
549.772918920436
21
-59.978875334514
31
0
0
LINE
8
layer0
10
786.175348269997
20
-423.248366001438
30
0
11
1041.67534827
21
-201.978875334514
31
0
0
LINE
8
layer0
10
1041.67534827
20
-201.978875334514
30
0
11
1041.67534827
21
-188.122468873963
31
0
0
LINE
8
layer0
10
1041.67534827
20
-188.122468873963
30
0
11
786.175348269997
21
-409.391959540887
31
0
0
LINE
8
layer0
10
786.175348269997
20
-409.391959540887
30
0
11
786.175348269997
21
-423.248366001438
31
0
0
LINE
8
layer0
10
1041.67534827
20
-188.122468873963
30
0
11
549.772918920436
21
-46.122468873963
31
0
0
LINE
8
layer0
10
549.772918920436
20
-46.122468873963
30
0
11
294.272918920436
21
-267.391959540887
31
0
0
LINE
8
layer0
10
294.272918920436
20
-267.391959540887
30
0
11
786.175348269997
21
-409.391959540887
31
0
0
LINE
8
layer0
10
786.175348269997
20
-409.391959540887
30
0
11
1041.67534827
21
-188.122468873963
31
0
0
LINE
8
layer0
10
549.772918920436
20
-59.978875334514
30
0
11
1041.67534827
21
-201.978875334514
31
0
0
LINE
8
layer0
10
1041.67534827
20
-201.978875334514
30
0
11
786.175348269997
21
-423.248366001438
31
0
0
LINE
8
layer0
10
786.175348269997
20
-423.248366001438
30
0
11
294.272918920436
21
-281.248366001438
31
0
0
LINE
8
layer0
10
294.272918920436
20
-281.248366001438
30
0
11
549.772918920436
21
-59.978875334514
31
0
0
ENDBLK
0
BLOCK
8
layer0
2
PF_OBJECT4
70
0
10
0
20
0
30
0
0
LINE
8
layer0
10
1043.67534827
20
-200.246824526945
30
0
11
551.772918920436
21
-58.2468245269451
31
0
0
LINE
8
layer0
10
551.772918920436
20
-58.2468245269451
30
0
11
551.772918920436
21
439.717782649107
31
0
0
LINE
8
layer0
10
551.772918920436
20
439.717782649107
30
0
11
1043.67534827
21
297.717782649107
31
0
0
LINE
8
layer0
10
1043.67534827
20
297.717782649107
30
0
11
1043.67534827
21
-200.246824526945
31
0
0
LINE
8
layer0
10
549.772918920436
20
-59.978875334514
30
0
11
1041.67534827
21
-201.978875334514
31
0
0
LINE
8
layer0
10
1041.67534827
20
-201.978875334514
30
0
11
1041.67534827
21
295.985731841538
31
0
0
LINE
8
layer0
10
1041.67534827
20
295.985731841538
30
0
11
549.772918920436
21
437.985731841538
31
0
0
LINE
8
layer0
10
549.772918920436
20
437.985731841538
30
0
11
549.772918920436
21
-59.978875334514
31
0
0
LINE
8
layer0
10
551.772918920436
20
-58.2468245269451
30
0
11
549.772918920436
21
-59.978875334514
31
0
0
LINE
8
layer0
10
549.772918920436
20
-59.978875334514
30
0
11
549.772918920436
21
437.985731841538
31
0
0
LINE
8
layer0
10
549.772918920436
20
437.985731841538
30
0
11
551.772918920436
21
439.717782649107
31
0
0
LINE
8
layer0
10
551.772918920436
20
439.717782649107
30
0
11
551.772918920436
21
-58.2468245269451
31
0
0
LINE
8
layer0
10
1041.67534827
20
-201.978875334514
30
0
11
1043.67534827
21
-200.246824526945
31
0
0
LINE
8
layer0
10
1043.67534827
20
-200.246824526945
30
0
11
1043.67534827
21
297.717782649107
31
0
0
LINE
8
layer0
10
1043.67534827
20
297.717782649107
30
0
11
1041.67534827
21
295.985731841538
31
0
0
LINE
8
layer0
10
1041.67534827
20
295.985731841538
30
0
11
1041.67534827
21
-201.978875334514
31
0
0
LINE
8
layer0
10
1043.67534827
20
297.717782649107
30
0
11
551.772918920436
21
439.717782649107
31
0
0
LINE
8
layer0
10
551.772918920436
20
439.717782649107
30
0
11
549.772918920436
21
437.985731841538
31
0
0
LINE
8
layer0
10
549.772918920436
20
437.985731841538
30
0
11
1041.67534827
21
295.985731841538
31
0
0
LINE
8
layer0
10
1041.67534827
20
295.985731841538
30
0
11
1043.67534827
21
297.717782649107
31
0
0
LINE
8
layer0
10
551.772918920436
20
-58.2468245269451
30
0
11
1043.67534827
21
-200.246824526945
31
0
0
LINE
8
layer0
10
1043.67534827
20
-200.246824526945
30
0
11
1041.67534827
21
-201.978875334514
31
0
0
LINE
8
layer0
10
1041.67534827
20
-201.978875334514
30
0
11
549.772918920436
21
-59.978875334514
31
0
0
LINE
8
layer0
10
549.772918920436
20
-59.978875334514
30
0
11
551.772918920436
21
-58.2468245269451
31
0
0
ENDBLK
0
BLOCK
8
layer0
2
PF_OBJECT5
70
0
10
0
20
0
30
0
0
LINE
8
layer0
10
1016.67534827
20
274.335096746927
30
0
11
524.772918920436
21
416.335096746927
31
0
0
LINE
8
layer0
10
524.772918920436
20
416.335096746927
30
0
11
524.772918920436
21
402.478690286376
31
0
0
LINE
8
layer0
10
524.772918920436
20
402.478690286376
30
0
11
1016.67534827
21
260.478690286376
31
0
0
LINE
8
layer0
10
1016.67534827
20
260.478690286376
30
0
11
1016.67534827
21
274.335096746927
31
0
0
LINE
8
layer0
10
549.772918920436
20
437.985731841538
30
0
11
1041.67534827
21
295.985731841538
31
0
0
LINE
8
layer0
10
1041.67534827
20
295.985731841538
30
0
11
1041.67534827
21
282.129325380987
31
0
0
LINE
8
layer0
10
1041.67534827
20
282.129325380987
30
0
11
549.772918920436
21
424.129325380987
31
0
0
LINE
8
layer0
10
549.772918920436
20
424.129325380987
30
0
11
549.772918920436
21
437.985731841538
31
0
0
LINE
8
layer0
10
524.772918920436
20
416.335096746927
30
0
11
549.772918920436
21
437.985731841538
31
0
0
LINE
8
layer0
10
549.772918920436
20
437.985731841538
30
0
11
549.772918920436
21
424.129325380987
31
0
0
LINE
8
layer0
10
549.772918920436
20
424.129325380987
30
0
11
524.772918920436
21
402.478690286376
31
0
0
LINE
8
layer0
10
524.772918920436
20
402.478690286376
30
0
11
524.772918920436
21
416.335096746927
31
0
0
LINE
8
layer0
10
1041.67534827
20
295.985731841538
30
0
11
1016.67534827
21
274.335096746927
31
0
0
LINE
8
layer0
10
1016.67534827
20
274.335096746927
30
0
11
1016.67534827
21
260.478690286376
31
0
0
LINE
8
layer0
10
1016.67534827
20
260.478690286376
30
0
11
1041.67534827
21
282.129325380987
31
0
0
LINE
8
layer0
10
1041.67534827
20
282.129325380987
30
0
11
1041.67534827
21
295.985731841538
31
0
0
LINE
8
layer0
10
1016.67534827
20
260.478690286376
30
0
11
524.772918920436
21
402.478690286376
31
0
0
LINE
8
layer0
10
524.772918920436
20
402.478690286376
30
0
11
549.772918920436
21
424.129325380987
31
0
0
LINE
8
layer0
10
549.772918920436
20
424.129325380987
30
0
11
1041.67534827
21
282.129325380987
31
0
0
LINE
8
layer0
10
1041.67534827
20
282.129325380987
30
0
11
1016.67534827
21
260.478690286376
31
0
0
LINE
8
layer0
10
524.772918920436
20
416.335096746927
30
0
11
1016.67534827
21
274.335096746927
31
0
0
LINE
8
layer0
10
1016.67534827
20
274.335096746927
30
0
11
1041.67534827
21
295.985731841538
31
0
0
LINE
8
layer0
10
1041.67534827
20
295.985731841538
30
0
11
549.772918920436
21
437.985731841538
31
0
0
LINE
8
layer0
10
549.772918920436
20
437.985731841538
30
0
11
524.772918920436
21
416.335096746927
31
0
0
ENDBLK
0
BLOCK
8
layer0
2
PF_OBJECT6
70
0
10
0
20
0
30
0
0
LINE
8
layer0
10
319.272918920436
20
224.510469808674
30
0
11
811.175348269997
21
82.5104698086741
31
0
0
LINE
8
layer0
10
811.175348269997
20
82.5104698086741
30
0
11
786.175348269997
21
60.8598347140631
31
0
0
LINE
8
layer0
10
786.175348269997
20
60.8598347140631
30
0
11
294.272918920436
21
202.859834714063
31
0
0
LINE
8
layer0
10
294.272918920436
20
202.859834714063
30
0
11
319.272918920436
21
224.510469808674
31
0
0
LINE
8
layer0
10
811.175348269997
20
96.3668762692251
30
0
11
319.272918920436
21
238.366876269225
31
0
0
LINE
8
layer0
10
319.272918920436
20
238.366876269225
30
0
11
294.272918920436
21
216.716241174614
31
0
0
LINE
8
layer0
10
294.272918920436
20
216.716241174614
30
0
11
786.175348269997
21
74.7162411746141
31
0
0
LINE
8
layer0
10
786.175348269997
20
74.7162411746141
30
0
11
811.175348269997
21
96.3668762692251
31
0
0
LINE
8
layer0
10
786.175348269997
20
60.8598347140631
30
0
11
811.175348269997
21
82.5104698086741
31
0
0
LINE
8
layer0
10
811.175348269997
20
82.5104698086741
30
0
11
811.175348269997
21
96.3668762692251
31
0
0
LINE
8
layer0
10
811.175348269997
20
96.3668762692251
30
0
11
786.175348269997
21
74.7162411746141
31
0
0
LINE
8
layer0
10
786.175348269997
20
74.7162411746141
30
0
11
786.175348269997
21
60.8598347140631
31
0
0
LINE
8
layer0
10
319.272918920436
20
224.510469808674
30
0
11
294.272918920436
21
202.859834714063
31
0
0
LINE
8
layer0
10
294.272918920436
20
202.859834714063
30
0
11
294.272918920436
21
216.716241174614
31
0
0
LINE
8
layer0
10
294.272918920436
20
216.716241174614
30
0
11
319.272918920436
21
238.366876269225
31
0
0
LINE
8
layer0
10
319.272918920436
20
238.366876269225
30
0
11
319.272918920436
21
224.510469808674
31
0
0
LINE
8
layer0
10
294.272918920436
20
202.859834714063
30
0
11
786.175348269997
21
60.8598347140631
31
0
0
LINE
8
layer0
10
786.175348269997
20
60.8598347140631
30
0
11
786.175348269997
21
74.7162411746141
31
0
0
LINE
8
layer0
10
786.175348269997
20
74.7162411746141
30
0
11
294.272918920436
21
216.716241174614
31
0
0
LINE
8
layer0
10
294.272918920436
20
216.716241174614
30
0
11
294.272918920436
21
202.859834714063
31
0
0
LINE
8
layer0
10
811.175348269997
20
82.5104698086741
30
0
11
319.272918920436
21
224.510469808674
31
0
0
LINE
8
layer0
10
319.272918920436
20
224.510469808674
30
0
11
319.272918920436
21
238.366876269225
31
0
0
LINE
8
layer0
10
319.272918920436
20
238.366876269225
30
0
11
811.175348269997
21
96.3668762692251
31
0
0
LINE
8
layer0
10
811.175348269997
20
96.3668762692251
30
0
11
811.175348269997
21
82.5104698086741
31
0
0
LINE
8
layer0
10
1068.67534827
20
-178.596189432334
30
0
11
1082.53175473055
21
-182.596189432334
31
0
0
LINE
8
layer0
10
1082.53175473055
20
-182.596189432334
30
0
11
799.531754730549
21
-427.68137870333
31
0
0
LINE
8
layer0
10
799.531754730549
20
-427.68137870333
30
0
11
785.675348269997
21
-423.68137870333
31
0
0
LINE
8
layer0
10
785.675348269997
20
-423.68137870333
30
0
11
1068.67534827
21
-178.596189432334
31
0
0
LINE
8
layer0
10
1082.53175473055
20
315.368417743718
30
0
11
1068.67534827
21
319.368417743718
31
0
0
LINE
8
layer0
10
1068.67534827
20
319.368417743718
30
0
11
785.675348269997
21
74.2832284727219
31
0
0
LINE
8
layer0
10
785.675348269997
20
74.2832284727219
30
0
11
799.531754730549
21
70.2832284727219
31
0
0
LINE
8
layer0
10
799.531754730549
20
70.2832284727219
30
0
11
1082.53175473055
21
315.368417743718
31
0
0
LINE
8
layer0
10
799.531754730549
20
-427.68137870333
30
0
11
1082.53175473055
21
-182.596189432334
31
0
0
LINE
8
layer0
10
1082.53175473055
20
-182.596189432334
30
0
11
1082.53175473055
21
315.368417743718
31
0
0
LINE
8
layer0
10
1082.53175473055
20
315.368417743718
30
0
11
799.531754730549
21
70.2832284727219
31
0
0
LINE
8
layer0
10
799.531754730549
20
70.2832284727219
30
0
11
799.531754730549
21
-427.68137870333
31
0
0
LINE
8
layer0
10
1068.67534827
20
-178.596189432334
30
0
11
785.675348269997
21
-423.68137870333
31
0
0
LINE
8
layer0
10
785.675348269997
20
-423.68137870333
30
0
11
785.675348269997
21
74.2832284727219
31
0
0
LINE
8
layer0
10
785.675348269997
20
74.2832284727219
30
0
11
1068.67534827
21
319.368417743718
31
0
0
LINE
8
layer0
10
1068.67534827
20
319.368417743718
30
0
11
1068.67534827
21
-178.596189432334
31
0
0
LINE
8
layer0
10
785.675348269997
20
-423.68137870333
30
0
11
799.531754730549
21
-427.68137870333
31
0
0
LINE
8
layer0
10
799.531754730549
20
-427.68137870333
30
0
11
799.531754730549
21
70.2832284727219
31
0
0
LINE
8
layer0
10
799.531754730549
20
70.2832284727219
30
0
11
785.675348269997
21
74.2832284727219
31
0
0
LINE
8
layer0
10
785.675348269997
20
74.2832284727219
30
0
11
785.675348269997
21
-423.68137870333
31
0
0
LINE
8
layer0
10
1082.53175473055
20
-182.596189432334
30
0
11
1068.67534827
21
-178.596189432334
31
0
0
LINE
8
layer0
10
1068.67534827
20
-178.596189432334
30
0
11
1068.67534827
21
319.368417743718
31
0
0
LINE
8
layer0
10
1068.67534827
20
319.368417743718
30
0
11
1082.53175473055
21
315.368417743718
31
0
0
LINE
8
layer0
10
1082.53175473055
20
315.368417743718
30
0
11
1082.53175473055
21
-182.596189432334
31
0
0
LINE
8
layer0
10
562.916512459885
20
-32.5961894323342
30
0
11
576.772918920436
21
-36.5961894323342
31
0
0
LINE
8
layer0
10
576.772918920436
20
-36.5961894323342
30
0
11
293.772918920436
21
-281.68137870333
31
0
0
LINE
8
layer0
10
293.772918920436
20
-281.68137870333
30
0
11
279.916512459885
21
-277.68137870333
31
0
0
LINE
8
layer0
10
279.916512459885
20
-277.68137870333
30
0
11
562.916512459885
21
-32.5961894323342
31
0
0
LINE
8
layer0
10
576.772918920436
20
461.368417743718
30
0
11
562.916512459885
21
465.368417743718
31
0
0
LINE
8
layer0
10
562.916512459885
20
465.368417743718
30
0
11
279.916512459885
21
220.283228472722
31
0
0
LINE
8
layer0
10
279.916512459885
20
220.283228472722
30
0
11
293.772918920436
21
216.283228472722
31
0
0
LINE
8
layer0
10
293.772918920436
20
216.283228472722
30
0
11
576.772918920436
21
461.368417743718
31
0
0
LINE
8
layer0
10
293.772918920436
20
-281.68137870333
30
0
11
576.772918920436
21
-36.5961894323342
31
0
0
LINE
8
layer0
10
576.772918920436
20
-36.5961894323342
30
0
11
576.772918920436
21
461.368417743718
31
0
0
LINE
8
layer0
10
576.772918920436
20
461.368417743718
30
0
11
293.772918920436
21
216.283228472722
31
0
0
LINE
8
layer0
10
293.772918920436
20
216.283228472722
30
0
11
293.772918920436
21
-281.68137870333
31
0
0
LINE
8
layer0
10
562.916512459885
20
-32.5961894323342
30
0
11
279.916512459885
21
-277.68137870333
31
0
0
LINE
8
layer0
10
279.916512459885
20
-277.68137870333
30
0
11
279.916512459885
21
220.283228472722
31
0
0
LINE
8
layer0
10
279.916512459885
20
220.283228472722
30
0
11
562.916512459885
21
465.368417743718
31
0
0
LINE
8
layer0
10
562.916512459885
20
465.368417743718
30
0
11
562.916512459885
21
-32.5961894323342
31
0
0
LINE
8
layer0
10
279.916512459885
20
-277.68137870333
30
0
11
293.772918920436
21
-281.68137870333
31
0
0
LINE
8
layer0
10
293.772918920436
20
-281.68137870333
30
0
11
293.772918920436
21
216.283228472722
31
0
0
LINE
8
layer0
10
293.772918920436
20
216.283228472722
30
0
11
279.916512459885
21
220.283228472722
31
0
0
LINE
8
layer0
10
279.916512459885
20
220.283228472722
30
0
11
279.916512459885
21
-277.68137870333
31
0
0
LINE
8
layer0
10
576.772918920436
20
-36.5961894323342
30
0
11
562.916512459885
21
-32.5961894323342
31
0
0
LINE
8
layer0
10
562.916512459885
20
-32.5961894323342
30
0
11
562.916512459885
21
465.368417743718
31
0
0
LINE
8
layer0
10
562.916512459885
20
465.368417743718
30
0
11
576.772918920436
21
461.368417743718
31
0
0
LINE
8
layer0
10
576.772918920436
20
461.368417743718
30
0
11
576.772918920436
21
-36.5961894323342
31
0
0
ENDBLK
0
BLOCK
8
layer0
2
PF_OBJECT7
70
0
10
0
20
0
30
0
0
LINE
8
layer0
10
625.646999809885
20
57.455205369853
30
0
11
623.879232856918
21
57.1925391210568
31
0
0
LINE
8
layer0
10
623.879232856918
20
57.1925391210568
30
0
11
752.050992617015
21
20.1925391210568
31
0
0
LINE
8
layer0
10
752.050992617015
20
20.1925391210568
30
0
11
753.818759569982
21
20.455205369853
31
0
0
LINE
8
layer0
10
753.818759569982
20
20.455205369853
30
0
11
625.646999809885
21
57.455205369853
31
0
0
LINE
8
layer0
10
626.379232856918
20
55.0274756115957
30
0
11
625.646999809885
21
57.455205369853
31
0
0
LINE
8
layer0
10
625.646999809885
20
57.455205369853
30
0
11
753.818759569982
21
20.455205369853
31
0
0
LINE
8
layer0
10
753.818759569982
20
20.455205369853
30
0
11
754.550992617015
21
18.0274756115957
31
0
0
LINE
8
layer0
10
754.550992617015
20
18.0274756115957
30
0
11
626.379232856918
21
55.0274756115957
31
0
0
LINE
8
layer0
10
625.646999809885
20
51.3314810128951
30
0
11
626.379232856918
21
55.0274756115957
31
0
0
LINE
8
layer0
10
626.379232856918
20
55.0274756115957
30
0
11
754.550992617015
21
18.0274756115957
31
0
0
LINE
8
layer0
10
754.550992617015
20
18.0274756115957
30
0
11
753.818759569982
21
14.3314810128951
31
0
0
LINE
8
layer0
10
753.818759569982
20
14.3314810128951
30
0
11
625.646999809885
21
51.3314810128951
31
0
0
LINE
8
layer0
10
623.879232856918
20
48.5322850832124
30
0
11
625.646999809885
21
51.3314810128951
31
0
0
LINE
8
layer0
10
625.646999809885
20
51.3314810128951
30
0
11
753.818759569982
21
14.3314810128951
31
0
0
LINE
8
layer0
10
753.818759569982
20
14.3314810128951
30
0
11
752.050992617015
21
11.5322850832124
31
0
0
LINE
8
layer0
10
752.050992617015
20
11.5322850832124
30
0
11
623.879232856918
21
48.5322850832124
31
0
0
LINE
8
layer0
10
622.111465903952
20
48.2696188344161
30
0
11
623.879232856918
21
48.5322850832124
31
0
0
LINE
8
layer0
10
623.879232856918
20
48.5322850832124
30
0
11
752.050992617015
21
11.5322850832124
31
0
0
LINE
8
layer0
10
752.050992617015
20
11.5322850832124
30
0
11
750.283225664049
21
11.2696188344161
31
0
0
LINE
8
layer0
10
750.283225664049
20
11.2696188344161
30
0
11
622.111465903952
21
48.2696188344161
31
0
0
LINE
8
layer0
10
621.379232856918
20
50.6973485926735
30
0
11
622.111465903952
21
48.2696188344161
31
0
0
LINE
8
layer0
10
622.111465903952
20
48.2696188344161
30
0
11
750.283225664049
21
11.2696188344161
31
0
0
LINE
8
layer0
10
750.283225664049
20
11.2696188344161
30
0
11
749.550992617015
21
13.6973485926735
31
0
0
LINE
8
layer0
10
749.550992617015
20
13.6973485926735
30
0
11
621.379232856918
21
50.6973485926735
31
0
0
LINE
8
layer0
10
622.111465903952
20
54.393343191374
30
0
11
621.379232856918
21
50.6973485926735
31
0
0
LINE
8
layer0
10
621.379232856918
20
50.6973485926735
30
0
11
749.550992617015
21
13.6973485926735
31
0
0
LINE
8
layer0
10
749.550992617015
20
13.6973485926735
30
0
11
750.283225664049
21
17.393343191374
31
0
0
LINE
8
layer0
10
750.283225664049
20
17.393343191374
30
0
11
622.111465903952
21
54.393343191374
31
0
0
LINE
8
layer0
10
623.879232856918
20
57.1925391210568
30
0
11
622.111465903952
21
54.393343191374
31
0
0
LINE
8
layer0
10
622.111465903952
20
54.393343191374
30
0
11
750.283225664049
21
17.393343191374
31
0
0
LINE
8
layer0
10
750.283225664049
20
17.393343191374
30
0
11
752.050992617015
21
20.1925391210568
31
0
0
LINE
8
layer0
10
752.050992617015
20
20.1925391210568
30
0
11
623.879232856918
21
57.1925391210568
31
0
0
LINE
8
layer0
10
752.050992617015
20
20.1925391210568
30
0
11
750.283225664049
21
17.393343191374
31
0
0
LINE
8
layer0
10
750.283225664049
20
17.393343191374
30
0
11
749.550992617015
21
13.6973485926735
31
0
0
LINE
8
layer0
10
749.550992617015
20
13.6973485926735
30
0
11
750.283225664049
21
11.2696188344161
31
0
0
LINE
8
layer0
10
750.283225664049
20
11.2696188344161
30
0
11
752.050992617015
21
11.5322850832124
31
0
0
LINE
8
layer0
10
752.050992617015
20
11.5322850832124
30
0
11
753.818759569982
21
14.3314810128951
31
0
0
LINE
8
layer0
10
753.818759569982
20
14.3314810128951
30
0
11
754.550992617015
21
18.0274756115957
31
0
0
LINE
8
layer0
10
754.550992617015
20
18.0274756115957
30
0
11
753.818759569982
21
20.455205369853
31
0
0
LINE
8
layer0
10
753.818759569982
20
20.455205369853
30
0
11
752.050992617015
21
20.1925391210568
31
0
0
LINE
8
layer0
10
622.111465903952
20
54.393343191374
30
0
11
623.879232856918
21
57.1925391210568
31
0
0
LINE
8
layer0
10
623.879232856918
20
57.1925391210568
30
0
11
625.646999809885
21
57.455205369853
31
0
0
LINE
8
layer0
10
625.646999809885
20
57.455205369853
30
0
11
626.379232856918
21
55.0274756115957
31
0
0
LINE
8
layer0
10
626.379232856918
20
55.0274756115957
30
0
11
625.646999809885
21
51.3314810128951
31
0
0
LINE
8
layer0
10
625.646999809885
20
51.3314810128951
30
0
11
623.879232856918
21
48.5322850832124
31
0
0
LINE
8
layer0
10
623.879232856918
20
48.5322850832124
30
0
11
622.111465903952
21
48.2696188344161
31
0
0
LINE
8
layer0
10
622.111465903952
20
48.2696188344161
30
0
11
621.379232856918
21
50.6973485926735
31
0
0
LINE
8
layer0
10
621.379232856918
20
50.6973485926735
30
0
11
622.111465903952
21
54.393343191374
31
0
0
ENDBLK
0
BLOCK
8
layer0
2
PF_OBJECT8
70
0
10
0
20
0
30
0
0
LINE
8
layer0
10
651.199740932607
20
52.1925391210568
30
0
11
633.879232856918
21
57.1925391210568
31
0
0
LINE
8
layer0
10
633.879232856918
20
57.1925391210568
30
0
11
633.879232856918
21
65.8527931589012
31
0
0
LINE
8
layer0
10
633.879232856918
20
65.8527931589012
30
0
11
651.199740932607
21
60.8527931589012
31
0
0
LINE
8
layer0
10
651.199740932607
20
60.8527931589012
30
0
11
651.199740932607
21
52.1925391210568
31
0
0
LINE
8
layer0
10
623.879232856918
20
48.5322850832124
30
0
11
641.199740932607
21
43.5322850832124
31
0
0
LINE
8
layer0
10
641.199740932607
20
43.5322850832124
30
0
11
641.199740932607
21
52.1925391210568
31
0
0
LINE
8
layer0
10
641.199740932607
20
52.1925391210568
30
0
11
623.879232856918
21
57.1925391210568
31
0
0
LINE
8
layer0
10
623.879232856918
20
57.1925391210568
30
0
11
623.879232856918
21
48.5322850832124
31
0
0
LINE
8
layer0
10
633.879232856918
20
57.1925391210568
30
0
11
623.879232856918
21
48.5322850832124
31
0
0
LINE
8
layer0
10
623.879232856918
20
48.5322850832124
30
0
11
623.879232856918
21
57.1925391210568
31
0
0
LINE
8
layer0
10
623.879232856918
20
57.1925391210568
30
0
11
633.879232856918
21
65.8527931589012
31
0
0
LINE
8
layer0
10
633.879232856918
20
65.8527931589012
30
0
11
633.879232856918
21
57.1925391210568
31
0
0
LINE
8
layer0
10
641.199740932607
20
43.5322850832124
30
0
11
651.199740932607
21
52.1925391210568
31
0
0
LINE
8
layer0
10
651.199740932607
20
52.1925391210568
30
0
11
651.199740932607
21
60.8527931589012
31
0
0
LINE
8
layer0
10
651.199740932607
20
60.8527931589012
30
0
11
641.199740932607
21
52.1925391210568
31
0
0
LINE
8
layer0
10
641.199740932607
20
52.1925391210568
30
0
11
641.199740932607
21
43.5322850832124
31
0
0
LINE
8
layer0
10
651.199740932607
20
60.8527931589012
30
0
11
633.879232856918
21
65.8527931589012
31
0
0
LINE
8
layer0
10
633.879232856918
20
65.8527931589012
30
0
11
623.879232856918
21
57.1925391210568
31
0
0
LINE
8
layer0
10
623.879232856918
20
57.1925391210568
30
0
11
641.199740932607
21
52.1925391210568
31
0
0
LINE
8
layer0
10
641.199740932607
20
52.1925391210568
30
0
11
651.199740932607
21
60.8527931589012
31
0
0
LINE
8
layer0
10
633.879232856918
20
57.1925391210568
30
0
11
651.199740932607
21
52.1925391210568
31
0
0
LINE
8
layer0
10
651.199740932607
20
52.1925391210568
30
0
11
641.199740932607
21
43.5322850832124
31
0
0
LINE
8
layer0
10
641.199740932607
20
43.5322850832124
30
0
11
623.879232856918
21
48.5322850832124
31
0
0
LINE
8
layer0
10
623.879232856918
20
48.5322850832124
30
0
11
633.879232856918
21
57.1925391210568
31
0
0
ENDBLK
0
BLOCK
8
layer0
2
PF_OBJECT9
70
0
10
0
20
0
30
0
0
LINE
8
layer0
10
762.050992617015
20
20.1925391210568
30
0
11
744.730484541327
21
25.1925391210568
31
0
0
LINE
8
layer0
10
744.730484541327
20
25.1925391210568
30
0
11
744.730484541327
21
33.8527931589012
31
0
0
LINE
8
layer0
10
744.730484541327
20
33.8527931589012
30
0
11
762.050992617015
21
28.8527931589012
31
0
0
LINE
8
layer0
10
762.050992617015
20
28.8527931589012
30
0
11
762.050992617015
21
20.1925391210568
31
0
0
LINE
8
layer0
10
734.730484541327
20
16.5322850832124
30
0
11
752.050992617015
21
11.5322850832124
31
0
0
LINE
8
layer0
10
752.050992617015
20
11.5322850832124
30
0
11
752.050992617015
21
20.1925391210568
31
0
0
LINE
8
layer0
10
752.050992617015
20
20.1925391210568
30
0
11
734.730484541327
21
25.1925391210568
31
0
0
LINE
8
layer0
10
734.730484541327
20
25.1925391210568
30
0
11
734.730484541327
21
16.5322850832124
31
0
0
LINE
8
layer0
10
744.730484541327
20
25.1925391210568
30
0
11
734.730484541327
21
16.5322850832124
31
0
0
LINE
8
layer0
10
734.730484541327
20
16.5322850832124
30
0
11
734.730484541327
21
25.1925391210568
31
0
0
LINE
8
layer0
10
734.730484541327
20
25.1925391210568
30
0
11
744.730484541327
21
33.8527931589012
31
0
0
LINE
8
layer0
10
744.730484541327
20
33.8527931589012
30
0
11
744.730484541327
21
25.1925391210568
31
0
0
LINE
8
layer0
10
752.050992617015
20
11.5322850832124
30
0
11
762.050992617015
21
20.1925391210568
31
0
0
LINE
8
layer0
10
762.050992617015
20
20.1925391210568
30
0
11
762.050992617015
21
28.8527931589012
31
0
0
LINE
8
layer0
10
762.050992617015
20
28.8527931589012
30
0
11
752.050992617015
21
20.1925391210568
31
0
0
LINE
8
layer0
10
752.050992617015
20
20.1925391210568
30
0
11
752.050992617015
21
11.5322850832124
31
0
0
LINE
8
layer0
10
762.050992617015
20
28.8527931589012
30
0
11
744.730484541327
21
33.8527931589012
31
0
0
LINE
8
layer0
10
744.730484541327
20
33.8527931589012
30
0
11
734.730484541327
21
25.1925391210568
31
0
0
LINE
8
layer0
10
734.730484541327
20
25.1925391210568
30
0
11
752.050992617015
21
20.1925391210568
31
0
0
LINE
8
layer0
10
752.050992617015
20
20.1925391210568
30
0
11
762.050992617015
21
28.8527931589012
31
0
0
LINE
8
layer0
10
744.730484541327
20
25.1925391210568
30
0
11
762.050992617015
21
20.1925391210568
31
0
0
LINE
8
layer0
10
762.050992617015
20
20.1925391210568
30
0
11
752.050992617015
21
11.5322850832124
31
0
0
LINE
8
layer0
10
752.050992617015
20
11.5322850832124
30
0
11
734.730484541327
21
16.5322850832124
31
0
0
LINE
8
layer0
10
734.730484541327
20
16.5322850832124
30
0
11
744.730484541327
21
25.1925391210568
31
0
0
ENDBLK
0
BLOCK
8
layer0
2
PF_OBJECT10
70
0
10
0
20
0
30
0
0
LINE
8
layer0
10
795.433678519195
20
-425.632340597654
30
0
11
281.014588671239
21
-277.132340597654
31
0
0
LINE
8
layer0
10
281.014588671239
20
-277.132340597654
30
0
11
281.014588671239
21
212.172012540554
31
0
0
LINE
8
layer0
10
281.014588671239
20
212.172012540554
30
0
11
795.433678519195
21
63.6720125405542
31
0
0
LINE
8
layer0
10
795.433678519195
20
63.6720125405542
30
0
11
795.433678519195
21
-425.632340597654
31
0
0
LINE
8
layer0
10
271.014588671239
20
-285.792594635498
30
0
11
785.433678519195
21
-434.292594635498
31
0
0
LINE
8
layer0
10
785.433678519195
20
-434.292594635498
30
0
11
785.433678519195
21
55.0117585027098
31
0
0
LINE
8
layer0
10
785.433678519195
20
55.0117585027098
30
0
11
271.014588671239
21
203.51175850271
31
0
0
LINE
8
layer0
10
271.014588671239
20
203.51175850271
30
0
11
271.014588671239
21
-285.792594635498
31
0
0
LINE
8
layer0
10
281.014588671239
20
-277.132340597654
30
0
11
271.014588671239
21
-285.792594635498
31
0
0
LINE
8
layer0
10
271.014588671239
20
-285.792594635498
30
0
11
271.014588671239
21
203.51175850271
31
0
0
LINE
8
layer0
10
271.014588671239
20
203.51175850271
30
0
11
281.014588671239
21
212.172012540554
31
0
0
LINE
8
layer0
10
281.014588671239
20
212.172012540554
30
0
11
281.014588671239
21
-277.132340597654
31
0
0
LINE
8
layer0
10
785.433678519195
20
-434.292594635498
30
0
11
795.433678519195
21
-425.632340597654
31
0
0
LINE
8
layer0
10
795.433678519195
20
-425.632340597654
30
0
11
795.433678519195
21
63.6720125405542
31
0
0
LINE
8
layer0
10
795.433678519195
20
63.6720125405542
30
0
11
785.433678519195
21
55.0117585027098
31
0
0
LINE
8
layer0
10
785.433678519195
20
55.0117585027098
30
0
11
785.433678519195
21
-434.292594635498
31
0
0
LINE
8
layer0
10
795.433678519195
20
63.6720125405542
30
0
11
281.014588671239
21
212.172012540554
31
0
0
LINE
8
layer0
10
281.014588671239
20
212.172012540554
30
0
11
271.014588671239
21
203.51175850271
31
0
0
LINE
8
layer0
10
271.014588671239
20
203.51175850271
30
0
11
785.433678519195
21
55.0117585027098
31
0
0
LINE
8
layer0
10
785.433678519195
20
55.0117585027098
30
0
11
795.433678519195
21
63.6720125405542
31
0
0
LINE
8
layer0
10
281.014588671239
20
-277.132340597654
30
0
11
795.433678519195
21
-425.632340597654
31
0
0
LINE
8
layer0
10
795.433678519195
20
-425.632340597654
30
0
11
785.433678519195
21
-434.292594635498
31
0
0
LINE
8
layer0
10
785.433678519195
20
-434.292594635498
30
0
11
271.014588671239
21
-285.792594635498
31
0
0
LINE
8
layer0
10
271.014588671239
20
-285.792594635498
30
0
11
281.014588671239
21
-277.132340597654
31
0
0
ENDBLK
0
BLOCK
8
layer0
2
PF_OBJECT11
70
0
10
0
20
0
30
0
0
LINE
8
layer0
10
590.858798800485
20
-228.301270189222
30
0
11
556.217782649107
21
-218.301270189222
31
0
0
LINE
8
layer0
10
556.217782649107
20
-218.301270189222
30
0
11
556.217782649107
21
-88.3974596215561
31
0
0
LINE
8
layer0
10
556.217782649107
20
-88.3974596215561
30
0
11
590.858798800485
21
-98.3974596215561
31
0
0
LINE
8
layer0
10
590.858798800485
20
-98.3974596215561
30
0
11
590.858798800485
21
-228.301270189222
31
0
0
LINE
8
layer0
10
536.217782649107
20
-235.621778264911
30
0
11
570.858798800485
21
-245.621778264911
31
0
0
LINE
8
layer0
10
570.858798800485
20
-245.621778264911
30
0
11
570.858798800485
21
-115.717967697245
31
0
0
LINE
8
layer0
10
570.858798800485
20
-115.717967697245
30
0
11
536.217782649107
21
-105.717967697245
31
0
0
LINE
8
layer0
10
536.217782649107
20
-105.717967697245
30
0
11
536.217782649107
21
-235.621778264911
31
0
0
LINE
8
layer0
10
556.217782649107
20
-218.301270189222
30
0
11
536.217782649107
21
-235.621778264911
31
0
0
LINE
8
layer0
10
536.217782649107
20
-235.621778264911
30
0
11
536.217782649107
21
-105.717967697245
31
0
0
LINE
8
layer0
10
536.217782649107
20
-105.717967697245
30
0
11
556.217782649107
21
-88.3974596215561
31
0
0
LINE
8
layer0
10
556.217782649107
20
-88.3974596215561
30
0
11
556.217782649107
21
-218.301270189222
31
0
0
LINE
8
layer0
10
570.858798800485
20
-245.621778264911
30
0
11
590.858798800485
21
-228.301270189222
31
0
0
LINE
8
layer0
10
590.858798800485
20
-228.301270189222
30
0
11
590.858798800485
21
-98.3974596215561
31
0
0
LINE
8
layer0
10
590.858798800485
20
-98.3974596215561
30
0
11
570.858798800485
21
-115.717967697245
31
0
0
LINE
8
layer0
10
570.858798800485
20
-115.717967697245
30
0
11
570.858798800485
21
-245.621778264911
31
0
0
LINE
8
layer0
10
590.858798800485
20
-98.3974596215561
30
0
11
556.217782649107
21
-88.3974596215561
31
0
0
LINE
8
layer0
10
556.217782649107
20
-88.3974596215561
30
0
11
536.217782649107
21
-105.717967697245
31
0
0
LINE
8
layer0
10
536.217782649107
20
-105.717967697245
30
0
11
570.858798800485
21
-115.717967697245
31
0
0
LINE
8
layer0
10
570.858798800485
20
-115.717967697245
30
0
11
590.858798800485
21
-98.3974596215561
31
0
0
LINE
8
layer0
10
556.217782649107
20
-218.301270189222
30
0
11
590.858798800485
21
-228.301270189222
31
0
0
LINE
8
layer0
10
590.858798800485
20
-228.301270189222
30
0
11
570.858798800485
21
-245.621778264911
31
0
0
LINE
8
layer0
10
570.858798800485
20
-245.621778264911
30
0
11
536.217782649107
21
-235.621778264911
31
0
0
LINE
8
layer0
10
536.217782649107
20
-235.621778264911
30
0
11
556.217782649107
21
-218.301270189222
31
0
0
ENDBLK
0
BLOCK
8
layer0
2
PF_OBJECT12
70
0
10
0
20
0
30
0
0
LINE
8
layer0
10
432.858798800485
20
-365.133283987163
30
0
11
398.217782649107
21
-355.133283987163
31
0
0
LINE
8
layer0
10
398.217782649107
20
-355.133283987163
30
0
11
398.217782649107
21
-225.229473419497
31
0
0
LINE
8
layer0
10
398.217782649107
20
-225.229473419497
30
0
11
432.858798800485
21
-235.229473419497
31
0
0
LINE
8
layer0
10
432.858798800485
20
-235.229473419497
30
0
11
432.858798800485
21
-365.133283987163
31
0
0
LINE
8
layer0
10
378.217782649107
20
-372.453792062852
30
0
11
412.858798800485
21
-382.453792062852
31
0
0
LINE
8
layer0
10
412.858798800485
20
-382.453792062852
30
0
11
412.858798800485
21
-252.549981495186
31
0
0
LINE
8
layer0
10
412.858798800485
20
-252.549981495186
30
0
11
378.217782649107
21
-242.549981495186
31
0
0
LINE
8
layer0
10
378.217782649107
20
-242.549981495186
30
0
11
378.217782649107
21
-372.453792062852
31
0
0
LINE
8
layer0
10
398.217782649107
20
-355.133283987163
30
0
11
378.217782649107
21
-372.453792062852
31
0
0
LINE
8
layer0
10
378.217782649107
20
-372.453792062852
30
0
11
378.217782649107
21
-242.549981495186
31
0
0
LINE
8
layer0
10
378.217782649107
20
-242.549981495186
30
0
11
398.217782649107
21
-225.229473419497
31
0
0
LINE
8
layer0
10
398.217782649107
20
-225.229473419497
30
0
11
398.217782649107
21
-355.133283987163
31
0
0
LINE
8
layer0
10
412.858798800485
20
-382.453792062852
30
0
11
432.858798800485
21
-365.133283987163
31
0
0
LINE
8
layer0
10
432.858798800485
20
-365.133283987163
30
0
11
432.858798800485
21
-235.229473419497
31
0
0
LINE
8
layer0
10
432.858798800485
20
-235.229473419497
30
0
11
412.858798800485
21
-252.549981495186
31
0
0
LINE
8
layer0
10
412.858798800485
20
-252.549981495186
30
0
11
412.858798800485
21
-382.453792062852
31
0
0
LINE
8
layer0
10
432.858798800485
20
-235.229473419497
30
0
11
398.217782649107
21
-225.229473419497
31
0
0
LINE
8
layer0
10
398.217782649107
20
-225.229473419497
30
0
11
378.217782649107
21
-242.549981495186
31
0
0
LINE
8
layer0
10
378.217782649107
20
-242.549981495186
30
0
11
412.858798800485
21
-252.549981495186
31
0
0
LINE
8
layer0
10
412.858798800485
20
-252.549981495186
30
0
11
432.858798800485
21
-235.229473419497
31
0
0
LINE
8
layer0
10
398.217782649107
20
-355.133283987163
30
0
11
432.858798800485
21
-365.133283987163
31
0
0
LINE
8
layer0
10
432.858798800485
20
-365.133283987163
30
0
11
412.858798800485
21
-382.453792062852
31
0
0
LINE
8
layer0
10
412.858798800485
20
-382.453792062852
30
0
11
378.217782649107
21
-372.453792062852
31
0
0
LINE
8
layer0
10
378.217782649107
20
-372.453792062852
30
0
11
398.217782649107
21
-355.133283987163
31
0
0
ENDBLK
0
BLOCK
8
layer0
2
PF_OBJECT13
70
0
10
0
20
0
30
0
0
LINE
8
layer0
10
989.230484541327
20
-343.301270189222
30
0
11
954.589468389949
21
-333.301270189222
31
0
0
LINE
8
layer0
10
954.589468389949
20
-333.301270189222
30
0
11
954.589468389949
21
-203.397459621556
31
0
0
LINE
8
layer0
10
954.589468389949
20
-203.397459621556
30
0
11
989.230484541327
21
-213.397459621556
31
0
0
LINE
8
layer0
10
989.230484541327
20
-213.397459621556
30
0
11
989.230484541327
21
-343.301270189222
31
0
0
LINE
8
layer0
10
934.589468389949
20
-350.621778264911
30
0
11
969.230484541327
21
-360.621778264911
31
0
0
LINE
8
layer0
10
969.230484541327
20
-360.621778264911
30
0
11
969.230484541327
21
-230.717967697245
31
0
0
LINE
8
layer0
10
969.230484541327
20
-230.717967697245
30
0
11
934.589468389949
21
-220.717967697245
31
0
0
LINE
8
layer0
10
934.589468389949
20
-220.717967697245
30
0
11
934.589468389949
21
-350.621778264911
31
0
0
LINE
8
layer0
10
954.589468389949
20
-333.301270189222
30
0
11
934.589468389949
21
-350.621778264911
31
0
0
LINE
8
layer0
10
934.589468389949
20
-350.621778264911
30
0
11
934.589468389949
21
-220.717967697245
31
0
0
LINE
8
layer0
10
934.589468389949
20
-220.717967697245
30
0
11
954.589468389949
21
-203.397459621556
31
0
0
LINE
8
layer0
10
954.589468389949
20
-203.397459621556
30
0
11
954.589468389949
21
-333.301270189222
31
0
0
LINE
8
layer0
10
969.230484541327
20
-360.621778264911
30
0
11
989.230484541327
21
-343.301270189222
31
0
0
LINE
8
layer0
10
989.230484541327
20
-343.301270189222
30
0
11
989.230484541327
21
-213.397459621556
31
0
0
LINE
8
layer0
10
989.230484541327
20
-213.397459621556
30
0
11
969.230484541327
21
-230.717967697245
31
0
0
LINE
8
layer0
10
969.230484541327
20
-230.717967697245
30
0
11
969.230484541327
21
-360.621778264911
31
0
0
LINE
8
layer0
10
989.230484541327
20
-213.397459621556
30
0
11
954.589468389949
21
-203.397459621556
31
0
0
LINE
8
layer0
10
954.589468389949
20
-203.397459621556
30
0
11
934.589468389949
21
-220.717967697245
31
0
0
LINE
8
layer0
10
934.589468389949
20
-220.717967697245
30
0
11
969.230484541327
21
-230.717967697245
31
0
0
LINE
8
layer0
10
969.230484541327
20
-230.717967697245
30
0
11
989.230484541327
21
-213.397459621556
31
0
0
LINE
8
layer0
10
954.589468389949
20
-333.301270189222
30
0
11
989.230484541327
21
-343.301270189222
31
0
0
LINE
8
layer0
10
989.230484541327
20
-343.301270189222
30
0
11
969.230484541327
21
-360.621778264911
31
0
0
LINE
8
layer0
10
969.230484541327
20
-360.621778264911
30
0
11
934.589468389949
21
-350.621778264911
31
0
0
LINE
8
layer0
10
934.589468389949
20
-350.621778264911
30
0
11
954.589468389949
21
-333.301270189222
31
0
0
ENDBLK
0
BLOCK
8
layer0
2
PF_OBJECT14
70
0
10
0
20
0
30
0
0
LINE
8
layer0
10
831.230484541327
20
-480.133283987163
30
0
11
796.589468389949
21
-470.133283987163
31
0
0
LINE
8
layer0
10
796.589468389949
20
-470.133283987163
30
0
11
796.589468389949
21
-340.229473419497
31
0
0
LINE
8
layer0
10
796.589468389949
20
-340.229473419497
30
0
11
831.230484541327
21
-350.229473419497
31
0
0
LINE
8
layer0
10
831.230484541327
20
-350.229473419497
30
0
11
831.230484541327
21
-480.133283987163
31
0
0
LINE
8
layer0
10
776.589468389949
20
-487.453792062852
30
0
11
811.230484541327
21
-497.453792062852
31
0
0
LINE
8
layer0
10
811.230484541327
20
-497.453792062852
30
0
11
811.230484541327
21
-367.549981495186
31
0
0
LINE
8
layer0
10
811.230484541327
20
-367.549981495186
30
0
11
776.589468389949
21
-357.549981495186
31
0
0
LINE
8
layer0
10
776.589468389949
20
-357.549981495186
30
0
11
776.589468389949
21
-487.453792062852
31
0
0
LINE
8
layer0
10
796.589468389949
20
-470.133283987163
30
0
11
776.589468389949
21
-487.453792062852
31
0
0
LINE
8
layer0
10
776.589468389949
20
-487.453792062852
30
0
11
776.589468389949
21
-357.549981495186
31
0
0
LINE
8
layer0
10
776.589468389949
20
-357.549981495186
30
0
11
796.589468389949
21
-340.229473419497
31
0
0
LINE
8
layer0
10
796.589468389949
20
-340.229473419497
30
0
11
796.589468389949
21
-470.133283987163
31
0
0
LINE
8
layer0
10
811.230484541327
20
-497.453792062852
30
0
11
831.230484541327
21
-480.133283987163
31
0
0
LINE
8
layer0
10
831.230484541327
20
-480.133283987163
30
0
11
831.230484541327
21
-350.229473419497
31
0
0
LINE
8
layer0
10
831.230484541327
20
-350.229473419497
30
0
11
811.230484541327
21
-367.549981495186
31
0
0
LINE
8
layer0
10
811.230484541327
20
-367.549981495186
30
0
11
811.230484541327
21
-497.453792062852
31
0
0
LINE
8
layer0
10
831.230484541327
20
-350.229473419497
30
0
11
796.589468389949
21
-340.229473419497
31
0
0
LINE
8
layer0
10
796.589468389949
20
-340.229473419497
30
0
11
776.589468389949
21
-357.549981495186
31
0
0
LINE
8
layer0
10
776.589468389949
20
-357.549981495186
30
0
11
811.230484541327
21
-367.549981495186
31
0
0
LINE
8
layer0
10
811.230484541327
20
-367.549981495186
30
0
11
831.230484541327
21
-350.229473419497
31
0
0
LINE
8
layer0
10
796.589468389949
20
-470.133283987163
30
0
11
831.230484541327
21
-480.133283987163
31
0
0
LINE
8
layer0
10
831.230484541327
20
-480.133283987163
30
0
11
811.230484541327
21
-497.453792062852
31
0
0
LINE
8
layer0
10
811.230484541327
20
-497.453792062852
30
0
11
776.589468389949
21
-487.453792062852
31
0
0
LINE
8
layer0
10
776.589468389949
20
-487.453792062852
30
0
11
796.589468389949
21
-470.133283987163
31
0
0
ENDBLK
0
BLOCK
8
layer0
70
0
10
0
20
0
30
0
2
PF_SKETCH15
0
LINE
8
layer0
10
515.749845793219
20
424.520886198552
30
0
11
468.583179126552
21
383.673354653386
31
0
0
ENDBLK
0
BLOCK
8
layer0
70
0
10
0
20
0
30
0
2
PF_SKETCH16
0
LINE
8
layer0
10
1035.36508806388
20
274.520886198552
30
0
11
988.198421397215
21
233.673354653386
31
0
0
ENDBLK
0
BLOCK
8
layer0
70
0
10
0
20
0
30
0
2
PF_SKETCH17
0
LINE
8
layer0
10
421.416512459885
20
342.82582310822
30
0
11
374.249845793219
21
301.978291563054
31
0
0
ENDBLK
0
BLOCK
8
layer0
70
0
10
0
20
0
30
0
2
PF_SKETCH18
0
LINE
8
layer0
10
941.031754730548
20
192.82582310822
30
0
11
893.865088063882
21
151.978291563054
31
0
0
ENDBLK
0
BLOCK
8
layer0
70
0
10
0
20
0
30
0
2
PF_SKETCH19
0
LINE
8
layer0
10
327.083179126552
20
261.130760017888
30
0
11
279.916512459885
21
220.283228472722
31
0
0
ENDBLK
0
BLOCK
8
layer0
70
0
10
0
20
0
30
0
2
PF_SKETCH20
0
LINE
8
layer0
10
846.698421397215
20
111.130760017888
30
0
11
799.531754730549
21
70.2832284727219
31
0
0
ENDBLK
0
BLOCK
8
layer0
2
PF_OBJECT21
70
0
10
0
20
0
30
0
0
LINE
8
layer0
10
2080.90583281132
20
-501.978875334514
30
0
11
1069.3881611911
21
-209.978875334514
31
0
0
LINE
8
layer0
10
1069.3881611911
20
-209.978875334514
30
0
11
1069.3881611911
21
-196.122468873963
31
0
0
LINE
8
layer0
10
1069.3881611911
20
-196.122468873963
30
0
11
2080.90583281132
21
-488.122468873963
31
0
0
LINE
8
layer0
10
2080.90583281132
20
-488.122468873963
30
0
11
2080.90583281132
21
-501.978875334514
31
0
0
LINE
8
layer0
10
813.888161191099
20
-431.248366001438
30
0
11
1825.40583281132
21
-723.248366001438
31
0
0
LINE
8
layer0
10
1825.40583281132
20
-723.248366001438
30
0
11
1825.40583281132
21
-709.391959540887
31
0
0
LINE
8
layer0
10
1825.40583281132
20
-709.391959540887
30
0
11
813.888161191099
21
-417.391959540887
31
0
0
LINE
8
layer0
10
813.888161191099
20
-417.391959540887
30
0
11
813.888161191099
21
-431.248366001438
31
0
0
LINE
8
layer0
10
1069.3881611911
20
-209.978875334514
30
0
11
813.888161191099
21
-431.248366001438
31
0
0
LINE
8
layer0
10
813.888161191099
20
-431.248366001438
30
0
11
813.888161191099
21
-417.391959540887
31
0
0
LINE
8
layer0
10
813.888161191099
20
-417.391959540887
30
0
11
1069.3881611911
21
-196.122468873963
31
0
0
LINE
8
layer0
10
1069.3881611911
20
-196.122468873963
30
0
11
1069.3881611911
21
-209.978875334514
31
0
0
LINE
8
layer0
10
1825.40583281132
20
-723.248366001438
30
0
11
2080.90583281132
21
-501.978875334514
31
0
0
LINE
8
layer0
10
2080.90583281132
20
-501.978875334514
30
0
11
2080.90583281132
21
-488.122468873963
31
0
0
LINE
8
layer0
10
2080.90583281132
20
-488.122468873963
30
0
11
1825.40583281132
21
-709.391959540887
31
0
0
LINE
8
layer0
10
1825.40583281132
20
-709.391959540887
30
0
11
1825.40583281132
21
-723.248366001438
31
0
0
LINE
8
layer0
10
2080.90583281132
20
-488.122468873963
30
0
11
1069.3881611911
21
-196.122468873963
31
0
0
LINE
8
layer0
10
1069.3881611911
20
-196.122468873963
30
0
11
813.888161191099
21
-417.391959540887
31
0
0
LINE
8
layer0
10
813.888161191099
20
-417.391959540887
30
0
11
1825.40583281132
21
-709.391959540887
31
0
0
LINE
8
layer0
10
1825.40583281132
20
-709.391959540887
30
0
11
2080.90583281132
21
-488.122468873963
31
0
0
LINE
8
layer0
10
1069.3881611911
20
-209.978875334514
30
0
11
2080.90583281132
21
-501.978875334514
31
0
0
LINE
8
layer0
10
2080.90583281132
20
-501.978875334514
30
0
11
1825.40583281132
21
-723.248366001438
31
0
0
LINE
8
layer0
10
1825.40583281132
20
-723.248366001438
30
0
11
813.888161191099
21
-431.248366001438
31
0
0
LINE
8
layer0
10
813.888161191099
20
-431.248366001438
30
0
11
1069.3881611911
21
-209.978875334514
31
0
0
ENDBLK
0
BLOCK
8
layer0
2
PF_OBJECT22
70
0
10
0
20
0
30
0
0
LINE
8
layer0
10
2082.90583281132
20
-500.246824526945
30
0
11
1071.3881611911
21
-208.246824526945
31
0
0
LINE
8
layer0
10
1071.3881611911
20
-208.246824526945
30
0
11
1071.3881611911
21
289.717782649107
31
0
0
LINE
8
layer0
10
1071.3881611911
20
289.717782649107
30
0
11
2082.90583281132
21
-2.28221735089278
31
0
0
LINE
8
layer0
10
2082.90583281132
20
-2.28221735089278
30
0
11
2082.90583281132
21
-500.246824526945
31
0
0
LINE
8
layer0
10
1069.3881611911
20
-209.978875334514
30
0
11
2080.90583281132
21
-501.978875334514
31
0
0
LINE
8
layer0
10
2080.90583281132
20
-501.978875334514
30
0
11
2080.90583281132
21
-4.01426815846168
31
0
0
LINE
8
layer0
10
2080.90583281132
20
-4.01426815846168
30
0
11
1069.3881611911
21
287.985731841538
31
0
0
LINE
8
layer0
10
1069.3881611911
20
287.985731841538
30
0
11
1069.3881611911
21
-209.978875334514
31
0
0
LINE
8
layer0
10
1071.3881611911
20
-208.246824526945
30
0
11
1069.3881611911
21
-209.978875334514
31
0
0
LINE
8
layer0
10
1069.3881611911
20
-209.978875334514
30
0
11
1069.3881611911
21
287.985731841538
31
0
0
LINE
8
layer0
10
1069.3881611911
20
287.985731841538
30
0
11
1071.3881611911
21
289.717782649107
31
0
0
LINE
8
layer0
10
1071.3881611911
20
289.717782649107
30
0
11
1071.3881611911
21
-208.246824526945
31
0
0
LINE
8
layer0
10
2080.90583281132
20
-501.978875334514
30
0
11
2082.90583281132
21
-500.246824526945
31
0
0
LINE
8
layer0
10
2082.90583281132
20
-500.246824526945
30
0
11
2082.90583281132
21
-2.28221735089278
31
0
0
LINE
8
layer0
10
2082.90583281132
20
-2.28221735089278
30
0
11
2080.90583281132
21
-4.01426815846168
31
0
0
LINE
8
layer0
10
2080.90583281132
20
-4.01426815846168
30
0
11
2080.90583281132
21
-501.978875334514
31
0
0
LINE
8
layer0
10
2082.90583281132
20
-2.28221735089278
30
0
11
1071.3881611911
21
289.717782649107
31
0
0
LINE
8
layer0
10
1071.3881611911
20
289.717782649107
30
0
11
1069.3881611911
21
287.985731841538
31
0
0
LINE
8
layer0
10
1069.3881611911
20
287.985731841538
30
0
11
2080.90583281132
21
-4.01426815846168
31
0
0
LINE
8
layer0
10
2080.90583281132
20
-4.01426815846168
30
0
11
2082.90583281132
21
-2.28221735089278
31
0
0
LINE
8
layer0
10
1071.3881611911
20
-208.246824526945
30
0
11
2082.90583281132
21
-500.246824526945
31
0
0
LINE
8
layer0
10
2082.90583281132
20
-500.246824526945
30
0
11
2080.90583281132
21
-501.978875334514
31
0
0
LINE
8
layer0
10
2080.90583281132
20
-501.978875334514
30
0
11
1069.3881611911
21
-209.978875334514
31
0
0
LINE
8
layer0
10
1069.3881611911
20
-209.978875334514
30
0
11
1071.3881611911
21
-208.246824526945
31
0
0
ENDBLK
0
BLOCK
8
layer0
2
PF_OBJECT23
70
0
10
0
20
0
30
0
0
LINE
8
layer0
10
2055.90583281132
20
-25.6649032530726
30
0
11
1044.3881611911
21
266.335096746927
31
0
0
LINE
8
layer0
10
1044.3881611911
20
266.335096746927
30
0
11
1044.3881611911
21
252.478690286376
31
0
0
LINE
8
layer0
10
1044.3881611911
20
252.478690286376
30
0
11
2055.90583281132
21
-39.5213097136237
31
0
0
LINE
8
layer0
10
2055.90583281132
20
-39.5213097136237
30
0
11
2055.90583281132
21
-25.6649032530726
31
0
0
LINE
8
layer0
10
1069.3881611911
20
287.985731841538
30
0
11
2080.90583281132
21
-4.01426815846168
31
0
0
LINE
8
layer0
10
2080.90583281132
20
-4.01426815846168
30
0
11
2080.90583281132
21
-17.8706746190127
31
0
0
LINE
8
layer0
10
2080.90583281132
20
-17.8706746190127
30
0
11
1069.3881611911
21
274.129325380987
31
0
0
LINE
8
layer0
10
1069.3881611911
20
274.129325380987
30
0
11
1069.3881611911
21
287.985731841538
31
0
0
LINE
8
layer0
10
1044.3881611911
20
266.335096746927
30
0
11
1069.3881611911
21
287.985731841538
31
0
0
LINE
8
layer0
10
1069.3881611911
20
287.985731841538
30
0
11
1069.3881611911
21
274.129325380987
31
0
0
LINE
8
layer0
10
1069.3881611911
20
274.129325380987
30
0
11
1044.3881611911
21
252.478690286376
31
0
0
LINE
8
layer0
10
1044.3881611911
20
252.478690286376
30
0
11
1044.3881611911
21
266.335096746927
31
0
0
LINE
8
layer0
10
2080.90583281132
20
-4.01426815846168
30
0
11
2055.90583281132
21
-25.6649032530726
31
0
0
LINE
8
layer0
10
2055.90583281132
20
-25.6649032530726
30
0
11
2055.90583281132
21
-39.5213097136237
31
0
0
LINE
8
layer0
10
2055.90583281132
20
-39.5213097136237
30
0
11
2080.90583281132
21
-17.8706746190127
31
0
0
LINE
8
layer0
10
2080.90583281132
20
-17.8706746190127
30
0
11
2080.90583281132
21
-4.01426815846168
31
0
0
LINE
8
layer0
10
2055.90583281132
20
-39.5213097136237
30
0
11
1044.3881611911
21
252.478690286376
31
0
0
LINE
8
layer0
10
1044.3881611911
20
252.478690286376
30
0
11
1069.3881611911
21
274.129325380987
31
0
0
LINE
8
layer0
10
1069.3881611911
20
274.129325380987
30
0
11
2080.90583281132
21
-17.8706746190127
31
0
0
LINE
8
layer0
10
2080.90583281132
20
-17.8706746190127
30
0
11
2055.90583281132
21
-39.5213097136237
31
0
0
LINE
8
layer0
10
1044.3881611911
20
266.335096746927
30
0
11
2055.90583281132
21
-25.6649032530726
31
0
0
LINE
8
layer0
10
2055.90583281132
20
-25.6649032530726
30
0
11
2080.90583281132
21
-4.01426815846168
31
0
0
LINE
8
layer0
10
2080.90583281132
20
-4.01426815846168
30
0
11
1069.3881611911
21
287.985731841538
31
0
0
LINE
8
layer0
10
1069.3881611911
20
287.985731841538
30
0
11
1044.3881611911
21
266.335096746927
31
0
0
ENDBLK
0
BLOCK
8
layer0
2
PF_OBJECT24
70
0
10
0
20
0
30
0
0
LINE
8
layer0
10
1313.29059054066
20
-552.896769012504
30
0
11
1341.00340346176
21
-560.896769012504
31
0
0
LINE
8
layer0
10
1341.00340346176
20
-560.896769012504
30
0
11
1333.00340346176
21
-567.824972242779
31
0
0
LINE
8
layer0
10
1333.00340346176
20
-567.824972242779
30
0
11
1305.29059054066
21
-559.824972242779
31
0
0
LINE
8
layer0
10
1305.29059054066
20
-559.824972242779
30
0
11
1313.29059054066
21
-552.896769012504
31
0
0
LINE
8
layer0
10
1341.00340346176
20
-90.6449747575536
30
0
11
1313.29059054066
21
-82.6449747575536
31
0
0
LINE
8
layer0
10
1313.29059054066
20
-82.6449747575536
30
0
11
1305.29059054066
21
-89.5731779878291
31
0
0
LINE
8
layer0
10
1305.29059054066
20
-89.5731779878291
30
0
11
1333.00340346176
21
-97.5731779878291
31
0
0
LINE
8
layer0
10
1333.00340346176
20
-97.5731779878291
30
0
11
1341.00340346176
21
-90.6449747575536
31
0
0
LINE
8
layer0
10
1333.00340346176
20
-567.824972242779
30
0
11
1341.00340346176
21
-560.896769012504
31
0
0
LINE
8
layer0
10
1341.00340346176
20
-560.896769012504
30
0
11
1341.00340346176
21
-90.6449747575536
31
0
0
LINE
8
layer0
10
1341.00340346176
20
-90.6449747575536
30
0
11
1333.00340346176
21
-97.5731779878291
31
0
0
LINE
8
layer0
10
1333.00340346176
20
-97.5731779878291
30
0
11
1333.00340346176
21
-567.824972242779
31
0
0
LINE
8
layer0
10
1313.29059054066
20
-552.896769012504
30
0
11
1305.29059054066
21
-559.824972242779
31
0
0
LINE
8
layer0
10
1305.29059054066
20
-559.824972242779
30
0
11
1305.29059054066
21
-89.5731779878291
31
0
0
LINE
8
layer0
10
1305.29059054066
20
-89.5731779878291
30
0
11
1313.29059054066
21
-82.6449747575536
31
0
0
LINE
8
layer0
10
1313.29059054066
20
-82.6449747575536
30
0
11
1313.29059054066
21
-552.896769012504
31
0
0
LINE
8
layer0
10
1305.29059054066
20
-559.824972242779
30
0
11
1333.00340346176
21
-567.824972242779
31
0
0
LINE
8
layer0
10
1333.00340346176
20
-567.824972242779
30
0
11
1333.00340346176
21
-97.5731779878291
31
0
0
LINE
8
layer0
10
1333.00340346176
20
-97.5731779878291
30
0
11
1305.29059054066
21
-89.5731779878291
31
0
0
LINE
8
layer0
10
1305.29059054066
20
-89.5731779878291
30
0
11
1305.29059054066
21
-559.824972242779
31
0
0
LINE
8
layer0
10
1341.00340346176
20
-560.896769012504
30
0
11
1313.29059054066
21
-552.896769012504
31
0
0
LINE
8
layer0
10
1313.29059054066
20
-552.896769012504
30
0
11
1313.29059054066
21
-82.6449747575536
31
0
0
LINE
8
layer0
10
1313.29059054066
20
-82.6449747575536
30
0
11
1341.00340346176
21
-90.6449747575536
31
0
0
LINE
8
layer0
10
1341.00340346176
20
-90.6449747575536
30
0
11
1341.00340346176
21
-560.896769012504
31
0
0
LINE
8
layer0
10
838.888161191099
20
74.5104698086741
30
0
11
1850.40583281132
21
-217.489530191326
31
0
0
LINE
8
layer0
10
1850.40583281132
20
-217.489530191326
30
0
11
1825.40583281132
21
-239.140165285937
31
0
0
LINE
8
layer0
10
1825.40583281132
20
-239.140165285937
30
0
11
813.888161191099
21
52.8598347140631
31
0
0
LINE
8
layer0
10
813.888161191099
20
52.8598347140631
30
0
11
838.888161191099
21
74.5104698086741
31
0
0
LINE
8
layer0
10
1850.40583281132
20
-203.633123730775
30
0
11
838.888161191099
21
88.3668762692251
31
0
0
LINE
8
layer0
10
838.888161191099
20
88.3668762692251
30
0
11
813.888161191099
21
66.7162411746141
31
0
0
LINE
8
layer0
10
813.888161191099
20
66.7162411746141
30
0
11
1825.40583281132
21
-225.283758825386
31
0
0
LINE
8
layer0
10
1825.40583281132
20
-225.283758825386
30
0
11
1850.40583281132
21
-203.633123730775
31
0
0
LINE
8
layer0
10
1825.40583281132
20
-239.140165285937
30
0
11
1850.40583281132
21
-217.489530191326
31
0
0
LINE
8
layer0
10
1850.40583281132
20
-217.489530191326
30
0
11
1850.40583281132
21
-203.633123730775
31
0
0
LINE
8
layer0
10
1850.40583281132
20
-203.633123730775
30
0
11
1825.40583281132
21
-225.283758825386
31
0
0
LINE
8
layer0
10
1825.40583281132
20
-225.283758825386
30
0
11
1825.40583281132
21
-239.140165285937
31
0
0
LINE
8
layer0
10
838.888161191099
20
74.5104698086741
30
0
11
813.888161191099
21
52.8598347140631
31
0
0
LINE
8
layer0
10
813.888161191099
20
52.8598347140631
30
0
11
813.888161191099
21
66.7162411746141
31
0
0
LINE
8
layer0
10
813.888161191099
20
66.7162411746141
30
0
11
838.888161191099
21
88.3668762692251
31
0
0
LINE
8
layer0
10
838.888161191099
20
88.3668762692251
30
0
11
838.888161191099
21
74.5104698086741
31
0
0
LINE
8
layer0
10
813.888161191099
20
52.8598347140631
30
0
11
1825.40583281132
21
-239.140165285937
31
0
0
LINE
8
layer0
10
1825.40583281132
20
-239.140165285937
30
0
11
1825.40583281132
21
-225.283758825386
31
0
0
LINE
8
layer0
10
1825.40583281132
20
-225.283758825386
30
0
11
813.888161191099
21
66.7162411746141
31
0
0
LINE
8
layer0
10
813.888161191099
20
66.7162411746141
30
0
11
813.888161191099
21
52.8598347140631
31
0
0
LINE
8
layer0
10
1850.40583281132
20
-217.489530191326
30
0
11
838.888161191099
21
74.5104698086741
31
0
0
LINE
8
layer0
10
838.888161191099
20
74.5104698086741
30
0
11
838.888161191099
21
88.3668762692251
31
0
0
LINE
8
layer0
10
838.888161191099
20
88.3668762692251
30
0
11
1850.40583281132
21
-203.633123730775
31
0
0
LINE
8
layer0
10
1850.40583281132
20
-203.633123730775
30
0
11
1850.40583281132
21
-217.489530191326
31
0
0
LINE
8
layer0
10
2107.90583281132
20
-478.596189432334
30
0
11
2121.76223927187
21
-482.596189432334
31
0
0
LINE
8
layer0
10
2121.76223927187
20
-482.596189432334
30
0
11
1838.76223927187
21
-727.68137870333
31
0
0
LINE
8
layer0
10
1838.76223927187
20
-727.68137870333
30
0
11
1824.90583281132
21
-723.68137870333
31
0
0
LINE
8
layer0
10
1824.90583281132
20
-723.68137870333
30
0
11
2107.90583281132
21
-478.596189432334
31
0
0
LINE
8
layer0
10
2121.76223927187
20
15.3684177437182
30
0
11
2107.90583281132
21
19.3684177437182
31
0
0
LINE
8
layer0
10
2107.90583281132
20
19.3684177437182
30
0
11
1824.90583281132
21
-225.716771527278
31
0
0
LINE
8
layer0
10
1824.90583281132
20
-225.716771527278
30
0
11
1838.76223927187
21
-229.716771527278
31
0
0
LINE
8
layer0
10
1838.76223927187
20
-229.716771527278
30
0
11
2121.76223927187
21
15.3684177437182
31
0
0
LINE
8
layer0
10
1838.76223927187
20
-727.68137870333
30
0
11
2121.76223927187
21
-482.596189432334
31
0
0
LINE
8
layer0
10
2121.76223927187
20
-482.596189432334
30
0
11
2121.76223927187
21
15.3684177437182
31
0
0
LINE
8
layer0
10
2121.76223927187
20
15.3684177437182
30
0
11
1838.76223927187
21
-229.716771527278
31
0
0
LINE
8
layer0
10
1838.76223927187
20
-229.716771527278
30
0
11
1838.76223927187
21
-727.68137870333
31
0
0
LINE
8
layer0
10
2107.90583281132
20
-478.596189432334
30
0
11
1824.90583281132
21
-723.68137870333
31
0
0
LINE
8
layer0
10
1824.90583281132
20
-723.68137870333
30
0
11
1824.90583281132
21
-225.716771527278
31
0
0
LINE
8
layer0
10
1824.90583281132
20
-225.716771527278
30
0
11
2107.90583281132
21
19.3684177437182
31
0
0
LINE
8
layer0
10
2107.90583281132
20
19.3684177437182
30
0
11
2107.90583281132
21
-478.596189432334
31
0
0
LINE
8
layer0
10
1824.90583281132
20
-723.68137870333
30
0
11
1838.76223927187
21
-727.68137870333
31
0
0
LINE
8
layer0
10
1838.76223927187
20
-727.68137870333
30
0
11
1838.76223927187
21
-229.716771527278
31
0
0
LINE
8
layer0
10
1838.76223927187
20
-229.716771527278
30
0
11
1824.90583281132
21
-225.716771527278
31
0
0
LINE
8
layer0
10
1824.90583281132
20
-225.716771527278
30
0
11
1824.90583281132
21
-723.68137870333
31
0
0
LINE
8
layer0
10
2121.76223927187
20
-482.596189432334
30
0
11
2107.90583281132
21
-478.596189432334
31
0
0
LINE
8
layer0
10
2107.90583281132
20
-478.596189432334
30
0
11
2107.90583281132
21
19.3684177437182
31
0
0
LINE
8
layer0
10
2107.90583281132
20
19.3684177437182
30
0
11
2121.76223927187
21
15.3684177437182
31
0
0
LINE
8
layer0
10
2121.76223927187
20
15.3684177437182
30
0
11
2121.76223927187
21
-482.596189432334
31
0
0
LINE
8
layer0
10
1082.53175473055
20
-182.596189432334
30
0
11
1096.3881611911
21
-186.596189432334
31
0
0
LINE
8
layer0
10
1096.3881611911
20
-186.596189432334
30
0
11
813.388161191099
21
-431.68137870333
31
0
0
LINE
8
layer0
10
813.388161191099
20
-431.68137870333
30
0
11
799.531754730548
21
-427.68137870333
31
0
0
LINE
8
layer0
10
799.531754730548
20
-427.68137870333
30
0
11
1082.53175473055
21
-182.596189432334
31
0
0
LINE
8
layer0
10
1096.3881611911
20
311.368417743718
30
0
11
1082.53175473055
21
315.368417743718
31
0
0
LINE
8
layer0
10
1082.53175473055
20
315.368417743718
30
0
11
799.531754730548
21
70.283228472722
31
0
0
LINE
8
layer0
10
799.531754730548
20
70.283228472722
30
0
11
813.388161191099
21
66.283228472722
31
0
0
LINE
8
layer0
10
813.388161191099
20
66.283228472722
30
0
11
1096.3881611911
21
311.368417743718
31
0
0
LINE
8
layer0
10
813.388161191099
20
-431.68137870333
30
0
11
1096.3881611911
21
-186.596189432334
31
0
0
LINE
8
layer0
10
1096.3881611911
20
-186.596189432334
30
0
11
1096.3881611911
21
311.368417743718
31
0
0
LINE
8
layer0
10
1096.3881611911
20
311.368417743718
30
0
11
813.388161191099
21
66.283228472722
31
0
0
LINE
8
layer0
10
813.388161191099
20
66.283228472722
30
0
11
813.388161191099
21
-431.68137870333
31
0
0
LINE
8
layer0
10
1082.53175473055
20
-182.596189432334
30
0
11
799.531754730548
21
-427.68137870333
31
0
0
LINE
8
layer0
10
799.531754730548
20
-427.68137870333
30
0
11
799.531754730548
21
70.283228472722
31
0
0
LINE
8
layer0
10
799.531754730548
20
70.283228472722
30
0
11
1082.53175473055
21
315.368417743718
31
0
0
LINE
8
layer0
10
1082.53175473055
20
315.368417743718
30
0
11
1082.53175473055
21
-182.596189432334
31
0
0
LINE
8
layer0
10
799.531754730548
20
-427.68137870333
30
0
11
813.388161191099
21
-431.68137870333
31
0
0
LINE
8
layer0
10
813.388161191099
20
-431.68137870333
30
0
11
813.388161191099
21
66.283228472722
31
0
0
LINE
8
layer0
10
813.388161191099
20
66.283228472722
30
0
11
799.531754730548
21
70.283228472722
31
0
0
LINE
8
layer0
10
799.531754730548
20
70.283228472722
30
0
11
799.531754730548
21
-427.68137870333
31
0
0
LINE
8
layer0
10
1096.3881611911
20
-186.596189432334
30
0
11
1082.53175473055
21
-182.596189432334
31
0
0
LINE
8
layer0
10
1082.53175473055
20
-182.596189432334
30
0
11
1082.53175473055
21
315.368417743718
31
0
0
LINE
8
layer0
10
1082.53175473055
20
315.368417743718
30
0
11
1096.3881611911
21
311.368417743718
31
0
0
LINE
8
layer0
10
1096.3881611911
20
311.368417743718
30
0
11
1096.3881611911
21
-186.596189432334
31
0
0
ENDBLK
0
BLOCK
8
layer0
2
PF_OBJECT25
70
0
10
0
20
0
30
0
0
LINE
8
layer0
10
1145.26224208055
20
-92.544794630147
30
0
11
1143.49447512758
21
-92.8074608789432
31
0
0
LINE
8
layer0
10
1143.49447512758
20
-92.8074608789432
30
0
11
1271.66623488768
21
-129.807460878943
31
0
0
LINE
8
layer0
10
1271.66623488768
20
-129.807460878943
30
0
11
1273.43400184064
21
-129.544794630147
31
0
0
LINE
8
layer0
10
1273.43400184064
20
-129.544794630147
30
0
11
1145.26224208055
21
-92.544794630147
31
0
0
LINE
8
layer0
10
1145.99447512758
20
-94.9725243884043
30
0
11
1145.26224208055
21
-92.544794630147
31
0
0
LINE
8
layer0
10
1145.26224208055
20
-92.544794630147
30
0
11
1273.43400184064
21
-129.544794630147
31
0
0
LINE
8
layer0
10
1273.43400184064
20
-129.544794630147
30
0
11
1274.16623488768
21
-131.972524388404
31
0
0
LINE
8
layer0
10
1274.16623488768
20
-131.972524388404
30
0
11
1145.99447512758
21
-94.9725243884043
31
0
0
LINE
8
layer0
10
1145.26224208055
20
-98.6685189871049
30
0
11
1145.99447512758
21
-94.9725243884043
31
0
0
LINE
8
layer0
10
1145.99447512758
20
-94.9725243884043
30
0
11
1274.16623488768
21
-131.972524388404
31
0
0
LINE
8
layer0
10
1274.16623488768
20
-131.972524388404
30
0
11
1273.43400184064
21
-135.668518987105
31
0
0
LINE
8
layer0
10
1273.43400184064
20
-135.668518987105
30
0
11
1145.26224208055
21
-98.6685189871049
31
0
0
LINE
8
layer0
10
1143.49447512758
20
-101.467714916788
30
0
11
1145.26224208055
21
-98.6685189871049
31
0
0
LINE
8
layer0
10
1145.26224208055
20
-98.6685189871049
30
0
11
1273.43400184064
21
-135.668518987105
31
0
0
LINE
8
layer0
10
1273.43400184064
20
-135.668518987105
30
0
11
1271.66623488768
21
-138.467714916788
31
0
0
LINE
8
layer0
10
1271.66623488768
20
-138.467714916788
30
0
11
1143.49447512758
21
-101.467714916788
31
0
0
LINE
8
layer0
10
1141.72670817462
20
-101.730381165584
30
0
11
1143.49447512758
21
-101.467714916788
31
0
0
LINE
8
layer0
10
1143.49447512758
20
-101.467714916788
30
0
11
1271.66623488768
21
-138.467714916788
31
0
0
LINE
8
layer0
10
1271.66623488768
20
-138.467714916788
30
0
11
1269.89846793471
21
-138.730381165584
31
0
0
LINE
8
layer0
10
1269.89846793471
20
-138.730381165584
30
0
11
1141.72670817462
21
-101.730381165584
31
0
0
LINE
8
layer0
10
1140.99447512758
20
-99.3026514073265
30
0
11
1141.72670817462
21
-101.730381165584
31
0
0
LINE
8
layer0
10
1141.72670817462
20
-101.730381165584
30
0
11
1269.89846793471
21
-138.730381165584
31
0
0
LINE
8
layer0
10
1269.89846793471
20
-138.730381165584
30
0
11
1269.16623488768
21
-136.302651407326
31
0
0
LINE
8
layer0
10
1269.16623488768
20
-136.302651407326
30
0
11
1140.99447512758
21
-99.3026514073265
31
0
0
LINE
8
layer0
10
1141.72670817462
20
-95.6066568086259
30
0
11
1140.99447512758
21
-99.3026514073265
31
0
0
LINE
8
layer0
10
1140.99447512758
20
-99.3026514073265
30
0
11
1269.16623488768
21
-136.302651407326
31
0
0
LINE
8
layer0
10
1269.16623488768
20
-136.302651407326
30
0
11
1269.89846793471
21
-132.606656808626
31
0
0
LINE
8
layer0
10
1269.89846793471
20
-132.606656808626
30
0
11
1141.72670817462
21
-95.6066568086259
31
0
0
LINE
8
layer0
10
1143.49447512758
20
-92.8074608789432
30
0
11
1141.72670817462
21
-95.6066568086259
31
0
0
LINE
8
layer0
10
1141.72670817462
20
-95.6066568086259
30
0
11
1269.89846793471
21
-132.606656808626
31
0
0
LINE
8
layer0
10
1269.89846793471
20
-132.606656808626
30
0
11
1271.66623488768
21
-129.807460878943
31
0
0
LINE
8
layer0
10
1271.66623488768
20
-129.807460878943
30
0
11
1143.49447512758
21
-92.8074608789432
31
0
0
LINE
8
layer0
10
1271.66623488768
20
-129.807460878943
30
0
11
1269.89846793471
21
-132.606656808626
31
0
0
LINE
8
layer0
10
1269.89846793471
20
-132.606656808626
30
0
11
1269.16623488768
21
-136.302651407326
31
0
0
LINE
8
layer0
10
1269.16623488768
20
-136.302651407326
30
0
11
1269.89846793471
21
-138.730381165584
31
0
0
LINE
8
layer0
10
1269.89846793471
20
-138.730381165584
30
0
11
1271.66623488768
21
-138.467714916788
31
0
0
LINE
8
layer0
10
1271.66623488768
20
-138.467714916788
30
0
11
1273.43400184064
21
-135.668518987105
31
0
0
LINE
8
layer0
10
1273.43400184064
20
-135.668518987105
30
0
11
1274.16623488768
21
-131.972524388404
31
0
0
LINE
8
layer0
10
1274.16623488768
20
-131.972524388404
30
0
11
1273.43400184064
21
-129.544794630147
31
0
0
LINE
8
layer0
10
1273.43400184064
20
-129.544794630147
30
0
11
1271.66623488768
21
-129.807460878943
31
0
0
LINE
8
layer0
10
1141.72670817462
20
-95.6066568086259
30
0
11
1143.49447512758
21
-92.8074608789432
31
0
0
LINE
8
layer0
10
1143.49447512758
20
-92.8074608789432
30
0
11
1145.26224208055
21
-92.544794630147
31
0
0
LINE
8
layer0
10
1145.26224208055
20
-92.544794630147
30
0
11
1145.99447512758
21
-94.9725243884043
31
0
0
LINE
8
layer0
10
1145.99447512758
20
-94.9725243884043
30
0
11
1145.26224208055
21
-98.6685189871049
31
0
0
LINE
8
layer0
10
1145.26224208055
20
-98.6685189871049
30
0
11
1143.49447512758
21
-101.467714916788
31
0
0
LINE
8
layer0
10
1143.49447512758
20
-101.467714916788
30
0
11
1141.72670817462
21
-101.730381165584
31
0
0
LINE
8
layer0
10
1141.72670817462
20
-101.730381165584
30
0
11
1140.99447512758
21
-99.3026514073265
31
0
0
LINE
8
layer0
10
1140.99447512758
20
-99.3026514073265
30
0
11
1141.72670817462
21
-95.6066568086259
31
0
0
ENDBLK
0
BLOCK
8
layer0
2
PF_OBJECT26
70
0
10
0
20
0
30
0
0
LINE
8
layer0
10
1170.81498320327
20
-97.8074608789432
30
0
11
1153.49447512758
21
-92.8074608789432
31
0
0
LINE
8
layer0
10
1153.49447512758
20
-92.8074608789432
30
0
11
1153.49447512758
21
-84.1472068410988
31
0
0
LINE
8
layer0
10
1153.49447512758
20
-84.1472068410988
30
0
11
1170.81498320327
21
-89.1472068410988
31
0
0
LINE
8
layer0
10
1170.81498320327
20
-89.1472068410988
30
0
11
1170.81498320327
21
-97.8074608789432
31
0
0
LINE
8
layer0
10
1143.49447512758
20
-101.467714916788
30
0
11
1160.81498320327
21
-106.467714916788
31
0
0
LINE
8
layer0
10
1160.81498320327
20
-106.467714916788
30
0
11
1160.81498320327
21
-97.8074608789432
31
0
0
LINE
8
layer0
10
1160.81498320327
20
-97.8074608789432
30
0
11
1143.49447512758
21
-92.8074608789432
31
0
0
LINE
8
layer0
10
1143.49447512758
20
-92.8074608789432
30
0
11
1143.49447512758
21
-101.467714916788
31
0
0
LINE
8
layer0
10
1153.49447512758
20
-92.8074608789432
30
0
11
1143.49447512758
21
-101.467714916788
31
0
0
LINE
8
layer0
10
1143.49447512758
20
-101.467714916788
30
0
11
1143.49447512758
21
-92.8074608789432
31
0
0
LINE
8
layer0
10
1143.49447512758
20
-92.8074608789432
30
0
11
1153.49447512758
21
-84.1472068410988
31
0
0
LINE
8
layer0
10
1153.49447512758
20
-84.1472068410988
30
0
11
1153.49447512758
21
-92.8074608789432
31
0
0
LINE
8
layer0
10
1160.81498320327
20
-106.467714916788
30
0
11
1170.81498320327
21
-97.8074608789432
31
0
0
LINE
8
layer0
10
1170.81498320327
20
-97.8074608789432
30
0
11
1170.81498320327
21
-89.1472068410988
31
0
0
LINE
8
layer0
10
1170.81498320327
20
-89.1472068410988
30
0
11
1160.81498320327
21
-97.8074608789432
31
0
0
LINE
8
layer0
10
1160.81498320327
20
-97.8074608789432
30
0
11
1160.81498320327
21
-106.467714916788
31
0
0
LINE
8
layer0
10
1170.81498320327
20
-89.1472068410988
30
0
11
1153.49447512758
21
-84.1472068410988
31
0
0
LINE
8
layer0
10
1153.49447512758
20
-84.1472068410988
30
0
11
1143.49447512758
21
-92.8074608789432
31
0
0
LINE
8
layer0
10
1143.49447512758
20
-92.8074608789432
30
0
11
1160.81498320327
21
-97.8074608789432
31
0
0
LINE
8
layer0
10
1160.81498320327
20
-97.8074608789432
30
0
11
1170.81498320327
21
-89.1472068410988
31
0
0
LINE
8
layer0
10
1153.49447512758
20
-92.8074608789432
30
0
11
1170.81498320327
21
-97.8074608789432
31
0
0
LINE
8
layer0
10
1170.81498320327
20
-97.8074608789432
30
0
11
1160.81498320327
21
-106.467714916788
31
0
0
LINE
8
layer0
10
1160.81498320327
20
-106.467714916788
30
0
11
1143.49447512758
21
-101.467714916788
31
0
0
LINE
8
layer0
10
1143.49447512758
20
-101.467714916788
30
0
11
1153.49447512758
21
-92.8074608789432
31
0
0
ENDBLK
0
BLOCK
8
layer0
2
PF_OBJECT27
70
0
10
0
20
0
30
0
0
LINE
8
layer0
10
1281.66623488768
20
-129.807460878943
30
0
11
1264.34572681199
21
-124.807460878943
31
0
0
LINE
8
layer0
10
1264.34572681199
20
-124.807460878943
30
0
11
1264.34572681199
21
-116.147206841099
31
0
0
LINE
8
layer0
10
1264.34572681199
20
-116.147206841099
30
0
11
1281.66623488768
21
-121.147206841099
31
0
0
LINE
8
layer0
10
1281.66623488768
20
-121.147206841099
30
0
11
1281.66623488768
21
-129.807460878943
31
0
0
LINE
8
layer0
10
1254.34572681199
20
-133.467714916788
30
0
11
1271.66623488768
21
-138.467714916788
31
0
0
LINE
8
layer0
10
1271.66623488768
20
-138.467714916788
30
0
11
1271.66623488768
21
-129.807460878943
31
0
0
LINE
8
layer0
10
1271.66623488768
20
-129.807460878943
30
0
11
1254.34572681199
21
-124.807460878943
31
0
0
LINE
8
layer0
10
1254.34572681199
20
-124.807460878943
30
0
11
1254.34572681199
21
-133.467714916788
31
0
0
LINE
8
layer0
10
1264.34572681199
20
-124.807460878943
30
0
11
1254.34572681199
21
-133.467714916788
31
0
0
LINE
8
layer0
10
1254.34572681199
20
-133.467714916788
30
0
11
1254.34572681199
21
-124.807460878943
31
0
0
LINE
8
layer0
10
1254.34572681199
20
-124.807460878943
30
0
11
1264.34572681199
21
-116.147206841099
31
0
0
LINE
8
layer0
10
1264.34572681199
20
-116.147206841099
30
0
11
1264.34572681199
21
-124.807460878943
31
0
0
LINE
8
layer0
10
1271.66623488768
20
-138.467714916788
30
0
11
1281.66623488768
21
-129.807460878943
31
0
0
LINE
8
layer0
10
1281.66623488768
20
-129.807460878943
30
0
11
1281.66623488768
21
-121.147206841099
31
0
0
LINE
8
layer0
10
1281.66623488768
20
-121.147206841099
30
0
11
1271.66623488768
21
-129.807460878943
31
0
0
LINE
8
layer0
10
1271.66623488768
20
-129.807460878943
30
0
11
1271.66623488768
21
-138.467714916788
31
0
0
LINE
8
layer0
10
1281.66623488768
20
-121.147206841099
30
0
11
1264.34572681199
21
-116.147206841099
31
0
0
LINE
8
layer0
10
1264.34572681199
20
-116.147206841099
30
0
11
1254.34572681199
21
-124.807460878943
31
0
0
LINE
8
layer0
10
1254.34572681199
20
-124.807460878943
30
0
11
1271.66623488768
21
-129.807460878943
31
0
0
LINE
8
layer0
10
1271.66623488768
20
-129.807460878943
30
0
11
1281.66623488768
21
-121.147206841099
31
0
0
LINE
8
layer0
10
1264.34572681199
20
-124.807460878943
30
0
11
1281.66623488768
21
-129.807460878943
31
0
0
LINE
8
layer0
10
1281.66623488768
20
-129.807460878943
30
0
11
1271.66623488768
21
-138.467714916788
31
0
0
LINE
8
layer0
10
1271.66623488768
20
-138.467714916788
30
0
11
1254.34572681199
21
-133.467714916788
31
0
0
LINE
8
layer0
10
1254.34572681199
20
-133.467714916788
30
0
11
1264.34572681199
21
-124.807460878943
31
0
0
ENDBLK
0
BLOCK
8
layer0
2
PF_OBJECT28
70
0
10
0
20
0
30
0
0
LINE
8
layer0
10
1315.04892078986
20
-575.632340597654
30
0
11
800.629830941902
21
-427.132340597654
31
0
0
LINE
8
layer0
10
800.629830941902
20
-427.132340597654
30
0
11
800.629830941902
21
62.1720125405542
31
0
0
LINE
8
layer0
10
800.629830941902
20
62.1720125405542
30
0
11
1315.04892078986
21
-86.3279874594458
31
0
0
LINE
8
layer0
10
1315.04892078986
20
-86.3279874594458
30
0
11
1315.04892078986
21
-575.632340597654
31
0
0
LINE
8
layer0
10
790.629830941902
20
-435.792594635498
30
0
11
1305.04892078986
21
-584.292594635498
31
0
0
LINE
8
layer0
10
1305.04892078986
20
-584.292594635498
30
0
11
1305.04892078986
21
-94.9882414972901
31
0
0
LINE
8
layer0
10
1305.04892078986
20
-94.9882414972901
30
0
11
790.629830941902
21
53.5117585027098
31
0
0
LINE
8
layer0
10
790.629830941902
20
53.5117585027098
30
0
11
790.629830941902
21
-435.792594635498
31
0
0
LINE
8
layer0
10
800.629830941902
20
-427.132340597654
30
0
11
790.629830941902
21
-435.792594635498
31
0
0
LINE
8
layer0
10
790.629830941902
20
-435.792594635498
30
0
11
790.629830941902
21
53.5117585027098
31
0
0
LINE
8
layer0
10
790.629830941902
20
53.5117585027098
30
0
11
800.629830941902
21
62.1720125405542
31
0
0
LINE
8
layer0
10
800.629830941902
20
62.1720125405542
30
0
11
800.629830941902
21
-427.132340597654
31
0
0
LINE
8
layer0
10
1305.04892078986
20
-584.292594635498
30
0
11
1315.04892078986
21
-575.632340597654
31
0
0
LINE
8
layer0
10
1315.04892078986
20
-575.632340597654
30
0
11
1315.04892078986
21
-86.3279874594458
31
0
0
LINE
8
layer0
10
1315.04892078986
20
-86.3279874594458
30
0
11
1305.04892078986
21
-94.9882414972901
31
0
0
LINE
8
layer0
10
1305.04892078986
20
-94.9882414972901
30
0
11
1305.04892078986
21
-584.292594635498
31
0
0
LINE
8
layer0
10
1315.04892078986
20
-86.3279874594458
30
0
11
800.629830941902
21
62.1720125405542
31
0
0
LINE
8
layer0
10
800.629830941902
20
62.1720125405542
30
0
11
790.629830941902
21
53.5117585027098
31
0
0
LINE
8
layer0
10
790.629830941902
20
53.5117585027098
30
0
11
1305.04892078986
21
-94.9882414972901
31
0
0
LINE
8
layer0
10
1305.04892078986
20
-94.9882414972901
30
0
11
1315.04892078986
21
-86.3279874594458
31
0
0
LINE
8
layer0
10
800.629830941902
20
-427.132340597654
30
0
11
1315.04892078986
21
-575.632340597654
31
0
0
LINE
8
layer0
10
1315.04892078986
20
-575.632340597654
30
0
11
1305.04892078986
21
-584.292594635498
31
0
0
LINE
8
layer0
10
1305.04892078986
20
-584.292594635498
30
0
11
790.629830941902
21
-435.792594635498
31
0
0
LINE
8
layer0
10
790.629830941902
20
-435.792594635498
30
0
11
800.629830941902
21
-427.132340597654
31
0
0
ENDBLK
0
BLOCK
8
layer0
2
PF_OBJECT29
70
0
10
0
20
0
30
0
0
LINE
8
layer0
10
1325.39552606771
20
-144.544794630147
30
0
11
1323.62775911474
21
-144.807460878943
31
0
0
LINE
8
layer0
10
1323.62775911474
20
-144.807460878943
30
0
11
1451.79951887484
21
-181.807460878943
31
0
0
LINE
8
layer0
10
1451.79951887484
20
-181.807460878943
30
0
11
1453.56728582781
21
-181.544794630147
31
0
0
LINE
8
layer0
10
1453.56728582781
20
-181.544794630147
30
0
11
1325.39552606771
21
-144.544794630147
31
0
0
LINE
8
layer0
10
1326.12775911474
20
-146.972524388404
30
0
11
1325.39552606771
21
-144.544794630147
31
0
0
LINE
8
layer0
10
1325.39552606771
20
-144.544794630147
30
0
11
1453.56728582781
21
-181.544794630147
31
0
0
LINE
8
layer0
10
1453.56728582781
20
-181.544794630147
30
0
11
1454.29951887484
21
-183.972524388404
31
0
0
LINE
8
layer0
10
1454.29951887484
20
-183.972524388404
30
0
11
1326.12775911474
21
-146.972524388404
31
0
0
LINE
8
layer0
10
1325.39552606771
20
-150.668518987105
30
0
11
1326.12775911474
21
-146.972524388404
31
0
0
LINE
8
layer0
10
1326.12775911474
20
-146.972524388404
30
0
11
1454.29951887484
21
-183.972524388404
31
0
0
LINE
8
layer0
10
1454.29951887484
20
-183.972524388404
30
0
11
1453.56728582781
21
-187.668518987105
31
0
0
LINE
8
layer0
10
1453.56728582781
20
-187.668518987105
30
0
11
1325.39552606771
21
-150.668518987105
31
0
0
LINE
8
layer0
10
1323.62775911474
20
-153.467714916788
30
0
11
1325.39552606771
21
-150.668518987105
31
0
0
LINE
8
layer0
10
1325.39552606771
20
-150.668518987105
30
0
11
1453.56728582781
21
-187.668518987105
31
0
0
LINE
8
layer0
10
1453.56728582781
20
-187.668518987105
30
0
11
1451.79951887484
21
-190.467714916788
31
0
0
LINE
8
layer0
10
1451.79951887484
20
-190.467714916788
30
0
11
1323.62775911474
21
-153.467714916788
31
0
0
LINE
8
layer0
10
1321.85999216178
20
-153.730381165584
30
0
11
1323.62775911474
21
-153.467714916788
31
0
0
LINE
8
layer0
10
1323.62775911474
20
-153.467714916788
30
0
11
1451.79951887484
21
-190.467714916788
31
0
0
LINE
8
layer0
10
1451.79951887484
20
-190.467714916788
30
0
11
1450.03175192188
21
-190.730381165584
31
0
0
LINE
8
layer0
10
1450.03175192188
20
-190.730381165584
30
0
11
1321.85999216178
21
-153.730381165584
31
0
0
LINE
8
layer0
10
1321.12775911474
20
-151.302651407326
30
0
11
1321.85999216178
21
-153.730381165584
31
0
0
LINE
8
layer0
10
1321.85999216178
20
-153.730381165584
30
0
11
1450.03175192188
21
-190.730381165584
31
0
0
LINE
8
layer0
10
1450.03175192188
20
-190.730381165584
30
0
11
1449.29951887484
21
-188.302651407326
31
0
0
LINE
8
layer0
10
1449.29951887484
20
-188.302651407326
30
0
11
1321.12775911474
21
-151.302651407326
31
0
0
LINE
8
layer0
10
1321.85999216178
20
-147.606656808626
30
0
11
1321.12775911474
21
-151.302651407326
31
0
0
LINE
8
layer0
10
1321.12775911474
20
-151.302651407326
30
0
11
1449.29951887484
21
-188.302651407326
31
0
0
LINE
8
layer0
10
1449.29951887484
20
-188.302651407326
30
0
11
1450.03175192188
21
-184.606656808626
31
0
0
LINE
8
layer0
10
1450.03175192188
20
-184.606656808626
30
0
11
1321.85999216178
21
-147.606656808626
31
0
0
LINE
8
layer0
10
1323.62775911474
20
-144.807460878943
30
0
11
1321.85999216178
21
-147.606656808626
31
0
0
LINE
8
layer0
10
1321.85999216178
20
-147.606656808626
30
0
11
1450.03175192188
21
-184.606656808626
31
0
0
LINE
8
layer0
10
1450.03175192188
20
-184.606656808626
30
0
11
1451.79951887484
21
-181.807460878943
31
0
0
LINE
8
layer0
10
1451.79951887484
20
-181.807460878943
30
0
11
1323.62775911474
21
-144.807460878943
31
0
0
LINE
8
layer0
10
1451.79951887484
20
-181.807460878943
30
0
11
1450.03175192188
21
-184.606656808626
31
0
0
LINE
8
layer0
10
1450.03175192188
20
-184.606656808626
30
0
11
1449.29951887484
21
-188.302651407326
31
0
0
LINE
8
layer0
10
1449.29951887484
20
-188.302651407326
30
0
11
1450.03175192188
21
-190.730381165584
31
0
0
LINE
8
layer0
10
1450.03175192188
20
-190.730381165584
30
0
11
1451.79951887484
21
-190.467714916788
31
0
0
LINE
8
layer0
10
1451.79951887484
20
-190.467714916788
30
0
11
1453.56728582781
21
-187.668518987105
31
0
0
LINE
8
layer0
10
1453.56728582781
20
-187.668518987105
30
0
11
1454.29951887484
21
-183.972524388404
31
0
0
LINE
8
layer0
10
1454.29951887484
20
-183.972524388404
30
0
11
1453.56728582781
21
-181.544794630147
31
0
0
LINE
8
layer0
10
1453.56728582781
20
-181.544794630147
30
0
11
1451.79951887484
21
-181.807460878943
31
0
0
LINE
8
layer0
10
1321.85999216178
20
-147.606656808626
30
0
11
1323.62775911474
21
-144.807460878943
31
0
0
LINE
8
layer0
10
1323.62775911474
20
-144.807460878943
30
0
11
1325.39552606771
21
-144.544794630147
31
0
0
LINE
8
layer0
10
1325.39552606771
20
-144.544794630147
30
0
11
1326.12775911474
21
-146.972524388404
31
0
0
LINE
8
layer0
10
1326.12775911474
20
-146.972524388404
30
0
11
1325.39552606771
21
-150.668518987105
31
0
0
LINE
8
layer0
10
1325.39552606771
20
-150.668518987105
30
0
11
1323.62775911474
21
-153.467714916788
31
0
0
LINE
8
layer0
10
1323.62775911474
20
-153.467714916788
30
0
11
1321.85999216178
21
-153.730381165584
31
0
0
LINE
8
layer0
10
1321.85999216178
20
-153.730381165584
30
0
11
1321.12775911474
21
-151.302651407326
31
0
0
LINE
8
layer0
10
1321.12775911474
20
-151.302651407326
30
0
11
1321.85999216178
21
-147.606656808626
31
0
0
ENDBLK
0
BLOCK
8
layer0
2
PF_OBJECT30
70
0
10
0
20
0
30
0
0
LINE
8
layer0
10
1350.94826719043
20
-149.807460878943
30
0
11
1333.62775911474
21
-144.807460878943
31
0
0
LINE
8
layer0
10
1333.62775911474
20
-144.807460878943
30
0
11
1333.62775911474
21
-136.147206841099
31
0
0
LINE
8
layer0
10
1333.62775911474
20
-136.147206841099
30
0
11
1350.94826719043
21
-141.147206841099
31
0
0
LINE
8
layer0
10
1350.94826719043
20
-141.147206841099
30
0
11
1350.94826719043
21
-149.807460878943
31
0
0
LINE
8
layer0
10
1323.62775911474
20
-153.467714916788
30
0
11
1340.94826719043
21
-158.467714916788
31
0
0
LINE
8
layer0
10
1340.94826719043
20
-158.467714916788
30
0
11
1340.94826719043
21
-149.807460878943
31
0
0
LINE
8
layer0
10
1340.94826719043
20
-149.807460878943
30
0
11
1323.62775911474
21
-144.807460878943
31
0
0
LINE
8
layer0
10
1323.62775911474
20
-144.807460878943
30
0
11
1323.62775911474
21
-153.467714916788
31
0
0
LINE
8
layer0
10
1333.62775911474
20
-144.807460878943
30
0
11
1323.62775911474
21
-153.467714916788
31
0
0
LINE
8
layer0
10
1323.62775911474
20
-153.467714916788
30
0
11
1323.62775911474
21
-144.807460878943
31
0
0
LINE
8
layer0
10
1323.62775911474
20
-144.807460878943
30
0
11
1333.62775911474
21
-136.147206841099
31
0
0
LINE
8
layer0
10
1333.62775911474
20
-136.147206841099
30
0
11
1333.62775911474
21
-144.807460878943
31
0
0
LINE
8
layer0
10
1340.94826719043
20
-158.467714916788
30
0
11
1350.94826719043
21
-149.807460878943
31
0
0
LINE
8
layer0
10
1350.94826719043
20
-149.807460878943
30
0
11
1350.94826719043
21
-141.147206841099
31
0
0
LINE
8
layer0
10
1350.94826719043
20
-141.147206841099
30
0
11
1340.94826719043
21
-149.807460878943
31
0
0
LINE
8
layer0
10
1340.94826719043
20
-149.807460878943
30
0
11
1340.94826719043
21
-158.467714916788
31
0
0
LINE
8
layer0
10
1350.94826719043
20
-141.147206841099
30
0
11
1333.62775911474
21
-136.147206841099
31
0
0
LINE
8
layer0
10
1333.62775911474
20
-136.147206841099
30
0
11
1323.62775911474
21
-144.807460878943
31
0
0
LINE
8
layer0
10
1323.62775911474
20
-144.807460878943
30
0
11
1340.94826719043
21
-149.807460878943
31
0
0
LINE
8
layer0
10
1340.94826719043
20
-149.807460878943
30
0
11
1350.94826719043
21
-141.147206841099
31
0
0
LINE
8
layer0
10
1333.62775911474
20
-144.807460878943
30
0
11
1350.94826719043
21
-149.807460878943
31
0
0
LINE
8
layer0
10
1350.94826719043
20
-149.807460878943
30
0
11
1340.94826719043
21
-158.467714916788
31
0
0
LINE
8
layer0
10
1340.94826719043
20
-158.467714916788
30
0
11
1323.62775911474
21
-153.467714916788
31
0
0
LINE
8
layer0
10
1323.62775911474
20
-153.467714916788
30
0
11
1333.62775911474
21
-144.807460878943
31
0
0
ENDBLK
0
BLOCK
8
layer0
2
PF_OBJECT31
70
0
10
0
20
0
30
0
0
LINE
8
layer0
10
1461.79951887484
20
-181.807460878943
30
0
11
1444.47901079915
21
-176.807460878943
31
0
0
LINE
8
layer0
10
1444.47901079915
20
-176.807460878943
30
0
11
1444.47901079915
21
-168.147206841099
31
0
0
LINE
8
layer0
10
1444.47901079915
20
-168.147206841099
30
0
11
1461.79951887484
21
-173.147206841099
31
0
0
LINE
8
layer0
10
1461.79951887484
20
-173.147206841099
30
0
11
1461.79951887484
21
-181.807460878943
31
0
0
LINE
8
layer0
10
1434.47901079915
20
-185.467714916788
30
0
11
1451.79951887484
21
-190.467714916788
31
0
0
LINE
8
layer0
10
1451.79951887484
20
-190.467714916788
30
0
11
1451.79951887484
21
-181.807460878943
31
0
0
LINE
8
layer0
10
1451.79951887484
20
-181.807460878943
30
0
11
1434.47901079915
21
-176.807460878943
31
0
0
LINE
8
layer0
10
1434.47901079915
20
-176.807460878943
30
0
11
1434.47901079915
21
-185.467714916788
31
0
0
LINE
8
layer0
10
1444.47901079915
20
-176.807460878943
30
0
11
1434.47901079915
21
-185.467714916788
31
0
0
LINE
8
layer0
10
1434.47901079915
20
-185.467714916788
30
0
11
1434.47901079915
21
-176.807460878943
31
0
0
LINE
8
layer0
10
1434.47901079915
20
-176.807460878943
30
0
11
1444.47901079915
21
-168.147206841099
31
0
0
LINE
8
layer0
10
1444.47901079915
20
-168.147206841099
30
0
11
1444.47901079915
21
-176.807460878943
31
0
0
LINE
8
layer0
10
1451.79951887484
20
-190.467714916788
30
0
11
1461.79951887484
21
-181.807460878943
31
0
0
LINE
8
layer0
10
1461.79951887484
20
-181.807460878943
30
0
11
1461.79951887484
21
-173.147206841099
31
0
0
LINE
8
layer0
10
1461.79951887484
20
-173.147206841099
30
0
11
1451.79951887484
21
-181.807460878943
31
0
0
LINE
8
layer0
10
1451.79951887484
20
-181.807460878943
30
0
11
1451.79951887484
21
-190.467714916788
31
0
0
LINE
8
layer0
10
1461.79951887484
20
-173.147206841099
30
0
11
1444.47901079915
21
-168.147206841099
31
0
0
LINE
8
layer0
10
1444.47901079915
20
-168.147206841099
30
0
11
1434.47901079915
21
-176.807460878943
31
0
0
LINE
8
layer0
10
1434.47901079915
20
-176.807460878943
30
0
11
1451.79951887484
21
-181.807460878943
31
0
0
LINE
8
layer0
10
1451.79951887484
20
-181.807460878943
30
0
11
1461.79951887484
21
-173.147206841099
31
0
0
LINE
8
layer0
10
1444.47901079915
20
-176.807460878943
30
0
11
1461.79951887484
21
-181.807460878943
31
0
0
LINE
8
layer0
10
1461.79951887484
20
-181.807460878943
30
0
11
1451.79951887484
21
-190.467714916788
31
0
0
LINE
8
layer0
10
1451.79951887484
20
-190.467714916788
30
0
11
1434.47901079915
21
-185.467714916788
31
0
0
LINE
8
layer0
10
1434.47901079915
20
-185.467714916788
30
0
11
1444.47901079915
21
-176.807460878943
31
0
0
ENDBLK
0
BLOCK
8
layer0
2
PF_OBJECT32
70
0
10
0
20
0
30
0
0
LINE
8
layer0
10
1834.66416306052
20
-725.632340597654
30
0
11
1320.24507321256
21
-577.132340597654
31
0
0
LINE
8
layer0
10
1320.24507321256
20
-577.132340597654
30
0
11
1320.24507321256
21
-87.8279874594458
31
0
0
LINE
8
layer0
10
1320.24507321256
20
-87.8279874594458
30
0
11
1834.66416306052
21
-236.327987459446
31
0
0
LINE
8
layer0
10
1834.66416306052
20
-236.327987459446
30
0
11
1834.66416306052
21
-725.632340597654
31
0
0
LINE
8
layer0
10
1310.24507321256
20
-585.792594635498
30
0
11
1824.66416306052
21
-734.292594635498
31
0
0
LINE
8
layer0
10
1824.66416306052
20
-734.292594635498
30
0
11
1824.66416306052
21
-244.98824149729
31
0
0
LINE
8
layer0
10
1824.66416306052
20
-244.98824149729
30
0
11
1310.24507321256
21
-96.4882414972901
31
0
0
LINE
8
layer0
10
1310.24507321256
20
-96.4882414972901
30
0
11
1310.24507321256
21
-585.792594635498
31
0
0
LINE
8
layer0
10
1320.24507321256
20
-577.132340597654
30
0
11
1310.24507321256
21
-585.792594635498
31
0
0
LINE
8
layer0
10
1310.24507321256
20
-585.792594635498
30
0
11
1310.24507321256
21
-96.4882414972901
31
0
0
LINE
8
layer0
10
1310.24507321256
20
-96.4882414972901
30
0
11
1320.24507321256
21
-87.8279874594458
31
0
0
LINE
8
layer0
10
1320.24507321256
20
-87.8279874594458
30
0
11
1320.24507321256
21
-577.132340597654
31
0
0
LINE
8
layer0
10
1824.66416306052
20
-734.292594635498
30
0
11
1834.66416306052
21
-725.632340597654
31
0
0
LINE
8
layer0
10
1834.66416306052
20
-725.632340597654
30
0
11
1834.66416306052
21
-236.327987459446
31
0
0
LINE
8
layer0
10
1834.66416306052
20
-236.327987459446
30
0
11
1824.66416306052
21
-244.98824149729
31
0
0
LINE
8
layer0
10
1824.66416306052
20
-244.98824149729
30
0
11
1824.66416306052
21
-734.292594635498
31
0
0
LINE
8
layer0
10
1834.66416306052
20
-236.327987459446
30
0
11
1320.24507321256
21
-87.8279874594458
31
0
0
LINE
8
layer0
10
1320.24507321256
20
-87.8279874594458
30
0
11
1310.24507321256
21
-96.4882414972901
31
0
0
LINE
8
layer0
10
1310.24507321256
20
-96.4882414972901
30
0
11
1824.66416306052
21
-244.98824149729
31
0
0
LINE
8
layer0
10
1824.66416306052
20
-244.98824149729
30
0
11
1834.66416306052
21
-236.327987459446
31
0
0
LINE
8
layer0
10
1320.24507321256
20
-577.132340597654
30
0
11
1834.66416306052
21
-725.632340597654
31
0
0
LINE
8
layer0
10
1834.66416306052
20
-725.632340597654
30
0
11
1824.66416306052
21
-734.292594635498
31
0
0
LINE
8
layer0
10
1824.66416306052
20
-734.292594635498
30
0
11
1310.24507321256
21
-585.792594635498
31
0
0
LINE
8
layer0
10
1310.24507321256
20
-585.792594635498
30
0
11
1320.24507321256
21
-577.132340597654
31
0
0
ENDBLK
0
BLOCK
8
layer0
2
PF_OBJECT33
70
0
10
0
20
0
30
0
0
LINE
8
layer0
10
1110.47404107115
20
-378.301270189222
30
0
11
1075.83302491977
21
-368.301270189222
31
0
0
LINE
8
layer0
10
1075.83302491977
20
-368.301270189222
30
0
11
1075.83302491977
21
-238.397459621556
31
0
0
LINE
8
layer0
10
1075.83302491977
20
-238.397459621556
30
0
11
1110.47404107115
21
-248.397459621556
31
0
0
LINE
8
layer0
10
1110.47404107115
20
-248.397459621556
30
0
11
1110.47404107115
21
-378.301270189222
31
0
0
LINE
8
layer0
10
1055.83302491977
20
-385.621778264911
30
0
11
1090.47404107115
21
-395.621778264911
31
0
0
LINE
8
layer0
10
1090.47404107115
20
-395.621778264911
30
0
11
1090.47404107115
21
-265.717967697245
31
0
0
LINE
8
layer0
10
1090.47404107115
20
-265.717967697245
30
0
11
1055.83302491977
21
-255.717967697245
31
0
0
LINE
8
layer0
10
1055.83302491977
20
-255.717967697245
30
0
11
1055.83302491977
21
-385.621778264911
31
0
0
LINE
8
layer0
10
1075.83302491977
20
-368.301270189222
30
0
11
1055.83302491977
21
-385.621778264911
31
0
0
LINE
8
layer0
10
1055.83302491977
20
-385.621778264911
30
0
11
1055.83302491977
21
-255.717967697245
31
0
0
LINE
8
layer0
10
1055.83302491977
20
-255.717967697245
30
0
11
1075.83302491977
21
-238.397459621556
31
0
0
LINE
8
layer0
10
1075.83302491977
20
-238.397459621556
30
0
11
1075.83302491977
21
-368.301270189222
31
0
0
LINE
8
layer0
10
1090.47404107115
20
-395.621778264911
30
0
11
1110.47404107115
21
-378.301270189222
31
0
0
LINE
8
layer0
10
1110.47404107115
20
-378.301270189222
30
0
11
1110.47404107115
21
-248.397459621556
31
0
0
LINE
8
layer0
10
1110.47404107115
20
-248.397459621556
30
0
11
1090.47404107115
21
-265.717967697245
31
0
0
LINE
8
layer0
10
1090.47404107115
20
-265.717967697245
30
0
11
1090.47404107115
21
-395.621778264911
31
0
0
LINE
8
layer0
10
1110.47404107115
20
-248.397459621556
30
0
11
1075.83302491977
21
-238.397459621556
31
0
0
LINE
8
layer0
10
1075.83302491977
20
-238.397459621556
30
0
11
1055.83302491977
21
-255.717967697245
31
0
0
LINE
8
layer0
10
1055.83302491977
20
-255.717967697245
30
0
11
1090.47404107115
21
-265.717967697245
31
0
0
LINE
8
layer0
10
1090.47404107115
20
-265.717967697245
30
0
11
1110.47404107115
21
-248.397459621556
31
0
0
LINE
8
layer0
10
1075.83302491977
20
-368.301270189222
30
0
11
1110.47404107115
21
-378.301270189222
31
0
0
LINE
8
layer0
10
1110.47404107115
20
-378.301270189222
30
0
11
1090.47404107115
21
-395.621778264911
31
0
0
LINE
8
layer0
10
1090.47404107115
20
-395.621778264911
30
0
11
1055.83302491977
21
-385.621778264911
31
0
0
LINE
8
layer0
10
1055.83302491977
20
-385.621778264911
30
0
11
1075.83302491977
21
-368.301270189222
31
0
0
ENDBLK
0
BLOCK
8
layer0
2
PF_OBJECT34
70
0
10
0
20
0
30
0
0
LINE
8
layer0
10
952.474041071148
20
-515.133283987163
30
0
11
917.83302491977
21
-505.133283987163
31
0
0
LINE
8
layer0
10
917.83302491977
20
-505.133283987163
30
0
11
917.83302491977
21
-375.229473419497
31
0
0
LINE
8
layer0
10
917.83302491977
20
-375.229473419497
30
0
11
952.474041071148
21
-385.229473419497
31
0
0
LINE
8
layer0
10
952.474041071148
20
-385.229473419497
30
0
11
952.474041071148
21
-515.133283987163
31
0
0
LINE
8
layer0
10
897.83302491977
20
-522.453792062852
30
0
11
932.474041071148
21
-532.453792062852
31
0
0
LINE
8
layer0
10
932.474041071148
20
-532.453792062852
30
0
11
932.474041071148
21
-402.549981495186
31
0
0
LINE
8
layer0
10
932.474041071148
20
-402.549981495186
30
0
11
897.83302491977
21
-392.549981495186
31
0
0
LINE
8
layer0
10
897.83302491977
20
-392.549981495186
30
0
11
897.83302491977
21
-522.453792062852
31
0
0
LINE
8
layer0
10
917.83302491977
20
-505.133283987163
30
0
11
897.83302491977
21
-522.453792062852
31
0
0
LINE
8
layer0
10
897.83302491977
20
-522.453792062852
30
0
11
897.83302491977
21
-392.549981495186
31
0
0
LINE
8
layer0
10
897.83302491977
20
-392.549981495186
30
0
11
917.83302491977
21
-375.229473419497
31
0
0
LINE
8
layer0
10
917.83302491977
20
-375.229473419497
30
0
11
917.83302491977
21
-505.133283987163
31
0
0
LINE
8
layer0
10
932.474041071148
20
-532.453792062852
30
0
11
952.474041071148
21
-515.133283987163
31
0
0
LINE
8
layer0
10
952.474041071148
20
-515.133283987163
30
0
11
952.474041071148
21
-385.229473419497
31
0
0
LINE
8
layer0
10
952.474041071148
20
-385.229473419497
30
0
11
932.474041071148
21
-402.549981495186
31
0
0
LINE
8
layer0
10
932.474041071148
20
-402.549981495186
30
0
11
932.474041071148
21
-532.453792062852
31
0
0
LINE
8
layer0
10
952.474041071148
20
-385.229473419497
30
0
11
917.83302491977
21
-375.229473419497
31
0
0
LINE
8
layer0
10
917.83302491977
20
-375.229473419497
30
0
11
897.83302491977
21
-392.549981495186
31
0
0
LINE
8
layer0
10
897.83302491977
20
-392.549981495186
30
0
11
932.474041071148
21
-402.549981495186
31
0
0
LINE
8
layer0
10
932.474041071148
20
-402.549981495186
30
0
11
952.474041071148
21
-385.229473419497
31
0
0
LINE
8
layer0
10
917.83302491977
20
-505.133283987163
30
0
11
952.474041071148
21
-515.133283987163
31
0
0
LINE
8
layer0
10
952.474041071148
20
-515.133283987163
30
0
11
932.474041071148
21
-532.453792062852
31
0
0
LINE
8
layer0
10
932.474041071148
20
-532.453792062852
30
0
11
897.83302491977
21
-522.453792062852
31
0
0
LINE
8
layer0
10
897.83302491977
20
-522.453792062852
30
0
11
917.83302491977
21
-505.133283987163
31
0
0
ENDBLK
0
BLOCK
8
layer0
2
PF_OBJECT35
70
0
10
0
20
0
30
0
0
LINE
8
layer0
10
1411.4675050769
20
-647.633283987163
30
0
11
1376.82648892552
21
-637.633283987163
31
0
0
LINE
8
layer0
10
1376.82648892552
20
-637.633283987163
30
0
11
1376.82648892552
21
-507.729473419497
31
0
0
LINE
8
layer0
10
1376.82648892552
20
-507.729473419497
30
0
11
1411.4675050769
21
-517.729473419497
31
0
0
LINE
8
layer0
10
1411.4675050769
20
-517.729473419497
30
0
11
1411.4675050769
21
-647.633283987163
31
0
0
LINE
8
layer0
10
1356.82648892552
20
-654.953792062852
30
0
11
1391.4675050769
21
-664.953792062852
31
0
0
LINE
8
layer0
10
1391.4675050769
20
-664.953792062852
30
0
11
1391.4675050769
21
-535.049981495186
31
0
0
LINE
8
layer0
10
1391.4675050769
20
-535.049981495186
30
0
11
1356.82648892552
21
-525.049981495186
31
0
0
LINE
8
layer0
10
1356.82648892552
20
-525.049981495186
30
0
11
1356.82648892552
21
-654.953792062852
31
0
0
LINE
8
layer0
10
1376.82648892552
20
-637.633283987163
30
0
11
1356.82648892552
21
-654.953792062852
31
0
0
LINE
8
layer0
10
1356.82648892552
20
-654.953792062852
30
0
11
1356.82648892552
21
-525.049981495186
31
0
0
LINE
8
layer0
10
1356.82648892552
20
-525.049981495186
30
0
11
1376.82648892552
21
-507.729473419497
31
0
0
LINE
8
layer0
10
1376.82648892552
20
-507.729473419497
30
0
11
1376.82648892552
21
-637.633283987163
31
0
0
LINE
8
layer0
10
1391.4675050769
20
-664.953792062852
30
0
11
1411.4675050769
21
-647.633283987163
31
0
0
LINE
8
layer0
10
1411.4675050769
20
-647.633283987163
30
0
11
1411.4675050769
21
-517.729473419497
31
0
0
LINE
8
layer0
10
1411.4675050769
20
-517.729473419497
30
0
11
1391.4675050769
21
-535.049981495186
31
0
0
LINE
8
layer0
10
1391.4675050769
20
-535.049981495186
30
0
11
1391.4675050769
21
-664.953792062852
31
0
0
LINE
8
layer0
10
1411.4675050769
20
-517.729473419497
30
0
11
1376.82648892552
21
-507.729473419497
31
0
0
LINE
8
layer0
10
1376.82648892552
20
-507.729473419497
30
0
11
1356.82648892552
21
-525.049981495186
31
0
0
LINE
8
layer0
10
1356.82648892552
20
-525.049981495186
30
0
11
1391.4675050769
21
-535.049981495186
31
0
0
LINE
8
layer0
10
1391.4675050769
20
-535.049981495186
30
0
11
1411.4675050769
21
-517.729473419497
31
0
0
LINE
8
layer0
10
1376.82648892552
20
-637.633283987163
30
0
11
1411.4675050769
21
-647.633283987163
31
0
0
LINE
8
layer0
10
1411.4675050769
20
-647.633283987163
30
0
11
1391.4675050769
21
-664.953792062852
31
0
0
LINE
8
layer0
10
1391.4675050769
20
-664.953792062852
30
0
11
1356.82648892552
21
-654.953792062852
31
0
0
LINE
8
layer0
10
1356.82648892552
20
-654.953792062852
30
0
11
1376.82648892552
21
-637.633283987163
31
0
0
ENDBLK
0
BLOCK
8
layer0
2
PF_OBJECT36
70
0
10
0
20
0
30
0
0
LINE
8
layer0
10
2028.46096908265
20
-643.301270189222
30
0
11
1993.81995293128
21
-633.301270189222
31
0
0
LINE
8
layer0
10
1993.81995293128
20
-633.301270189222
30
0
11
1993.81995293128
21
-503.397459621556
31
0
0
LINE
8
layer0
10
1993.81995293128
20
-503.397459621556
30
0
11
2028.46096908265
21
-513.397459621556
31
0
0
LINE
8
layer0
10
2028.46096908265
20
-513.397459621556
30
0
11
2028.46096908265
21
-643.301270189222
31
0
0
LINE
8
layer0
10
1973.81995293128
20
-650.621778264911
30
0
11
2008.46096908265
21
-660.621778264911
31
0
0
LINE
8
layer0
10
2008.46096908265
20
-660.621778264911
30
0
11
2008.46096908265
21
-530.717967697245
31
0
0
LINE
8
layer0
10
2008.46096908265
20
-530.717967697245
30
0
11
1973.81995293128
21
-520.717967697245
31
0
0
LINE
8
layer0
10
1973.81995293128
20
-520.717967697245
30
0
11
1973.81995293128
21
-650.621778264911
31
0
0
LINE
8
layer0
10
1993.81995293128
20
-633.301270189222
30
0
11
1973.81995293128
21
-650.621778264911
31
0
0
LINE
8
layer0
10
1973.81995293128
20
-650.621778264911
30
0
11
1973.81995293128
21
-520.717967697245
31
0
0
LINE
8
layer0
10
1973.81995293128
20
-520.717967697245
30
0
11
1993.81995293128
21
-503.397459621556
31
0
0
LINE
8
layer0
10
1993.81995293128
20
-503.397459621556
30
0
11
1993.81995293128
21
-633.301270189222
31
0
0
LINE
8
layer0
10
2008.46096908265
20
-660.621778264911
30
0
11
2028.46096908265
21
-643.301270189222
31
0
0
LINE
8
layer0
10
2028.46096908265
20
-643.301270189222
30
0
11
2028.46096908265
21
-513.397459621556
31
0
0
LINE
8
layer0
10
2028.46096908265
20
-513.397459621556
30
0
11
2008.46096908265
21
-530.717967697245
31
0
0
LINE
8
layer0
10
2008.46096908265
20
-530.717967697245
30
0
11
2008.46096908265
21
-660.621778264911
31
0
0
LINE
8
layer0
10
2028.46096908265
20
-513.397459621556
30
0
11
1993.81995293128
21
-503.397459621556
31
0
0
LINE
8
layer0
10
1993.81995293128
20
-503.397459621556
30
0
11
1973.81995293128
21
-520.717967697245
31
0
0
LINE
8
layer0
10
1973.81995293128
20
-520.717967697245
30
0
11
2008.46096908265
21
-530.717967697245
31
0
0
LINE
8
layer0
10
2008.46096908265
20
-530.717967697245
30
0
11
2028.46096908265
21
-513.397459621556
31
0
0
LINE
8
layer0
10
1993.81995293128
20
-633.301270189222
30
0
11
2028.46096908265
21
-643.301270189222
31
0
0
LINE
8
layer0
10
2028.46096908265
20
-643.301270189222
30
0
11
2008.46096908265
21
-660.621778264911
31
0
0
LINE
8
layer0
10
2008.46096908265
20
-660.621778264911
30
0
11
1973.81995293128
21
-650.621778264911
31
0
0
LINE
8
layer0
10
1973.81995293128
20
-650.621778264911
30
0
11
1993.81995293128
21
-633.301270189222
31
0
0
ENDBLK
0
BLOCK
8
layer0
2
PF_OBJECT37
70
0
10
0
20
0
30
0
0
LINE
8
layer0
10
1870.46096908265
20
-780.133283987163
30
0
11
1835.81995293128
21
-770.133283987163
31
0
0
LINE
8
layer0
10
1835.81995293128
20
-770.133283987163
30
0
11
1835.81995293128
21
-640.229473419497
31
0
0
LINE
8
layer0
10
1835.81995293128
20
-640.229473419497
30
0
11
1870.46096908265
21
-650.229473419497
31
0
0
LINE
8
layer0
10
1870.46096908265
20
-650.229473419497
30
0
11
1870.46096908265
21
-780.133283987163
31
0
0
LINE
8
layer0
10
1815.81995293128
20
-787.453792062852
30
0
11
1850.46096908265
21
-797.453792062852
31
0
0
LINE
8
layer0
10
1850.46096908265
20
-797.453792062852
30
0
11
1850.46096908265
21
-667.549981495186
31
0
0
LINE
8
layer0
10
1850.46096908265
20
-667.549981495186
30
0
11
1815.81995293128
21
-657.549981495186
31
0
0
LINE
8
layer0
10
1815.81995293128
20
-657.549981495186
30
0
11
1815.81995293128
21
-787.453792062852
31
0
0
LINE
8
layer0
10
1835.81995293128
20
-770.133283987163
30
0
11
1815.81995293128
21
-787.453792062852
31
0
0
LINE
8
layer0
10
1815.81995293128
20
-787.453792062852
30
0
11
1815.81995293128
21
-657.549981495186
31
0
0
LINE
8
layer0
10
1815.81995293128
20
-657.549981495186
30
0
11
1835.81995293128
21
-640.229473419497
31
0
0
LINE
8
layer0
10
1835.81995293128
20
-640.229473419497
30
0
11
1835.81995293128
21
-770.133283987163
31
0
0
LINE
8
layer0
10
1850.46096908265
20
-797.453792062852
30
0
11
1870.46096908265
21
-780.133283987163
31
0
0
LINE
8
layer0
10
1870.46096908265
20
-780.133283987163
30
0
11
1870.46096908265
21
-650.229473419497
31
0
0
LINE
8
layer0
10
1870.46096908265
20
-650.229473419497
30
0
11
1850.46096908265
21
-667.549981495186
31
0
0
LINE
8
layer0
10
1850.46096908265
20
-667.549981495186
30
0
11
1850.46096908265
21
-797.453792062852
31
0
0
LINE
8
layer0
10
1870.46096908265
20
-650.229473419497
30
0
11
1835.81995293128
21
-640.229473419497
31
0
0
LINE
8
layer0
10
1835.81995293128
20
-640.229473419497
30
0
11
1815.81995293128
21
-657.549981495186
31
0
0
LINE
8
layer0
10
1815.81995293128
20
-657.549981495186
30
0
11
1850.46096908265
21
-667.549981495186
31
0
0
LINE
8
layer0
10
1850.46096908265
20
-667.549981495186
30
0
11
1870.46096908265
21
-650.229473419497
31
0
0
LINE
8
layer0
10
1835.81995293128
20
-770.133283987163
30
0
11
1870.46096908265
21
-780.133283987163
31
0
0
LINE
8
layer0
10
1870.46096908265
20
-780.133283987163
30
0
11
1850.46096908265
21
-797.453792062852
31
0
0
LINE
8
layer0
10
1850.46096908265
20
-797.453792062852
30
0
11
1815.81995293128
21
-787.453792062852
31
0
0
LINE
8
layer0
10
1815.81995293128
20
-787.453792062852
30
0
11
1835.81995293128
21
-770.133283987163
31
0
0
ENDBLK
0
BLOCK
8
layer0
70
0
10
0
20
0
30
0
2
PF_SKETCH38
0
LINE
8
layer0
10
1035.36508806388
20
274.520886198552
30
0
11
988.198421397215
21
233.673354653386
31
0
0
ENDBLK
0
BLOCK
8
layer0
70
0
10
0
20
0
30
0
2
PF_SKETCH39
0
LINE
8
layer0
10
2074.59557260521
20
-25.4791138014479
30
0
11
2027.42890593854
21
-66.3266453466139
31
0
0
ENDBLK
0
BLOCK
8
layer0
70
0
10
0
20
0
30
0
2
PF_SKETCH40
0
LINE
8
layer0
10
941.031754730548
20
192.82582310822
30
0
11
893.865088063882
21
151.978291563054
31
0
0
ENDBLK
0
BLOCK
8
layer0
70
0
10
0
20
0
30
0
2
PF_SKETCH41
0
LINE
8
layer0
10
1980.26223927187
20
-107.17417689178
30
0
11
1933.09557260521
21
-148.021708436946
31
0
0
ENDBLK
0
BLOCK
8
layer0
70
0
10
0
20
0
30
0
2
PF_SKETCH42
0
LINE
8
layer0
10
846.698421397215
20
111.130760017888
30
0
11
799.531754730548
21
70.283228472722
31
0
0
ENDBLK
0
BLOCK
8
layer0
70
0
10
0
20
0
30
0
2
PF_SKETCH43
0
LINE
8
layer0
10
1885.92890593854
20
-188.869239982112
30
0
11
1838.76223927187
21
-229.716771527278
31
0
0
ENDBLK
0
BLOCK
8
layer0
2
PF_OBJECT44
70
0
10
0
20
0
30
0
0
LINE
8
layer0
10
316.772918920436
20
-261.762794416288
30
0
11
316.772918920436
21
-391.666604983954
31
0
0
LINE
8
layer0
10
316.772918920436
20
-391.666604983954
30
0
11
576.772918920436
21
-166.5
31
0
0
LINE
8
layer0
10
576.772918920436
20
-166.5
30
0
11
576.772918920436
21
-36.5961894323342
31
0
0
LINE
8
layer0
10
576.772918920436
20
-36.5961894323342
30
0
11
316.772918920436
21
-261.762794416288
31
0
0
LINE
8
layer0
10
562.925172713923
20
-162.5025
30
0
11
576.772918920436
21
-166.5
31
0
0
LINE
8
layer0
10
576.772918920436
20
-166.5
30
0
11
316.772918920436
21
-391.666604983954
31
0
0
LINE
8
layer0
10
316.772918920436
20
-391.666604983954
30
0
11
302.925172713923
21
-387.669104983954
31
0
0
LINE
8
layer0
10
302.925172713923
20
-387.669104983954
30
0
11
562.925172713923
21
-162.5025
31
0
0
LINE
8
layer0
10
562.925172713923
20
-32.5986894323342
30
0
11
576.772918920436
21
-36.5961894323342
31
0
0
LINE
8
layer0
10
576.772918920436
20
-36.5961894323342
30
0
11
576.772918920436
21
-166.5
31
0
0
LINE
8
layer0
10
576.772918920436
20
-166.5
30
0
11
562.925172713923
21
-162.5025
31
0
0
LINE
8
layer0
10
562.925172713923
20
-162.5025
30
0
11
562.925172713923
21
-32.5986894323342
31
0
0
LINE
8
layer0
10
316.772918920436
20
-261.762794416288
30
0
11
302.925172713923
21
-257.765294416288
31
0
0
LINE
8
layer0
10
302.925172713923
20
-257.765294416288
30
0
11
302.925172713923
21
-387.669104983954
31
0
0
LINE
8
layer0
10
302.925172713923
20
-387.669104983954
30
0
11
316.772918920436
21
-391.666604983954
31
0
0
LINE
8
layer0
10
316.772918920436
20
-391.666604983954
30
0
11
316.772918920436
21
-261.762794416288
31
0
0
LINE
8
layer0
10
302.925172713923
20
-257.765294416288
30
0
11
316.772918920436
21
-261.762794416288
31
0
0
LINE
8
layer0
10
316.772918920436
20
-261.762794416288
30
0
11
576.772918920436
21
-36.5961894323342
31
0
0
LINE
8
layer0
10
576.772918920436
20
-36.5961894323342
30
0
11
562.925172713923
21
-32.5986894323342
31
0
0
LINE
8
layer0
10
562.925172713923
20
-32.5986894323342
30
0
11
302.925172713923
21
-257.765294416288
31
0
0
LINE
8
layer0
10
562.925172713923
20
-32.5986894323342
30
0
11
562.925172713923
21
-162.5025
31
0
0
LINE
8
layer0
10
562.925172713923
20
-162.5025
30
0
11
302.925172713923
21
-387.669104983954
31
0
0
LINE
8
layer0
10
302.925172713923
20
-387.669104983954
30
0
11
302.925172713923
21
-257.765294416288
31
0
0
LINE
8
layer0
10
302.925172713923
20
-257.765294416288
30
0
11
562.925172713923
21
-32.5986894323342
31
0
0
ENDBLK
0
BLOCK
8
layer0
2
PF_OBJECT45
70
0
10
0
20
0
30
0
0
LINE
8
layer0
10
1861.76223927187
20
-707.762794416288
30
0
11
1861.76223927187
21
-837.666604983954
31
0
0
LINE
8
layer0
10
1861.76223927187
20
-837.666604983954
30
0
11
302.916512459885
21
-387.666604983954
31
0
0
LINE
8
layer0
10
302.916512459885
20
-387.666604983954
30
0
11
302.916512459885
21
-257.762794416288
31
0
0
LINE
8
layer0
10
302.916512459885
20
-257.762794416288
30
0
11
1861.76223927187
21
-707.762794416288
31
0
0
LINE
8
layer0
10
294.921512459885
20
-394.590478087211
30
0
11
302.916512459885
21
-387.666604983954
31
0
0
LINE
8
layer0
10
302.916512459885
20
-387.666604983954
30
0
11
1861.76223927187
21
-837.666604983954
31
0
0
LINE
8
layer0
10
1861.76223927187
20
-837.666604983954
30
0
11
1853.76723927187
21
-844.590478087211
31
0
0
LINE
8
layer0
10
1853.76723927187
20
-844.590478087211
30
0
11
294.921512459885
21
-394.590478087211
31
0
0
LINE
8
layer0
10
294.921512459885
20
-264.686667519545
30
0
11
302.916512459885
21
-257.762794416288
31
0
0
LINE
8
layer0
10
302.916512459885
20
-257.762794416288
30
0
11
302.916512459885
21
-387.666604983954
31
0
0
LINE
8
layer0
10
302.916512459885
20
-387.666604983954
30
0
11
294.921512459885
21
-394.590478087211
31
0
0
LINE
8
layer0
10
294.921512459885
20
-394.590478087211
30
0
11
294.921512459885
21
-264.686667519545
31
0
0
LINE
8
layer0
10
1861.76223927187
20
-707.762794416288
30
0
11
1853.76723927188
21
-714.686667519545
31
0
0
LINE
8
layer0
10
1853.76723927188
20
-714.686667519545
30
0
11
1853.76723927188
21
-844.590478087211
31
0
0
LINE
8
layer0
10
1853.76723927188
20
-844.590478087211
30
0
11
1861.76223927187
21
-837.666604983954
31
0
0
LINE
8
layer0
10
1861.76223927187
20
-837.666604983954
30
0
11
1861.76223927187
21
-707.762794416288
31
0
0
LINE
8
layer0
10
1853.76723927188
20
-714.686667519545
30
0
11
1861.76223927187
21
-707.762794416288
31
0
0
LINE
8
layer0
10
1861.76223927187
20
-707.762794416288
30
0
11
302.916512459885
21
-257.762794416288
31
0
0
LINE
8
layer0
10
302.916512459885
20
-257.762794416288
30
0
11
294.921512459885
21
-264.686667519545
31
0
0
LINE
8
layer0
10
294.921512459885
20
-264.686667519545
30
0
11
1853.76723927188
21
-714.686667519545
31
0
0
LINE
8
layer0
10
294.921512459885
20
-264.686667519545
30
0
11
294.921512459885
21
-394.590478087211
31
0
0
LINE
8
layer0
10
294.921512459885
20
-394.590478087211
30
0
11
1853.76723927187
21
-844.59047808721
31
0
0
LINE
8
layer0
10
1853.76723927187
20
-844.59047808721
30
0
11
1853.76723927188
21
-714.686667519545
31
0
0
LINE
8
layer0
10
1853.76723927188
20
-714.686667519545
30
0
11
294.921512459885
21
-264.686667519545
31
0
0
ENDBLK
0
BLOCK
8
layer0
2
PF_OBJECT46
70
0
10
0
20
0
30
0
0
LINE
8
layer0
10
2107.90583281132
20
-478.596189432334
30
0
11
2107.90583281132
21
-608.5
31
0
0
LINE
8
layer0
10
2107.90583281132
20
-608.5
30
0
11
1847.90583281132
21
-833.666604983954
31
0
0
LINE
8
layer0
10
1847.90583281132
20
-833.666604983954
30
0
11
1847.90583281132
21
-703.762794416288
31
0
0
LINE
8
layer0
10
1847.90583281132
20
-703.762794416288
30
0
11
2107.90583281132
21
-478.596189432334
31
0
0
LINE
8
layer0
10
1861.75357901784
20
-837.664104983954
30
0
11
1847.90583281132
21
-833.666604983954
31
0
0
LINE
8
layer0
10
1847.90583281132
20
-833.666604983954
30
0
11
2107.90583281132
21
-608.5
31
0
0
LINE
8
layer0
10
2107.90583281132
20
-608.5
30
0
11
2121.75357901784
21
-612.4975
31
0
0
LINE
8
layer0
10
2121.75357901784
20
-612.4975
30
0
11
1861.75357901784
21
-837.664104983954
31
0
0
LINE
8
layer0
10
1861.75357901784
20
-707.760294416288
30
0
11
1847.90583281132
21
-703.762794416288
31
0
0
LINE
8
layer0
10
1847.90583281132
20
-703.762794416288
30
0
11
1847.90583281132
21
-833.666604983954
31
0
0
LINE
8
layer0
10
1847.90583281132
20
-833.666604983954
30
0
11
1861.75357901784
21
-837.664104983954
31
0
0
LINE
8
layer0
10
1861.75357901784
20
-837.664104983954
30
0
11
1861.75357901784
21
-707.760294416288
31
0
0
LINE
8
layer0
10
2107.90583281132
20
-478.596189432334
30
0
11
2121.75357901784
21
-482.593689432334
31
0
0
LINE
8
layer0
10
2121.75357901784
20
-482.593689432334
30
0
11
2121.75357901784
21
-612.4975
31
0
0
LINE
8
layer0
10
2121.75357901784
20
-612.4975
30
0
11
2107.90583281132
21
-608.5
31
0
0
LINE
8
layer0
10
2107.90583281132
20
-608.5
30
0
11
2107.90583281132
21
-478.596189432334
31
0
0
LINE
8
layer0
10
2121.75357901784
20
-482.593689432334
30
0
11
2107.90583281132
21
-478.596189432334
31
0
0
LINE
8
layer0
10
2107.90583281132
20
-478.596189432334
30
0
11
1847.90583281132
21
-703.762794416288
31
0
0
LINE
8
layer0
10
1847.90583281132
20
-703.762794416288
30
0
11
1861.75357901784
21
-707.760294416288
31
0
0
LINE
8
layer0
10
1861.75357901784
20
-707.760294416288
30
0
11
2121.75357901784
21
-482.593689432334
31
0
0
LINE
8
layer0
10
1861.75357901784
20
-707.760294416288
30
0
11
1861.75357901784
21
-837.664104983954
31
0
0
LINE
8
layer0
10
1861.75357901784
20
-837.664104983954
30
0
11
2121.75357901784
21
-612.4975
31
0
0
LINE
8
layer0
10
2121.75357901784
20
-612.4975
30
0
11
2121.75357901784
21
-482.593689432334
31
0
0
LINE
8
layer0
10
2121.75357901784
20
-482.593689432334
30
0
11
1861.75357901784
21
-707.760294416288
31
0
0
ENDBLK
0
BLOCK
8
layer0
2
PF_OBJECT47
70
0
10
0
20
0
30
0
0
LINE
8
layer0
10
2126.0923662908
20
14.1184177437181
30
0
11
1318.22122446707
21
247.330728344947
31
0
0
LINE
8
layer0
10
1318.22122446707
20
247.330728344947
30
0
11
1318.22122446707
21
271.579439650912
31
0
0
LINE
8
layer0
10
1318.22122446707
20
271.579439650912
30
0
11
2126.0923662908
21
38.3671290496824
31
0
0
LINE
8
layer0
10
2126.0923662908
20
38.3671290496824
30
0
11
2126.0923662908
21
14.1184177437181
31
0
0
LINE
8
layer0
10
1245.04426483591
20
292.703808321676
30
0
11
1245.04426483591
21
268.455097015712
31
0
0
LINE
8
layer0
10
1245.04426483591
20
268.455097015712
30
0
11
554.256258422041
21
467.868417743718
31
0
0
LINE
8
layer0
10
554.256258422041
20
467.868417743718
30
0
11
554.256258422041
21
492.117129049682
31
0
0
LINE
8
layer0
10
554.256258422041
20
492.117129049682
30
0
11
1245.04426483591
21
292.703808321676
31
0
0
LINE
8
layer0
10
1314.97472269719
20
272.516623986294
30
0
11
1314.97472269719
21
248.26791268033
31
0
0
LINE
8
layer0
10
1314.97472269719
20
248.26791268033
30
0
11
1245.04426483591
21
268.455097015712
31
0
0
LINE
8
layer0
10
1245.04426483591
20
268.455097015712
30
0
11
1245.04426483591
21
292.703808321676
31
0
0
LINE
8
layer0
10
1245.04426483591
20
292.703808321676
30
0
11
1314.97472269719
21
272.516623986294
31
0
0
LINE
8
layer0
10
1318.22122446707
20
271.579439650912
30
0
11
1318.22122446707
21
247.330728344947
31
0
0
LINE
8
layer0
10
1318.22122446707
20
247.330728344947
30
0
11
1314.97472269719
21
248.26791268033
31
0
0
LINE
8
layer0
10
1314.97472269719
20
248.26791268033
30
0
11
1314.97472269719
21
272.516623986294
31
0
0
LINE
8
layer0
10
1314.97472269719
20
272.516623986294
30
0
11
1318.22122446707
21
271.579439650912
31
0
0
LINE
8
layer0
10
254.256258422041
20
208.060796608386
30
0
11
1826.0923662908
21
-245.689203391614
31
0
0
LINE
8
layer0
10
1826.0923662908
20
-245.689203391614
30
0
11
1826.0923662908
21
-221.440492085649
31
0
0
LINE
8
layer0
10
1826.0923662908
20
-221.440492085649
30
0
11
254.256258422041
21
232.309507914351
31
0
0
LINE
8
layer0
10
254.256258422041
20
232.309507914351
30
0
11
254.256258422041
21
208.060796608386
31
0
0
LINE
8
layer0
10
554.256258422041
20
467.868417743718
30
0
11
516.756258422041
21
435.392465101802
31
0
0
LINE
8
layer0
10
516.756258422041
20
435.392465101802
30
0
11
516.756258422041
21
459.641176407766
31
0
0
LINE
8
layer0
10
516.756258422041
20
459.641176407766
30
0
11
554.256258422041
21
492.117129049682
31
0
0
LINE
8
layer0
10
554.256258422041
20
492.117129049682
30
0
11
554.256258422041
21
467.868417743718
31
0
0
LINE
8
layer0
10
294.256258422041
20
266.950524065728
30
0
11
294.256258422041
21
242.701812759764
31
0
0
LINE
8
layer0
10
294.256258422041
20
242.701812759764
30
0
11
254.256258422041
21
208.060796608386
31
0
0
LINE
8
layer0
10
254.256258422041
20
208.060796608386
30
0
11
254.256258422041
21
232.309507914351
31
0
0
LINE
8
layer0
10
254.256258422041
20
232.309507914351
30
0
11
294.256258422041
21
266.950524065728
31
0
0
LINE
8
layer0
10
516.756258422041
20
459.641176407766
30
0
11
516.756258422041
21
435.392465101802
31
0
0
LINE
8
layer0
10
516.756258422041
20
435.392465101802
30
0
11
294.256258422041
21
242.701812759764
31
0
0
LINE
8
layer0
10
294.256258422041
20
242.701812759764
30
0
11
294.256258422041
21
266.950524065728
31
0
0
LINE
8
layer0
10
294.256258422041
20
266.950524065728
30
0
11
516.756258422041
21
459.641176407766
31
0
0
LINE
8
layer0
10
2088.5923662908
20
5.8911764077659
30
0
11
2088.5923662908
21
-18.3575348981983
31
0
0
LINE
8
layer0
10
2088.5923662908
20
-18.3575348981983
30
0
11
2126.0923662908
21
14.1184177437181
31
0
0
LINE
8
layer0
10
2126.0923662908
20
14.1184177437181
30
0
11
2126.0923662908
21
38.3671290496824
31
0
0
LINE
8
layer0
10
2126.0923662908
20
38.3671290496824
30
0
11
2088.5923662908
21
5.8911764077659
31
0
0
LINE
8
layer0
10
1826.0923662908
20
-245.689203391614
30
0
11
1866.0923662908
21
-211.048187240236
31
0
0
LINE
8
layer0
10
1866.0923662908
20
-211.048187240236
30
0
11
1866.0923662908
21
-186.799475934272
31
0
0
LINE
8
layer0
10
1866.0923662908
20
-186.799475934272
30
0
11
1826.0923662908
21
-221.440492085649
31
0
0
LINE
8
layer0
10
1826.0923662908
20
-221.440492085649
30
0
11
1826.0923662908
21
-245.689203391614
31
0
0
LINE
8
layer0
10
1866.0923662908
20
-186.799475934272
30
0
11
1866.0923662908
21
-211.048187240236
31
0
0
LINE
8
layer0
10
1866.0923662908
20
-211.048187240236
30
0
11
2088.5923662908
21
-18.3575348981983
31
0
0
LINE
8
layer0
10
2088.5923662908
20
-18.3575348981983
30
0
11
2088.5923662908
21
5.8911764077659
31
0
0
LINE
8
layer0
10
2088.5923662908
20
5.8911764077659
30
0
11
1866.0923662908
21
-186.799475934272
31
0
0
LINE
8
layer0
10
1437.52899510527
20
169.588271408535
30
0
11
1318.22122446707
21
247.330728344947
31
0
0
LINE
8
layer0
10
1318.22122446707
20
247.330728344947
30
0
11
2126.0923662908
21
14.1184177437181
31
0
0
LINE
8
layer0
10
2126.0923662908
20
14.1184177437181
30
0
11
2088.5923662908
21
-18.3575348981983
31
0
0
LINE
8
layer0
10
2088.5923662908
20
-18.3575348981983
30
0
11
1437.52899510527
21
169.588271408535
31
0
0
LINE
8
layer0
10
1334.68957190018
20
199.275455743918
30
0
11
1343.07801431648
21
231.133728735383
31
0
0
LINE
8
layer0
10
1343.07801431648
20
231.133728735383
30
0
11
1437.52899510527
21
169.588271408535
31
0
0
LINE
8
layer0
10
1437.52899510527
20
169.588271408535
30
0
11
1334.68957190018
21
199.275455743918
31
0
0
LINE
8
layer0
10
1300.96994194511
20
209.009474459685
30
0
11
1341.32975692265
21
224.494062090736
31
0
0
LINE
8
layer0
10
1341.32975692265
20
224.494062090736
30
0
11
1334.68957190018
21
199.275455743918
31
0
0
LINE
8
layer0
10
1334.68957190018
20
199.275455743918
30
0
11
1300.96994194511
21
209.009474459685
31
0
0
LINE
8
layer0
10
1240.99658923873
20
226.322290124303
30
0
11
1330.70364564571
21
220.417211110707
31
0
0
LINE
8
layer0
10
1330.70364564571
20
220.417211110707
30
0
11
1300.96994194511
21
209.009474459685
31
0
0
LINE
8
layer0
10
1300.96994194511
20
209.009474459685
30
0
11
1240.99658923873
21
226.322290124303
31
0
0
LINE
8
layer0
10
554.256258422041
20
467.868417743718
30
0
11
1245.04426483591
21
268.455097015712
31
0
0
LINE
8
layer0
10
1245.04426483591
20
268.455097015712
30
0
11
1317.42431235642
21
221.291339807622
31
0
0
LINE
8
layer0
10
1317.42431235642
20
221.291339807622
30
0
11
1240.99658923873
21
226.322290124303
31
0
0
LINE
8
layer0
10
1240.99658923873
20
226.322290124303
30
0
11
516.756258422041
21
435.392465101802
31
0
0
LINE
8
layer0
10
516.756258422041
20
435.392465101802
30
0
11
554.256258422041
21
467.868417743718
31
0
0
LINE
8
layer0
10
1314.97472269719
20
248.26791268033
30
0
11
1309.27061039636
21
226.604395446089
31
0
0
LINE
8
layer0
10
1309.27061039636
20
226.604395446089
30
0
11
1245.04426483591
21
268.455097015712
31
0
0
LINE
8
layer0
10
1245.04426483591
20
268.455097015712
30
0
11
1314.97472269719
21
248.26791268033
31
0
0
LINE
8
layer0
10
1329.15877440869
20
240.203682044631
30
0
11
1311.01886779019
21
233.244062090736
31
0
0
LINE
8
layer0
10
1311.01886779019
20
233.244062090736
30
0
11
1314.97472269719
21
248.26791268033
31
0
0
LINE
8
layer0
10
1314.97472269719
20
248.26791268033
30
0
11
1318.22122446707
21
247.330728344947
31
0
0
LINE
8
layer0
10
1318.22122446707
20
247.330728344947
30
0
11
1329.15877440869
21
240.203682044631
31
0
0
LINE
8
layer0
10
1334.92431235642
20
236.44678437385
30
0
11
1321.64497906713
21
237.320913070765
31
0
0
LINE
8
layer0
10
1321.64497906713
20
237.320913070765
30
0
11
1329.15877440869
21
240.203682044631
31
0
0
LINE
8
layer0
10
1329.15877440869
20
240.203682044631
30
0
11
1334.92431235642
21
236.44678437385
31
0
0
LINE
8
layer0
10
294.256258422041
20
242.701812759764
30
0
11
1866.0923662908
21
-211.048187240236
31
0
0
LINE
8
layer0
10
1866.0923662908
20
-211.048187240236
30
0
11
1826.0923662908
21
-245.689203391614
31
0
0
LINE
8
layer0
10
1826.0923662908
20
-245.689203391614
30
0
11
254.256258422041
21
208.060796608386
31
0
0
LINE
8
layer0
10
254.256258422041
20
208.060796608386
30
0
11
294.256258422041
21
242.701812759764
31
0
0
LINE
8
layer0
10
516.756258422041
20
435.392465101802
30
0
11
1132.93333321467
21
257.517465101802
31
0
0
LINE
8
layer0
10
1132.93333321467
20
257.517465101802
30
0
11
910.433333214669
21
64.826812759764
31
0
0
LINE
8
layer0
10
910.433333214669
20
64.826812759764
30
0
11
294.256258422041
21
242.701812759764
31
0
0
LINE
8
layer0
10
294.256258422041
20
242.701812759764
30
0
11
516.756258422041
21
435.392465101802
31
0
0
LINE
8
layer0
10
1250.78131690195
20
-33.423187240236
30
0
11
1473.28131690195
21
159.267465101802
31
0
0
LINE
8
layer0
10
1473.28131690195
20
159.267465101802
30
0
11
2088.5923662908
21
-18.3575348981983
31
0
0
LINE
8
layer0
10
2088.5923662908
20
-18.3575348981983
30
0
11
1866.0923662908
21
-211.048187240236
31
0
0
LINE
8
layer0
10
1866.0923662908
20
-211.048187240236
30
0
11
1250.78131690195
21
-33.423187240236
31
0
0
LINE
8
layer0
10
1334.92431235642
20
236.44678437385
30
0
11
1343.07801431648
21
231.133728735383
31
0
0
LINE
8
layer0
10
1343.07801431648
20
231.133728735383
30
0
11
1343.07801431648
21
255.382440041347
31
0
0
LINE
8
layer0
10
1343.07801431648
20
255.382440041347
30
0
11
1334.92431235642
21
260.695495679814
31
0
0
LINE
8
layer0
10
1334.92431235642
20
260.695495679814
30
0
11
1334.92431235642
21
236.44678437385
31
0
0
LINE
8
layer0
10
1343.07801431648
20
231.133728735383
30
0
11
1341.32975692265
21
224.494062090736
31
0
0
LINE
8
layer0
10
1341.32975692265
20
224.494062090736
30
0
11
1341.32975692265
21
248.7427733967
31
0
0
LINE
8
layer0
10
1341.32975692265
20
248.7427733967
30
0
11
1343.07801431648
21
255.382440041347
31
0
0
LINE
8
layer0
10
1343.07801431648
20
255.382440041347
30
0
11
1343.07801431648
21
231.133728735383
31
0
0
LINE
8
layer0
10
1341.32975692265
20
224.494062090736
30
0
11
1330.70364564571
21
220.417211110707
31
0
0
LINE
8
layer0
10
1330.70364564571
20
220.417211110707
30
0
11
1330.70364564571
21
244.665922416671
31
0
0
LINE
8
layer0
10
1330.70364564571
20
244.665922416671
30
0
11
1341.32975692265
21
248.7427733967
31
0
0
LINE
8
layer0
10
1341.32975692265
20
248.7427733967
30
0
11
1341.32975692265
21
224.494062090736
31
0
0
LINE
8
layer0
10
1321.64497906713
20
237.320913070765
30
0
11
1334.92431235642
21
236.44678437385
31
0
0
LINE
8
layer0
10
1334.92431235642
20
236.44678437385
30
0
11
1334.92431235642
21
260.695495679814
31
0
0
LINE
8
layer0
10
1334.92431235642
20
260.695495679814
30
0
11
1321.64497906713
21
261.56962437673
31
0
0
LINE
8
layer0
10
1321.64497906713
20
261.56962437673
30
0
11
1321.64497906713
21
237.320913070765
31
0
0
LINE
8
layer0
10
1311.01886779019
20
233.244062090736
30
0
11
1321.64497906713
21
237.320913070765
31
0
0
LINE
8
layer0
10
1321.64497906713
20
237.320913070765
30
0
11
1321.64497906713
21
261.56962437673
31
0
0
LINE
8
layer0
10
1321.64497906713
20
261.56962437673
30
0
11
1311.01886779019
21
257.4927733967
31
0
0
LINE
8
layer0
10
1311.01886779019
20
257.4927733967
30
0
11
1311.01886779019
21
233.244062090736
31
0
0
LINE
8
layer0
10
1309.27061039636
20
226.604395446089
30
0
11
1311.01886779019
21
233.244062090736
31
0
0
LINE
8
layer0
10
1311.01886779019
20
233.244062090736
30
0
11
1311.01886779019
21
257.4927733967
31
0
0
LINE
8
layer0
10
1311.01886779019
20
257.4927733967
30
0
11
1309.27061039636
21
250.853106752053
31
0
0
LINE
8
layer0
10
1309.27061039636
20
250.853106752053
30
0
11
1309.27061039636
21
226.604395446089
31
0
0
LINE
8
layer0
10
1317.42431235642
20
221.291339807622
30
0
11
1309.27061039636
21
226.604395446089
31
0
0
LINE
8
layer0
10
1309.27061039636
20
226.604395446089
30
0
11
1309.27061039636
21
250.853106752053
31
0
0
LINE
8
layer0
10
1309.27061039636
20
250.853106752053
30
0
11
1317.42431235642
21
245.540051113586
31
0
0
LINE
8
layer0
10
1317.42431235642
20
245.540051113586
30
0
11
1317.42431235642
21
221.291339807622
31
0
0
LINE
8
layer0
10
1330.70364564571
20
220.417211110707
30
0
11
1317.42431235642
21
221.291339807622
31
0
0
LINE
8
layer0
10
1317.42431235642
20
221.291339807622
30
0
11
1317.42431235642
21
245.540051113586
31
0
0
LINE
8
layer0
10
1317.42431235642
20
245.540051113586
30
0
11
1330.70364564571
21
244.665922416671
31
0
0
LINE
8
layer0
10
1330.70364564571
20
244.665922416671
30
0
11
1330.70364564571
21
220.417211110707
31
0
0
LINE
8
layer0
10
1437.52899510527
20
193.8369827145
30
0
11
1437.52899510527
21
169.588271408535
31
0
0
LINE
8
layer0
10
1437.52899510527
20
169.588271408535
30
0
11
1473.28131690195
21
159.267465101802
31
0
0
LINE
8
layer0
10
1473.28131690195
20
159.267465101802
30
0
11
1473.28131690195
21
183.516176407766
31
0
0
LINE
8
layer0
10
1473.28131690195
20
183.516176407766
30
0
11
1437.52899510527
21
193.8369827145
31
0
0
LINE
8
layer0
10
1334.68957190018
20
223.524167049882
30
0
11
1334.68957190018
21
199.275455743918
31
0
0
LINE
8
layer0
10
1334.68957190018
20
199.275455743918
30
0
11
1437.52899510527
21
169.588271408535
31
0
0
LINE
8
layer0
10
1437.52899510527
20
169.588271408535
30
0
11
1437.52899510527
21
193.8369827145
31
0
0
LINE
8
layer0
10
1437.52899510527
20
193.8369827145
30
0
11
1334.68957190018
21
223.524167049882
31
0
0
LINE
8
layer0
10
1300.96994194511
20
233.25818576565
30
0
11
1300.96994194511
21
209.009474459685
31
0
0
LINE
8
layer0
10
1300.96994194511
20
209.009474459685
30
0
11
1334.68957190018
21
199.275455743918
31
0
0
LINE
8
layer0
10
1334.68957190018
20
199.275455743918
30
0
11
1334.68957190018
21
223.524167049882
31
0
0
LINE
8
layer0
10
1334.68957190018
20
223.524167049882
30
0
11
1300.96994194511
21
233.25818576565
31
0
0
LINE
8
layer0
10
1240.99658923873
20
250.571001430268
30
0
11
1240.99658923873
21
226.322290124303
31
0
0
LINE
8
layer0
10
1240.99658923873
20
226.322290124303
30
0
11
1300.96994194511
21
209.009474459685
31
0
0
LINE
8
layer0
10
1300.96994194511
20
209.009474459685
30
0
11
1300.96994194511
21
233.25818576565
31
0
0
LINE
8
layer0
10
1300.96994194511
20
233.25818576565
30
0
11
1240.99658923873
21
250.571001430268
31
0
0
LINE
8
layer0
10
1132.93333321467
20
257.517465101802
30
0
11
1240.99658923873
21
226.322290124303
31
0
0
LINE
8
layer0
10
1240.99658923873
20
226.322290124303
30
0
11
1240.99658923873
21
250.571001430268
31
0
0
LINE
8
layer0
10
1240.99658923873
20
250.571001430268
30
0
11
1132.93333321467
21
281.766176407766
31
0
0
LINE
8
layer0
10
1132.93333321467
20
281.766176407766
30
0
11
1132.93333321467
21
257.517465101802
31
0
0
LINE
8
layer0
10
1250.78131690195
20
-33.423187240236
30
0
11
910.433333214669
21
64.826812759764
31
0
0
LINE
8
layer0
10
910.433333214669
20
64.826812759764
30
0
11
910.433333214669
21
89.0755240657283
31
0
0
LINE
8
layer0
10
910.433333214669
20
89.0755240657283
30
0
11
1250.78131690195
21
-9.17447593427164
31
0
0
LINE
8
layer0
10
1250.78131690195
20
-9.17447593427164
30
0
11
1250.78131690195
21
-33.423187240236
31
0
0
LINE
8
layer0
10
1473.28131690195
20
159.267465101802
30
0
11
1250.78131690195
21
-33.423187240236
31
0
0
LINE
8
layer0
10
1250.78131690195
20
-33.423187240236
30
0
11
1250.78131690195
21
-9.17447593427164
31
0
0
LINE
8
layer0
10
1250.78131690195
20
-9.17447593427164
30
0
11
1473.28131690195
21
183.516176407766
31
0
0
LINE
8
layer0
10
1473.28131690195
20
183.516176407766
30
0
11
1473.28131690195
21
159.267465101802
31
0
0
LINE
8
layer0
10
910.433333214669
20
64.826812759764
30
0
11
1132.93333321467
21
257.517465101802
31
0
0
LINE
8
layer0
10
1132.93333321467
20
257.517465101802
30
0
11
1132.93333321467
21
281.766176407766
31
0
0
LINE
8
layer0
10
1132.93333321467
20
281.766176407766
30
0
11
910.433333214669
21
89.0755240657283
31
0
0
LINE
8
layer0
10
910.433333214669
20
89.0755240657283
30
0
11
910.433333214669
21
64.826812759764
31
0
0
LINE
8
layer0
10
2126.0923662908
20
38.3671290496824
30
0
11
1318.22122446707
21
271.579439650912
31
0
0
LINE
8
layer0
10
1318.22122446707
20
271.579439650912
30
0
11
1437.52899510527
21
193.8369827145
31
0
0
LINE
8
layer0
10
1437.52899510527
20
193.8369827145
30
0
11
2088.5923662908
21
5.8911764077659
31
0
0
LINE
8
layer0
10
2088.5923662908
20
5.8911764077659
30
0
11
2126.0923662908
21
38.3671290496824
31
0
0
LINE
8
layer0
10
1437.52899510527
20
193.8369827145
30
0
11
1343.07801431648
21
255.382440041347
31
0
0
LINE
8
layer0
10
1343.07801431648
20
255.382440041347
30
0
11
1334.68957190018
21
223.524167049882
31
0
0
LINE
8
layer0
10
1334.68957190018
20
223.524167049882
30
0
11
1437.52899510527
21
193.8369827145
31
0
0
LINE
8
layer0
10
1334.68957190018
20
223.524167049882
30
0
11
1341.32975692265
21
248.7427733967
31
0
0
LINE
8
layer0
10
1341.32975692265
20
248.7427733967
30
0
11
1300.96994194511
21
233.25818576565
31
0
0
LINE
8
layer0
10
1300.96994194511
20
233.25818576565
30
0
11
1334.68957190018
21
223.524167049882
31
0
0
LINE
8
layer0
10
1300.96994194511
20
233.25818576565
30
0
11
1330.70364564571
21
244.665922416671
31
0
0
LINE
8
layer0
10
1330.70364564571
20
244.665922416671
30
0
11
1240.99658923873
21
250.571001430268
31
0
0
LINE
8
layer0
10
1240.99658923873
20
250.571001430268
30
0
11
1300.96994194511
21
233.25818576565
31
0
0
LINE
8
layer0
10
1240.99658923873
20
250.571001430268
30
0
11
1317.42431235642
21
245.540051113586
31
0
0
LINE
8
layer0
10
1317.42431235642
20
245.540051113586
30
0
11
1245.04426483591
21
292.703808321676
31
0
0
LINE
8
layer0
10
1245.04426483591
20
292.703808321676
30
0
11
554.256258422041
21
492.117129049682
31
0
0
LINE
8
layer0
10
554.256258422041
20
492.117129049682
30
0
11
516.756258422041
21
459.641176407766
31
0
0
LINE
8
layer0
10
516.756258422041
20
459.641176407766
30
0
11
1240.99658923873
21
250.571001430268
31
0
0
LINE
8
layer0
10
1245.04426483591
20
292.703808321676
30
0
11
1309.27061039636
21
250.853106752053
31
0
0
LINE
8
layer0
10
1309.27061039636
20
250.853106752053
30
0
11
1314.97472269719
21
272.516623986294
31
0
0
LINE
8
layer0
10
1314.97472269719
20
272.516623986294
30
0
11
1245.04426483591
21
292.703808321676
31
0
0
LINE
8
layer0
10
1314.97472269719
20
272.516623986294
30
0
11
1311.01886779019
21
257.4927733967
31
0
0
LINE
8
layer0
10
1311.01886779019
20
257.4927733967
30
0
11
1329.15877440869
21
264.452393350595
31
0
0
LINE
8
layer0
10
1329.15877440869
20
264.452393350595
30
0
11
1318.22122446707
21
271.579439650912
31
0
0
LINE
8
layer0
10
1318.22122446707
20
271.579439650912
30
0
11
1314.97472269719
21
272.516623986294
31
0
0
LINE
8
layer0
10
1329.15877440869
20
264.452393350595
30
0
11
1321.64497906713
21
261.56962437673
31
0
0
LINE
8
layer0
10
1321.64497906713
20
261.56962437673
30
0
11
1334.92431235642
21
260.695495679814
31
0
0
LINE
8
layer0
10
1334.92431235642
20
260.695495679814
30
0
11
1329.15877440869
21
264.452393350595
31
0
0
LINE
8
layer0
10
1866.0923662908
20
-186.799475934272
30
0
11
294.256258422041
21
266.950524065728
31
0
0
LINE
8
layer0
10
294.256258422041
20
266.950524065728
30
0
11
254.256258422041
21
232.309507914351
31
0
0
LINE
8
layer0
10
254.256258422041
20
232.309507914351
30
0
11
1826.0923662908
21
-221.440492085649
31
0
0
LINE
8
layer0
10
1826.0923662908
20
-221.440492085649
30
0
11
1866.0923662908
21
-186.799475934272
31
0
0
LINE
8
layer0
10
910.433333214669
20
89.0755240657283
30
0
11
1132.93333321467
21
281.766176407766
31
0
0
LINE
8
layer0
10
1132.93333321467
20
281.766176407766
30
0
11
516.756258422041
21
459.641176407766
31
0
0
LINE
8
layer0
10
516.756258422041
20
459.641176407766
30
0
11
294.256258422041
21
266.950524065728
31
0
0
LINE
8
layer0
10
294.256258422041
20
266.950524065728
30
0
11
910.433333214669
21
89.0755240657283
31
0
0
LINE
8
layer0
10
2088.5923662908
20
5.8911764077659
30
0
11
1473.28131690195
21
183.516176407766
31
0
0
LINE
8
layer0
10
1473.28131690195
20
183.516176407766
30
0
11
1250.78131690195
21
-9.17447593427164
31
0
0
LINE
8
layer0
10
1250.78131690195
20
-9.17447593427164
30
0
11
1866.0923662908
21
-186.799475934272
31
0
0
LINE
8
layer0
10
1866.0923662908
20
-186.799475934272
30
0
11
2088.5923662908
21
5.8911764077659
31
0
0
ENDBLK
0
BLOCK
8
layer0
2
PF_OBJECT48
70
0
10
0
20
0
30
0
0
LINE
8
layer0
10
1158.48108262631
20
274.391176407766
30
0
11
1446.86754208653
21
191.141176407766
31
0
0
LINE
8
layer0
10
1446.86754208653
20
191.141176407766
30
0
11
1454.16188685085
21
188.187754446382
31
0
0
LINE
8
layer0
10
1454.16188685085
20
188.187754446382
30
0
11
1459.27390581581
21
184.251844997136
31
0
0
LINE
8
layer0
10
1459.27390581581
20
184.251844997136
30
0
11
1461.70319894758
21
179.718722300014
31
0
0
LINE
8
layer0
10
1461.70319894758
20
179.718722300014
30
0
11
1461.21197010854
21
175.032119988733
31
0
0
LINE
8
layer0
10
1461.21197010854
20
175.032119988733
30
0
11
1457.84830420006
21
170.650795350999
31
0
0
LINE
8
layer0
10
1457.84830420006
20
170.650795350999
30
0
11
1457.84830420006
21
170.650795350999
31
0
0
LINE
8
layer0
10
1457.84830420006
20
170.650795350999
30
0
11
1117.50032051278
21
268.900795350999
31
0
0
LINE
8
layer0
10
1117.50032051278
20
268.900795350999
30
0
11
1123.40716443554
21
272.54796773316
31
0
0
LINE
8
layer0
10
1123.40716443554
20
272.54796773316
30
0
11
1131.27898333404
21
275.103977215638
31
0
0
LINE
8
layer0
10
1131.27898333404
20
275.103977215638
30
0
11
1140.34522872828
21
276.318623781523
31
0
0
LINE
8
layer0
10
1140.34522872828
20
276.318623781523
30
0
11
1149.71843335084
21
276.073009362006
31
0
0
LINE
8
layer0
10
1149.71843335084
20
276.073009362006
30
0
11
1158.48108262631
21
274.391176407766
31
0
0
LINE
8
layer0
10
1117.50032051278
20
268.900795350999
30
0
11
1169.46184473984
21
253.900795350999
31
0
0
LINE
8
layer0
10
1169.46184473984
20
253.900795350999
30
0
11
1112.74878730304
21
264.785846884442
31
0
0
LINE
8
layer0
10
1112.74878730304
20
264.785846884442
30
0
11
1117.50032051278
21
268.900795350999
31
0
0
LINE
8
layer0
10
1117.50032051278
20
268.900795350999
30
0
11
1117.50032051278
21
268.900795350999
31
0
0
LINE
8
layer0
10
1112.74878730304
20
264.785846884442
30
0
11
1160.69919546438
21
255.58262830524
31
0
0
LINE
8
layer0
10
1160.69919546438
20
255.58262830524
30
0
11
1103.84218511678
21
257.072503129735
31
0
0
LINE
8
layer0
10
1103.84218511678
20
257.072503129735
30
0
11
1112.74878730304
21
264.785846884442
31
0
0
LINE
8
layer0
10
1103.84218511678
20
257.072503129735
30
0
11
1151.32599084181
21
255.828242724757
31
0
0
LINE
8
layer0
10
1151.32599084181
20
255.828242724757
30
0
11
1093.45235421279
21
248.074645625857
31
0
0
LINE
8
layer0
10
1093.45235421279
20
248.074645625857
30
0
11
1103.84218511678
21
257.072503129735
31
0
0
LINE
8
layer0
10
1093.45235421279
20
248.074645625857
30
0
11
1142.25974544757
21
254.613596158872
31
0
0
LINE
8
layer0
10
1142.25974544757
20
254.613596158872
30
0
11
1076.2555629164
21
233.181787499603
31
0
0
LINE
8
layer0
10
1076.2555629164
20
233.181787499603
30
0
11
1093.45235421279
21
248.074645625857
31
0
0
LINE
8
layer0
10
1076.2555629164
20
233.181787499603
30
0
11
1134.38792654908
21
252.057586676394
31
0
0
LINE
8
layer0
10
1134.38792654908
20
252.057586676394
30
0
11
1007.79404779265
21
173.892376220867
31
0
0
LINE
8
layer0
10
1007.79404779265
20
173.892376220867
30
0
11
1076.2555629164
21
233.181787499603
31
0
0
LINE
8
layer0
10
1007.79404779265
20
173.892376220867
30
0
11
1128.48108262631
21
248.410414294233
31
0
0
LINE
8
layer0
10
1128.48108262631
20
248.410414294233
30
0
11
935.98108262631
21
81.7005240657284
31
0
0
LINE
8
layer0
10
935.98108262631
20
81.7005240657284
30
0
11
928.686737861988
21
84.6539460271121
31
0
0
LINE
8
layer0
10
928.686737861988
20
84.6539460271121
30
0
11
923.574718897032
21
88.5898554763579
31
0
0
LINE
8
layer0
10
923.574718897032
20
88.5898554763579
30
0
11
921.145425765262
21
93.1229781734801
31
0
0
LINE
8
layer0
10
921.145425765262
20
93.1229781734801
30
0
11
921.636654604296
21
97.8095804847613
31
0
0
LINE
8
layer0
10
921.636654604296
20
97.8095804847613
30
0
11
925.000320512777
21
102.190905122495
31
0
0
LINE
8
layer0
10
925.000320512777
20
102.190905122495
30
0
11
1007.79404779265
21
173.892376220867
31
0
0
LINE
8
layer0
10
935.98108262631
20
81.7005240657284
30
0
11
965.98108262631
21
107.681286179261
31
0
0
LINE
8
layer0
10
965.98108262631
20
107.681286179261
30
0
11
944.210979559424
21
79.3247574608603
31
0
0
LINE
8
layer0
10
944.210979559424
20
79.3247574608603
30
0
11
935.98108262631
21
81.7005240657284
31
0
0
LINE
8
layer0
10
935.98108262631
20
81.7005240657284
30
0
11
935.98108262631
21
81.7005240657284
31
0
0
LINE
8
layer0
10
944.210979559424
20
79.3247574608603
30
0
11
962.617416717829
21
103.299961541528
31
0
0
LINE
8
layer0
10
962.617416717829
20
103.299961541528
30
0
11
959.637667068838
21
74.8714563677279
31
0
0
LINE
8
layer0
10
959.637667068838
20
74.8714563677279
30
0
11
944.210979559424
21
79.3247574608603
31
0
0
LINE
8
layer0
10
959.637667068838
20
74.8714563677279
30
0
11
962.126187878795
21
98.6133592302467
31
0
0
LINE
8
layer0
10
962.126187878795
20
98.6133592302467
30
0
11
977.633382076594
21
69.6765409157341
31
0
0
LINE
8
layer0
10
977.633382076594
20
69.6765409157341
30
0
11
959.637667068838
21
74.8714563677279
31
0
0
LINE
8
layer0
10
977.633382076594
20
69.6765409157341
30
0
11
964.555481010565
21
94.0802365331247
31
0
0
LINE
8
layer0
10
964.555481010565
20
94.0802365331247
30
0
11
1007.4190983291
21
61.0781452675383
31
0
0
LINE
8
layer0
10
1007.4190983291
20
61.0781452675383
30
0
11
977.633382076594
21
69.6765409157341
31
0
0
LINE
8
layer0
10
1007.4190983291
20
61.0781452675383
30
0
11
969.667499975521
21
90.1443270838786
31
0
0
LINE
8
layer0
10
969.667499975521
20
90.1443270838786
30
0
11
1125.99792088658
21
26.8473877056636
31
0
0
LINE
8
layer0
10
1125.99792088658
20
26.8473877056636
30
0
11
1007.4190983291
21
61.0781452675383
31
0
0
LINE
8
layer0
10
1125.99792088658
20
26.8473877056636
30
0
11
976.961844739843
21
87.1909051224948
31
0
0
LINE
8
layer0
10
976.961844739843
20
87.1909051224948
30
0
11
1265.34830420006
21
3.94090512249494
31
0
0
LINE
8
layer0
10
1265.34830420006
20
3.94090512249494
30
0
11
1259.44146027729
21
0.293732740334008
31
0
0
LINE
8
layer0
10
1259.44146027729
20
0.293732740334008
30
0
11
1251.5696413788
21
-2.26227674214408
31
0
0
LINE
8
layer0
10
1251.5696413788
20
-2.26227674214408
30
0
11
1242.50339598456
21
-3.4769233080292
31
0
0
LINE
8
layer0
10
1242.50339598456
20
-3.4769233080292
30
0
11
1233.130191362
21
-3.23130888851222
31
0
0
LINE
8
layer0
10
1233.130191362
20
-3.23130888851222
30
0
11
1224.36754208653
21
-1.54947593427164
31
0
0
LINE
8
layer0
10
1224.36754208653
20
-1.54947593427164
30
0
11
1125.99792088658
21
26.8473877056636
31
0
0
LINE
8
layer0
10
1265.34830420006
20
3.94090512249494
30
0
11
1213.38677997299
21
18.9409051224949
31
0
0
LINE
8
layer0
10
1213.38677997299
20
18.9409051224949
30
0
11
1270.0998374098
21
8.05585358905148
31
0
0
LINE
8
layer0
10
1270.0998374098
20
8.05585358905148
30
0
11
1265.34830420006
21
3.94090512249494
31
0
0
LINE
8
layer0
10
1265.34830420006
20
3.94090512249494
30
0
11
1265.34830420006
21
3.94090512249494
31
0
0
LINE
8
layer0
10
1270.0998374098
20
8.05585358905148
30
0
11
1222.14942924846
21
17.2590721682544
31
0
0
LINE
8
layer0
10
1222.14942924846
20
17.2590721682544
30
0
11
1279.00643959606
21
15.7691973437589
31
0
0
LINE
8
layer0
10
1279.00643959606
20
15.7691973437589
30
0
11
1270.0998374098
21
8.05585358905148
31
0
0
LINE
8
layer0
10
1279.00643959606
20
15.7691973437589
30
0
11
1231.52263387102
21
17.0134577487373
31
0
0
LINE
8
layer0
10
1231.52263387102
20
17.0134577487373
30
0
11
1289.39627050005
21
24.7670548476373
31
0
0
LINE
8
layer0
10
1289.39627050005
20
24.7670548476373
30
0
11
1279.00643959606
21
15.7691973437589
31
0
0
LINE
8
layer0
10
1289.39627050005
20
24.7670548476373
30
0
11
1240.58887926527
21
18.2281043146224
31
0
0
LINE
8
layer0
10
1240.58887926527
20
18.2281043146224
30
0
11
1306.59306179644
21
39.6599129738914
31
0
0
LINE
8
layer0
10
1306.59306179644
20
39.6599129738914
30
0
11
1289.39627050005
21
24.7670548476373
31
0
0
LINE
8
layer0
10
1306.59306179644
20
39.6599129738914
30
0
11
1248.46069816376
21
20.7841137971006
31
0
0
LINE
8
layer0
10
1248.46069816376
20
20.7841137971006
30
0
11
1375.05457692019
21
98.9493242526277
31
0
0
LINE
8
layer0
10
1375.05457692019
20
98.9493242526277
30
0
11
1306.59306179644
21
39.6599129738914
31
0
0
LINE
8
layer0
10
1375.05457692019
20
98.9493242526277
30
0
11
1254.36754208653
21
24.4312861792617
31
0
0
LINE
8
layer0
10
1254.36754208653
20
24.4312861792617
30
0
11
1431.86754208653
21
178.150795350999
31
0
0
LINE
8
layer0
10
1431.86754208653
20
178.150795350999
30
0
11
1457.84830420006
21
170.650795350999
31
0
0
LINE
8
layer0
10
1457.84830420006
20
170.650795350999
30
0
11
1375.05457692019
21
98.9493242526277
31
0
0
LINE
8
layer0
10
1431.86754208653
20
178.150795350999
30
0
11
1416.86754208653
21
165.160414294233
31
0
0
LINE
8
layer0
10
1416.86754208653
20
165.160414294233
30
0
11
1427.75259361997
21
179.338678653433
31
0
0
LINE
8
layer0
10
1427.75259361997
20
179.338678653433
30
0
11
1431.86754208653
21
178.150795350999
31
0
0
LINE
8
layer0
10
1427.75259361997
20
179.338678653433
30
0
11
1420.23120799501
21
169.541738931966
31
0
0
LINE
8
layer0
10
1420.23120799501
20
169.541738931966
30
0
11
1421.44881713811
21
181.158422177792
31
0
0
LINE
8
layer0
10
1421.44881713811
20
181.158422177792
30
0
11
1427.75259361997
21
179.338678653433
31
0
0
LINE
8
layer0
10
1421.44881713811
20
181.158422177792
30
0
11
1420.72243683404
21
174.228341243248
31
0
0
LINE
8
layer0
10
1420.72243683404
20
174.228341243248
30
0
11
1416.19600474978
21
182.674778500994
31
0
0
LINE
8
layer0
10
1416.19600474978
20
182.674778500994
30
0
11
1421.44881713811
21
181.158422177792
31
0
0
LINE
8
layer0
10
1416.19600474978
20
182.674778500994
30
0
11
1418.29314370227
21
178.76146394037
31
0
0
LINE
8
layer0
10
1418.29314370227
20
178.76146394037
30
0
11
1411.41964304879
21
184.053595357901
31
0
0
LINE
8
layer0
10
1411.41964304879
20
184.053595357901
30
0
11
1416.19600474978
21
182.674778500994
31
0
0
LINE
8
layer0
10
1411.41964304879
20
184.053595357901
30
0
11
1413.18112473732
21
182.697373389616
31
0
0
LINE
8
layer0
10
1413.18112473732
20
182.697373389616
30
0
11
1405.88677997299
21
185.650795350999
31
0
0
LINE
8
layer0
10
1405.88677997299
20
185.650795350999
30
0
11
1411.41964304879
21
184.053595357901
31
0
0
LINE
8
layer0
10
1446.86754208653
20
194.605278022904
30
0
11
1446.86754208653
21
191.141176407766
31
0
0
LINE
8
layer0
10
1446.86754208653
20
191.141176407766
30
0
11
1158.48108262631
21
274.391176407766
31
0
0
LINE
8
layer0
10
1158.48108262631
20
274.391176407766
30
0
11
1158.48108262631
21
277.855278022904
31
0
0
LINE
8
layer0
10
1158.48108262631
20
277.855278022904
30
0
11
1446.86754208653
21
194.605278022904
31
0
0
LINE
8
layer0
10
1158.48108262631
20
277.855278022904
30
0
11
1158.48108262631
21
274.391176407766
31
0
0
LINE
8
layer0
10
1158.48108262631
20
274.391176407766
30
0
11
1149.71843335084
21
276.073009362006
31
0
0
LINE
8
layer0
10
1149.71843335084
20
276.073009362006
30
0
11
1149.71843335084
21
279.537110977144
31
0
0
LINE
8
layer0
10
1149.71843335084
20
279.537110977144
30
0
11
1158.48108262631
21
277.855278022904
31
0
0
LINE
8
layer0
10
1149.71843335084
20
279.537110977144
30
0
11
1149.71843335084
21
276.073009362006
31
0
0
LINE
8
layer0
10
1149.71843335084
20
276.073009362006
30
0
11
1140.34522872828
21
276.318623781523
31
0
0
LINE
8
layer0
10
1140.34522872828
20
276.318623781523
30
0
11
1140.34522872828
21
279.782725396661
31
0
0
LINE
8
layer0
10
1140.34522872828
20
279.782725396661
30
0
11
1149.71843335084
21
279.537110977144
31
0
0
LINE
8
layer0
10
1140.34522872828
20
279.782725396661
30
0
11
1140.34522872828
21
276.318623781523
31
0
0
LINE
8
layer0
10
1140.34522872828
20
276.318623781523
30
0
11
1131.27898333404
21
275.103977215638
31
0
0
LINE
8
layer0
10
1131.27898333404
20
275.103977215638
30
0
11
1131.27898333404
21
278.568078830776
31
0
0
LINE
8
layer0
10
1131.27898333404
20
278.568078830776
30
0
11
1140.34522872828
21
279.782725396661
31
0
0
LINE
8
layer0
10
1131.27898333404
20
278.568078830776
30
0
11
1131.27898333404
21
275.103977215638
31
0
0
LINE
8
layer0
10
1131.27898333404
20
275.103977215638
30
0
11
1123.40716443554
21
272.54796773316
31
0
0
LINE
8
layer0
10
1123.40716443554
20
272.54796773316
30
0
11
1123.40716443554
21
276.012069348298
31
0
0
LINE
8
layer0
10
1123.40716443554
20
276.012069348298
30
0
11
1131.27898333404
21
278.568078830776
31
0
0
LINE
8
layer0
10
1123.40716443554
20
276.012069348298
30
0
11
1123.40716443554
21
272.54796773316
31
0
0
LINE
8
layer0
10
1123.40716443554
20
272.54796773316
30
0
11
1117.50032051278
21
268.900795350999
31
0
0
LINE
8
layer0
10
1117.50032051278
20
268.900795350999
30
0
11
1117.50032051278
21
272.364896966137
31
0
0
LINE
8
layer0
10
1117.50032051278
20
272.364896966137
30
0
11
1123.40716443554
21
276.012069348298
31
0
0
LINE
8
layer0
10
1117.50032051278
20
272.364896966137
30
0
11
1117.50032051278
21
268.900795350999
31
0
0
LINE
8
layer0
10
1117.50032051278
20
268.900795350999
30
0
11
1112.74878730304
21
264.785846884442
31
0
0
LINE
8
layer0
10
1112.74878730304
20
264.785846884442
30
0
11
1112.74878730304
21
268.24994849958
31
0
0
LINE
8
layer0
10
1112.74878730304
20
268.24994849958
30
0
11
1117.50032051278
21
272.364896966137
31
0
0
LINE
8
layer0
10
1112.74878730304
20
268.24994849958
30
0
11
1112.74878730304
21
264.785846884442
31
0
0
LINE
8
layer0
10
1112.74878730304
20
264.785846884442
30
0
11
1103.84218511678
21
257.072503129735
31
0
0
LINE
8
layer0
10
1103.84218511678
20
257.072503129735
30
0
11
1103.84218511678
21
260.536604744873
31
0
0
LINE
8
layer0
10
1103.84218511678
20
260.536604744873
30
0
11
1112.74878730304
21
268.24994849958
31
0
0
LINE
8
layer0
10
1103.84218511678
20
260.536604744873
30
0
11
1103.84218511678
21
257.072503129735
31
0
0
LINE
8
layer0
10
1103.84218511678
20
257.072503129735
30
0
11
1093.45235421279
21
248.074645625857
31
0
0
LINE
8
layer0
10
1093.45235421279
20
248.074645625857
30
0
11
1093.45235421279
21
251.538747240995
31
0
0
LINE
8
layer0
10
1093.45235421279
20
251.538747240995
30
0
11
1103.84218511678
21
260.536604744873
31
0
0
LINE
8
layer0
10
1093.45235421279
20
251.538747240995
30
0
11
1093.45235421279
21
248.074645625857
31
0
0
LINE
8
layer0
10
1093.45235421279
20
248.074645625857
30
0
11
1076.2555629164
21
233.181787499603
31
0
0
LINE
8
layer0
10
1076.2555629164
20
233.181787499603
30
0
11
1076.2555629164
21
236.645889114741
31
0
0
LINE
8
layer0
10
1076.2555629164
20
236.645889114741
30
0
11
1093.45235421279
21
251.538747240995
31
0
0
LINE
8
layer0
10
1076.2555629164
20
236.645889114741
30
0
11
1076.2555629164
21
233.181787499603
31
0
0
LINE
8
layer0
10
1076.2555629164
20
233.181787499603
30
0
11
1007.79404779265
21
173.892376220867
31
0
0
LINE
8
layer0
10
1007.79404779265
20
173.892376220867
30
0
11
1007.79404779265
21
177.356477836005
31
0
0
LINE
8
layer0
10
1007.79404779265
20
177.356477836005
30
0
11
1076.2555629164
21
236.645889114741
31
0
0
LINE
8
layer0
10
1007.79404779265
20
177.356477836005
30
0
11
1007.79404779265
21
173.892376220867
31
0
0
LINE
8
layer0
10
1007.79404779265
20
173.892376220867
30
0
11
925.000320512777
21
102.190905122495
31
0
0
LINE
8
layer0
10
925.000320512777
20
102.190905122495
30
0
11
925.000320512777
21
105.655006737633
31
0
0
LINE
8
layer0
10
925.000320512777
20
105.655006737633
30
0
11
1007.79404779265
21
177.356477836005
31
0
0
LINE
8
layer0
10
925.000320512777
20
105.655006737633
30
0
11
925.000320512777
21
102.190905122495
31
0
0
LINE
8
layer0
10
925.000320512777
20
102.190905122495
30
0
11
921.636654604296
21
97.8095804847613
31
0
0
LINE
8
layer0
10
921.636654604296
20
97.8095804847613
30
0
11
921.636654604296
21
101.273682099899
31
0
0
LINE
8
layer0
10
921.636654604296
20
101.273682099899
30
0
11
925.000320512777
21
105.655006737633
31
0
0
LINE
8
layer0
10
921.636654604296
20
101.273682099899
30
0
11
921.636654604296
21
97.8095804847613
31
0
0
LINE
8
layer0
10
921.636654604296
20
97.8095804847613
30
0
11
921.145425765262
21
93.1229781734801
31
0
0
LINE
8
layer0
10
921.145425765262
20
93.1229781734801
30
0
11
921.145425765262
21
96.5870797886179
31
0
0
LINE
8
layer0
10
921.145425765262
20
96.5870797886179
30
0
11
921.636654604296
21
101.273682099899
31
0
0
LINE
8
layer0
10
921.145425765262
20
96.5870797886179
30
0
11
921.145425765262
21
93.1229781734801
31
0
0
LINE
8
layer0
10
921.145425765262
20
93.1229781734801
30
0
11
923.574718897032
21
88.5898554763579
31
0
0
LINE
8
layer0
10
923.574718897032
20
88.5898554763579
30
0
11
923.574718897032
21
92.0539570914956
31
0
0
LINE
8
layer0
10
923.574718897032
20
92.0539570914956
30
0
11
921.145425765262
21
96.5870797886179
31
0
0
LINE
8
layer0
10
923.574718897032
20
92.0539570914956
30
0
11
923.574718897032
21
88.5898554763579
31
0
0
LINE
8
layer0
10
923.574718897032
20
88.5898554763579
30
0
11
928.686737861988
21
84.6539460271121
31
0
0
LINE
8
layer0
10
928.686737861988
20
84.6539460271121
30
0
11
928.686737861988
21
88.1180476422497
31
0
0
LINE
8
layer0
10
928.686737861988
20
88.1180476422497
30
0
11
923.574718897032
21
92.0539570914956
31
0
0
LINE
8
layer0
10
928.686737861988
20
88.1180476422497
30
0
11
928.686737861988
21
84.6539460271121
31
0
0
LINE
8
layer0
10
928.686737861988
20
84.6539460271121
30
0
11
935.98108262631
21
81.7005240657284
31
0
0
LINE
8
layer0
10
935.98108262631
20
81.7005240657284
30
0
11
935.98108262631
21
85.164625680866
31
0
0
LINE
8
layer0
10
935.98108262631
20
85.164625680866
30
0
11
928.686737861988
21
88.1180476422497
31
0
0
LINE
8
layer0
10
935.98108262631
20
85.164625680866
30
0
11
935.98108262631
21
81.7005240657284
31
0
0
LINE
8
layer0
10
935.98108262631
20
81.7005240657284
30
0
11
944.210979559424
21
79.3247574608603
31
0
0
LINE
8
layer0
10
944.210979559424
20
79.3247574608603
30
0
11
944.210979559424
21
82.7888590759981
31
0
0
LINE
8
layer0
10
944.210979559424
20
82.7888590759981
30
0
11
935.98108262631
21
85.164625680866
31
0
0
LINE
8
layer0
10
944.210979559424
20
82.7888590759981
30
0
11
944.210979559424
21
79.3247574608603
31
0
0
LINE
8
layer0
10
944.210979559424
20
79.3247574608603
30
0
11
959.637667068838
21
74.8714563677279
31
0
0
LINE
8
layer0
10
959.637667068838
20
74.8714563677279
30
0
11
959.637667068838
21
78.3355579828656
31
0
0
LINE
8
layer0
10
959.637667068838
20
78.3355579828656
30
0
11
944.210979559424
21
82.7888590759981
31
0
0
LINE
8
layer0
10
959.637667068838
20
78.3355579828656
30
0
11
959.637667068838
21
74.8714563677279
31
0
0
LINE
8
layer0
10
959.637667068838
20
74.8714563677279
30
0
11
977.633382076594
21
69.6765409157341
31
0
0
LINE
8
layer0
10
977.633382076594
20
69.6765409157341
30
0
11
977.633382076594
21
73.1406425308719
31
0
0
LINE
8
layer0
10
977.633382076594
20
73.1406425308719
30
0
11
959.637667068838
21
78.3355579828656
31
0
0
LINE
8
layer0
10
977.633382076594
20
73.1406425308719
30
0
11
977.633382076594
21
69.6765409157341
31
0
0
LINE
8
layer0
10
977.633382076594
20
69.6765409157341
30
0
11
1007.4190983291
21
61.0781452675384
31
0
0
LINE
8
layer0
10
1007.4190983291
20
61.0781452675384
30
0
11
1007.4190983291
21
64.5422468826761
31
0
0
LINE
8
layer0
10
1007.4190983291
20
64.5422468826761
30
0
11
977.633382076594
21
73.1406425308719
31
0
0
LINE
8
layer0
10
1007.4190983291
20
64.5422468826761
30
0
11
1007.4190983291
21
61.0781452675384
31
0
0
LINE
8
layer0
10
1007.4190983291
20
61.0781452675384
30
0
11
1125.99792088658
21
26.8473877056636
31
0
0
LINE
8
layer0
10
1125.99792088658
20
26.8473877056636
30
0
11
1125.99792088658
21
30.3114893208012
31
0
0
LINE
8
layer0
10
1125.99792088658
20
30.3114893208012
30
0
11
1007.4190983291
21
64.5422468826761
31
0
0
LINE
8
layer0
10
1125.99792088658
20
30.3114893208012
30
0
11
1125.99792088658
21
26.8473877056636
31
0
0
LINE
8
layer0
10
1125.99792088658
20
26.8473877056636
30
0
11
1224.36754208653
21
-1.54947593427164
31
0
0
LINE
8
layer0
10
1224.36754208653
20
-1.54947593427164
30
0
11
1224.36754208653
21
1.9146256808661
31
0
0
LINE
8
layer0
10
1224.36754208653
20
1.9146256808661
30
0
11
1125.99792088658
21
30.3114893208012
31
0
0
LINE
8
layer0
10
1224.36754208653
20
1.9146256808661
30
0
11
1224.36754208653
21
-1.54947593427164
31
0
0
LINE
8
layer0
10
1224.36754208653
20
-1.54947593427164
30
0
11
1233.130191362
21
-3.23130888851222
31
0
0
LINE
8
layer0
10
1233.130191362
20
-3.23130888851222
30
0
11
1233.130191362
21
0.232792726625576
31
0
0
LINE
8
layer0
10
1233.130191362
20
0.232792726625576
30
0
11
1224.36754208653
21
1.9146256808661
31
0
0
LINE
8
layer0
10
1233.130191362
20
0.232792726625576
30
0
11
1233.130191362
21
-3.23130888851222
31
0
0
LINE
8
layer0
10
1233.130191362
20
-3.23130888851222
30
0
11
1242.50339598456
21
-3.4769233080292
31
0
0
LINE
8
layer0
10
1242.50339598456
20
-3.4769233080292
30
0
11
1242.50339598456
21
-0.0128216928914071
31
0
0
LINE
8
layer0
10
1242.50339598456
20
-0.0128216928914071
30
0
11
1233.130191362
21
0.232792726625576
31
0
0
LINE
8
layer0
10
1242.50339598456
20
-0.0128216928914071
30
0
11
1242.50339598456
21
-3.4769233080292
31
0
0
LINE
8
layer0
10
1242.50339598456
20
-3.4769233080292
30
0
11
1251.5696413788
21
-2.26227674214408
31
0
0
LINE
8
layer0
10
1251.5696413788
20
-2.26227674214408
30
0
11
1251.5696413788
21
1.2018248729936
31
0
0
LINE
8
layer0
10
1251.5696413788
20
1.2018248729936
30
0
11
1242.50339598456
21
-0.0128216928914071
31
0
0
LINE
8
layer0
10
1251.5696413788
20
1.2018248729936
30
0
11
1251.5696413788
21
-2.26227674214408
31
0
0
LINE
8
layer0
10
1251.5696413788
20
-2.26227674214408
30
0
11
1259.44146027729
21
0.293732740334008
31
0
0
LINE
8
layer0
10
1259.44146027729
20
0.293732740334008
30
0
11
1259.44146027729
21
3.75783435547174
31
0
0
LINE
8
layer0
10
1259.44146027729
20
3.75783435547174
30
0
11
1251.5696413788
21
1.2018248729936
31
0
0
LINE
8
layer0
10
1259.44146027729
20
3.75783435547174
30
0
11
1259.44146027729
21
0.293732740334008
31
0
0
LINE
8
layer0
10
1259.44146027729
20
0.293732740334008
30
0
11
1265.34830420006
21
3.94090512249494
31
0
0
LINE
8
layer0
10
1265.34830420006
20
3.94090512249494
30
0
11
1265.34830420006
21
7.40500673763268
31
0
0
LINE
8
layer0
10
1265.34830420006
20
7.40500673763268
30
0
11
1259.44146027729
21
3.75783435547174
31
0
0
LINE
8
layer0
10
1265.34830420006
20
7.40500673763268
30
0
11
1265.34830420006
21
3.94090512249494
31
0
0
LINE
8
layer0
10
1265.34830420006
20
3.94090512249494
30
0
11
1270.0998374098
21
8.05585358905148
31
0
0
LINE
8
layer0
10
1270.0998374098
20
8.05585358905148
30
0
11
1270.0998374098
21
11.5199552041892
31
0
0
LINE
8
layer0
10
1270.0998374098
20
11.5199552041892
30
0
11
1265.34830420006
21
7.40500673763268
31
0
0
LINE
8
layer0
10
1270.0998374098
20
11.5199552041892
30
0
11
1270.0998374098
21
8.05585358905148
31
0
0
LINE
8
layer0
10
1270.0998374098
20
8.05585358905148
30
0
11
1279.00643959606
21
15.7691973437589
31
0
0
LINE
8
layer0
10
1279.00643959606
20
15.7691973437589
30
0
11
1279.00643959606
21
19.2332989588966
31
0
0
LINE
8
layer0
10
1279.00643959606
20
19.2332989588966
30
0
11
1270.0998374098
21
11.5199552041892
31
0
0
LINE
8
layer0
10
1279.00643959606
20
19.2332989588966
30
0
11
1279.00643959606
21
15.7691973437589
31
0
0
LINE
8
layer0
10
1279.00643959606
20
15.7691973437589
30
0
11
1289.39627050005
21
24.7670548476373
31
0
0
LINE
8
layer0
10
1289.39627050005
20
24.7670548476373
30
0
11
1289.39627050005
21
28.2311564627751
31
0
0
LINE
8
layer0
10
1289.39627050005
20
28.2311564627751
30
0
11
1279.00643959606
21
19.2332989588966
31
0
0
LINE
8
layer0
10
1289.39627050005
20
28.2311564627751
30
0
11
1289.39627050005
21
24.7670548476373
31
0
0
LINE
8
layer0
10
1289.39627050005
20
24.7670548476373
30
0
11
1306.59306179644
21
39.6599129738914
31
0
0
LINE
8
layer0
10
1306.59306179644
20
39.6599129738914
30
0
11
1306.59306179644
21
43.1240145890292
31
0
0
LINE
8
layer0
10
1306.59306179644
20
43.1240145890292
30
0
11
1289.39627050005
21
28.2311564627751
31
0
0
LINE
8
layer0
10
1306.59306179644
20
43.1240145890292
30
0
11
1306.59306179644
21
39.6599129738914
31
0
0
LINE
8
layer0
10
1306.59306179644
20
39.6599129738914
30
0
11
1375.05457692019
21
98.9493242526277
31
0
0
LINE
8
layer0
10
1375.05457692019
20
98.9493242526277
30
0
11
1375.05457692019
21
102.413425867766
31
0
0
LINE
8
layer0
10
1375.05457692019
20
102.413425867766
30
0
11
1306.59306179644
21
43.1240145890292
31
0
0
LINE
8
layer0
10
1375.05457692019
20
102.413425867766
30
0
11
1375.05457692019
21
98.9493242526277
31
0
0
LINE
8
layer0
10
1375.05457692019
20
98.9493242526277
30
0
11
1457.84830420006
21
170.650795350999
31
0
0
LINE
8
layer0
10
1457.84830420006
20
170.650795350999
30
0
11
1457.84830420006
21
174.114896966137
31
0
0
LINE
8
layer0
10
1457.84830420006
20
174.114896966137
30
0
11
1375.05457692019
21
102.413425867766
31
0
0
LINE
8
layer0
10
1457.84830420006
20
174.114896966137
30
0
11
1457.84830420006
21
170.650795350999
31
0
0
LINE
8
layer0
10
1457.84830420006
20
170.650795350999
30
0
11
1461.21197010854
21
175.032119988733
31
0
0
LINE
8
layer0
10
1461.21197010854
20
175.032119988733
30
0
11
1461.21197010854
21
178.496221603871
31
0
0
LINE
8
layer0
10
1461.21197010854
20
178.496221603871
30
0
11
1457.84830420006
21
174.114896966137
31
0
0
LINE
8
layer0
10
1461.21197010854
20
178.496221603871
30
0
11
1461.21197010854
21
175.032119988733
31
0
0
LINE
8
layer0
10
1461.21197010854
20
175.032119988733
30
0
11
1461.70319894758
21
179.718722300014
31
0
0
LINE
8
layer0
10
1461.70319894758
20
179.718722300014
30
0
11
1461.70319894758
21
183.182823915152
31
0
0
LINE
8
layer0
10
1461.70319894758
20
183.182823915152
30
0
11
1461.21197010854
21
178.496221603871
31
0
0
LINE
8
layer0
10
1461.70319894758
20
183.182823915152
30
0
11
1461.70319894758
21
179.718722300014
31
0
0
LINE
8
layer0
10
1461.70319894758
20
179.718722300014
30
0
11
1459.27390581581
21
184.251844997136
31
0
0
LINE
8
layer0
10
1459.27390581581
20
184.251844997136
30
0
11
1459.27390581581
21
187.715946612274
31
0
0
LINE
8
layer0
10
1459.27390581581
20
187.715946612274
30
0
11
1461.70319894758
21
183.182823915152
31
0
0
LINE
8
layer0
10
1459.27390581581
20
187.715946612274
30
0
11
1459.27390581581
21
184.251844997136
31
0
0
LINE
8
layer0
10
1459.27390581581
20
184.251844997136
30
0
11
1454.16188685085
21
188.187754446382
31
0
0
LINE
8
layer0
10
1454.16188685085
20
188.187754446382
30
0
11
1454.16188685085
21
191.65185606152
31
0
0
LINE
8
layer0
10
1454.16188685085
20
191.65185606152
30
0
11
1459.27390581581
21
187.715946612274
31
0
0
LINE
8
layer0
10
1454.16188685085
20
191.65185606152
30
0
11
1454.16188685085
21
188.187754446382
31
0
0
LINE
8
layer0
10
1454.16188685085
20
188.187754446382
30
0
11
1446.86754208653
21
191.141176407766
31
0
0
LINE
8
layer0
10
1446.86754208653
20
191.141176407766
30
0
11
1446.86754208653
21
194.605278022904
31
0
0
LINE
8
layer0
10
1446.86754208653
20
194.605278022904
30
0
11
1454.16188685085
21
191.65185606152
31
0
0
LINE
8
layer0
10
1405.88677997299
20
185.650795350999
30
0
11
1405.88677997299
21
189.114896966137
31
0
0
LINE
8
layer0
10
1405.88677997299
20
189.114896966137
30
0
11
1169.46184473984
21
257.364896966137
31
0
0
LINE
8
layer0
10
1169.46184473984
20
257.364896966137
30
0
11
1169.46184473984
21
253.900795350999
31
0
0
LINE
8
layer0
10
1169.46184473984
20
253.900795350999
30
0
11
1405.88677997299
21
185.650795350999
31
0
0
LINE
8
layer0
10
1169.46184473984
20
253.900795350999
30
0
11
1169.46184473984
21
257.364896966137
31
0
0
LINE
8
layer0
10
1169.46184473984
20
257.364896966137
30
0
11
1160.69919546438
21
259.046729920378
31
0
0
LINE
8
layer0
10
1160.69919546438
20
259.046729920378
30
0
11
1160.69919546438
21
255.58262830524
31
0
0
LINE
8
layer0
10
1160.69919546438
20
255.58262830524
30
0
11
1169.46184473984
21
253.900795350999
31
0
0
LINE
8
layer0
10
1160.69919546438
20
255.58262830524
30
0
11
1160.69919546438
21
259.046729920378
31
0
0
LINE
8
layer0
10
1160.69919546438
20
259.046729920378
30
0
11
1151.32599084181
21
259.292344339895
31
0
0
LINE
8
layer0
10
1151.32599084181
20
259.292344339895
30
0
11
1151.32599084181
21
255.828242724757
31
0
0
LINE
8
layer0
10
1151.32599084181
20
255.828242724757
30
0
11
1160.69919546438
21
255.58262830524
31
0
0
LINE
8
layer0
10
1151.32599084181
20
255.828242724757
30
0
11
1151.32599084181
21
259.292344339895
31
0
0
LINE
8
layer0
10
1151.32599084181
20
259.292344339895
30
0
11
1142.25974544757
21
258.077697774009
31
0
0
LINE
8
layer0
10
1142.25974544757
20
258.077697774009
30
0
11
1142.25974544757
21
254.613596158872
31
0
0
LINE
8
layer0
10
1142.25974544757
20
254.613596158872
30
0
11
1151.32599084181
21
255.828242724757
31
0
0
LINE
8
layer0
10
1142.25974544757
20
254.613596158872
30
0
11
1142.25974544757
21
258.077697774009
31
0
0
LINE
8
layer0
10
1142.25974544757
20
258.077697774009
30
0
11
1134.38792654908
21
255.521688291531
31
0
0
LINE
8
layer0
10
1134.38792654908
20
255.521688291531
30
0
11
1134.38792654908
21
252.057586676394
31
0
0
LINE
8
layer0
10
1134.38792654908
20
252.057586676394
30
0
11
1142.25974544757
21
254.613596158872
31
0
0
LINE
8
layer0
10
1134.38792654908
20
252.057586676394
30
0
11
1134.38792654908
21
255.521688291531
31
0
0
LINE
8
layer0
10
1134.38792654908
20
255.521688291531
30
0
11
1128.48108262631
21
251.874515909371
31
0
0
LINE
8
layer0
10
1128.48108262631
20
251.874515909371
30
0
11
1128.48108262631
21
248.410414294233
31
0
0
LINE
8
layer0
10
1128.48108262631
20
248.410414294233
30
0
11
1134.38792654908
21
252.057586676394
31
0
0
LINE
8
layer0
10
1128.48108262631
20
248.410414294233
30
0
11
1128.48108262631
21
251.874515909371
31
0
0
LINE
8
layer0
10
1128.48108262631
20
251.874515909371
30
0
11
965.98108262631
21
111.145387794399
31
0
0
LINE
8
layer0
10
965.98108262631
20
111.145387794399
30
0
11
965.98108262631
21
107.681286179261
31
0
0
LINE
8
layer0
10
965.98108262631
20
107.681286179261
30
0
11
1128.48108262631
21
248.410414294233
31
0
0
LINE
8
layer0
10
965.98108262631
20
107.681286179261
30
0
11
965.98108262631
21
111.145387794399
31
0
0
LINE
8
layer0
10
965.98108262631
20
111.145387794399
30
0
11
962.617416717829
21
106.764063156666
31
0
0
LINE
8
layer0
10
962.617416717829
20
106.764063156666
30
0
11
962.617416717829
21
103.299961541528
31
0
0
LINE
8
layer0
10
962.617416717829
20
103.299961541528
30
0
11
965.98108262631
21
107.681286179261
31
0
0
LINE
8
layer0
10
962.617416717829
20
103.299961541528
30
0
11
962.617416717829
21
106.764063156666
31
0
0
LINE
8
layer0
10
962.617416717829
20
106.764063156666
30
0
11
962.126187878795
21
102.077460845384
31
0
0
LINE
8
layer0
10
962.126187878795
20
102.077460845384
30
0
11
962.126187878795
21
98.6133592302467
31
0
0
LINE
8
layer0
10
962.126187878795
20
98.6133592302467
30
0
11
962.617416717829
21
103.299961541528
31
0
0
LINE
8
layer0
10
962.126187878795
20
98.6133592302467
30
0
11
962.126187878795
21
102.077460845384
31
0
0
LINE
8
layer0
10
962.126187878795
20
102.077460845384
30
0
11
964.555481010565
21
97.5443381482622
31
0
0
LINE
8
layer0
10
964.555481010565
20
97.5443381482622
30
0
11
964.555481010565
21
94.0802365331244
31
0
0
LINE
8
layer0
10
964.555481010565
20
94.0802365331244
30
0
11
962.126187878795
21
98.6133592302467
31
0
0
LINE
8
layer0
10
964.555481010565
20
94.0802365331244
30
0
11
964.555481010565
21
97.5443381482622
31
0
0
LINE
8
layer0
10
964.555481010565
20
97.5443381482622
30
0
11
969.667499975521
21
93.6084286990164
31
0
0
LINE
8
layer0
10
969.667499975521
20
93.6084286990164
30
0
11
969.667499975521
21
90.1443270838786
31
0
0
LINE
8
layer0
10
969.667499975521
20
90.1443270838786
30
0
11
964.555481010565
21
94.0802365331244
31
0
0
LINE
8
layer0
10
969.667499975521
20
90.1443270838786
30
0
11
969.667499975521
21
93.6084286990164
31
0
0
LINE
8
layer0
10
969.667499975521
20
93.6084286990164
30
0
11
976.961844739843
21
90.6550067376327
31
0
0
LINE
8
layer0
10
976.961844739843
20
90.6550067376327
30
0
11
976.961844739843
21
87.1909051224949
31
0
0
LINE
8
layer0
10
976.961844739843
20
87.1909051224949
30
0
11
969.667499975521
21
90.1443270838786
31
0
0
LINE
8
layer0
10
976.961844739843
20
87.1909051224949
30
0
11
976.961844739843
21
90.6550067376327
31
0
0
LINE
8
layer0
10
976.961844739843
20
90.6550067376327
30
0
11
1213.38677997299
21
22.4050067376327
31
0
0
LINE
8
layer0
10
1213.38677997299
20
22.4050067376327
30
0
11
1213.38677997299
21
18.9409051224949
31
0
0
LINE
8
layer0
10
1213.38677997299
20
18.9409051224949
30
0
11
976.961844739843
21
87.1909051224949
31
0
0
LINE
8
layer0
10
1213.38677997299
20
18.9409051224949
30
0
11
1213.38677997299
21
22.4050067376327
31
0
0
LINE
8
layer0
10
1213.38677997299
20
22.4050067376327
30
0
11
1222.14942924846
21
20.7231737833922
31
0
0
LINE
8
layer0
10
1222.14942924846
20
20.7231737833922
30
0
11
1222.14942924846
21
17.2590721682544
31
0
0
LINE
8
layer0
10
1222.14942924846
20
17.2590721682544
30
0
11
1213.38677997299
21
18.9409051224949
31
0
0
LINE
8
layer0
10
1222.14942924846
20
17.2590721682544
30
0
11
1222.14942924846
21
20.7231737833922
31
0
0
LINE
8
layer0
10
1222.14942924846
20
20.7231737833922
30
0
11
1231.52263387102
21
20.4775593638751
31
0
0
LINE
8
layer0
10
1231.52263387102
20
20.4775593638751
30
0
11
1231.52263387102
21
17.0134577487374
31
0
0
LINE
8
layer0
10
1231.52263387102
20
17.0134577487374
30
0
11
1222.14942924846
21
17.2590721682544
31
0
0
LINE
8
layer0
10
1231.52263387102
20
17.0134577487374
30
0
11
1231.52263387102
21
20.4775593638751
31
0
0
LINE
8
layer0
10
1231.52263387102
20
20.4775593638751
30
0
11
1240.58887926527
21
21.6922059297602
31
0
0
LINE
8
layer0
10
1240.58887926527
20
21.6922059297602
30
0
11
1240.58887926527
21
18.2281043146224
31
0
0
LINE
8
layer0
10
1240.58887926527
20
18.2281043146224
30
0
11
1231.52263387102
21
17.0134577487374
31
0
0
LINE
8
layer0
10
1240.58887926527
20
18.2281043146224
30
0
11
1240.58887926527
21
21.6922059297602
31
0
0
LINE
8
layer0
10
1240.58887926527
20
21.6922059297602
30
0
11
1248.46069816376
21
24.2482154122383
31
0
0
LINE
8
layer0
10
1248.46069816376
20
24.2482154122383
30
0
11
1248.46069816376
21
20.7841137971005
31
0
0
LINE
8
layer0
10
1248.46069816376
20
20.7841137971005
30
0
11
1240.58887926527
21
18.2281043146224
31
0
0
LINE
8
layer0
10
1248.46069816376
20
20.7841137971005
30
0
11
1248.46069816376
21
24.2482154122383
31
0
0
LINE
8
layer0
10
1248.46069816376
20
24.2482154122383
30
0
11
1254.36754208653
21
27.8953877943993
31
0
0
LINE
8
layer0
10
1254.36754208653
20
27.8953877943993
30
0
11
1254.36754208653
21
24.4312861792615
31
0
0
LINE
8
layer0
10
1254.36754208653
20
24.4312861792615
30
0
11
1248.46069816376
21
20.7841137971005
31
0
0
LINE
8
layer0
10
1254.36754208653
20
24.4312861792615
30
0
11
1254.36754208653
21
27.8953877943993
31
0
0
LINE
8
layer0
10
1254.36754208653
20
27.8953877943993
30
0
11
1416.86754208653
21
168.624515909371
31
0
0
LINE
8
layer0
10
1416.86754208653
20
168.624515909371
30
0
11
1416.86754208653
21
165.160414294233
31
0
0
LINE
8
layer0
10
1416.86754208653
20
165.160414294233
30
0
11
1254.36754208653
21
24.4312861792615
31
0
0
LINE
8
layer0
10
1416.86754208653
20
165.160414294233
30
0
11
1416.86754208653
21
168.624515909371
31
0
0
LINE
8
layer0
10
1416.86754208653
20
168.624515909371
30
0
11
1420.23120799501
21
173.005840547104
31
0
0
LINE
8
layer0
10
1420.23120799501
20
173.005840547104
30
0
11
1420.23120799501
21
169.541738931966
31
0
0
LINE
8
layer0
10
1420.23120799501
20
169.541738931966
30
0
11
1416.86754208653
21
165.160414294233
31
0
0
LINE
8
layer0
10
1420.23120799501
20
169.541738931966
30
0
11
1420.23120799501
21
173.005840547104
31
0
0
LINE
8
layer0
10
1420.23120799501
20
173.005840547104
30
0
11
1420.72243683404
21
177.692442858385
31
0
0
LINE
8
layer0
10
1420.72243683404
20
177.692442858385
30
0
11
1420.72243683404
21
174.228341243248
31
0
0
LINE
8
layer0
10
1420.72243683404
20
174.228341243248
30
0
11
1420.23120799501
21
169.541738931966
31
0
0
LINE
8
layer0
10
1420.72243683404
20
174.228341243248
30
0
11
1420.72243683404
21
177.692442858385
31
0
0
LINE
8
layer0
10
1420.72243683404
20
177.692442858385
30
0
11
1418.29314370227
21
182.225565555508
31
0
0
LINE
8
layer0
10
1418.29314370227
20
182.225565555508
30
0
11
1418.29314370227
21
178.76146394037
31
0
0
LINE
8
layer0
10
1418.29314370227
20
178.76146394037
30
0
11
1420.72243683404
21
174.228341243248
31
0
0
LINE
8
layer0
10
1418.29314370227
20
178.76146394037
30
0
11
1418.29314370227
21
182.225565555508
31
0
0
LINE
8
layer0
10
1418.29314370227
20
182.225565555508
30
0
11
1413.18112473732
21
186.161475004753
31
0
0
LINE
8
layer0
10
1413.18112473732
20
186.161475004753
30
0
11
1413.18112473732
21
182.697373389616
31
0
0
LINE
8
layer0
10
1413.18112473732
20
182.697373389616
30
0
11
1418.29314370227
21
178.76146394037
31
0
0
LINE
8
layer0
10
1413.18112473732
20
182.697373389616
30
0
11
1413.18112473732
21
186.161475004753
31
0
0
LINE
8
layer0
10
1413.18112473732
20
186.161475004753
30
0
11
1405.88677997299
21
189.114896966137
31
0
0
LINE
8
layer0
10
1405.88677997299
20
189.114896966137
30
0
11
1405.88677997299
21
185.650795350999
31
0
0
LINE
8
layer0
10
1405.88677997299
20
185.650795350999
30
0
11
1413.18112473732
21
182.697373389616
31
0
0
LINE
8
layer0
10
1446.86754208653
20
194.605278022904
30
0
11
1158.48108262631
21
277.855278022904
31
0
0
LINE
8
layer0
10
1158.48108262631
20
277.855278022904
30
0
11
1149.71843335084
21
279.537110977144
31
0
0
LINE
8
layer0
10
1149.71843335084
20
279.537110977144
30
0
11
1140.34522872828
21
279.782725396661
31
0
0
LINE
8
layer0
10
1140.34522872828
20
279.782725396661
30
0
11
1131.27898333404
21
278.568078830776
31
0
0
LINE
8
layer0
10
1131.27898333404
20
278.568078830776
30
0
11
1123.40716443554
21
276.012069348298
31
0
0
LINE
8
layer0
10
1123.40716443554
20
276.012069348298
30
0
11
1117.50032051278
21
272.364896966137
31
0
0
LINE
8
layer0
10
1117.50032051278
20
272.364896966137
30
0
11
1117.50032051278
21
272.364896966137
31
0
0
LINE
8
layer0
10
1117.50032051278
20
272.364896966137
30
0
11
1457.84830420006
21
174.114896966137
31
0
0
LINE
8
layer0
10
1457.84830420006
20
174.114896966137
30
0
11
1461.21197010854
21
178.496221603871
31
0
0
LINE
8
layer0
10
1461.21197010854
20
178.496221603871
30
0
11
1461.70319894758
21
183.182823915152
31
0
0
LINE
8
layer0
10
1461.70319894758
20
183.182823915152
30
0
11
1459.27390581581
21
187.715946612274
31
0
0
LINE
8
layer0
10
1459.27390581581
20
187.715946612274
30
0
11
1454.16188685085
21
191.65185606152
31
0
0
LINE
8
layer0
10
1454.16188685085
20
191.65185606152
30
0
11
1446.86754208653
21
194.605278022904
31
0
0
LINE
8
layer0
10
1112.74878730304
20
268.24994849958
30
0
11
1169.46184473984
21
257.364896966137
31
0
0
LINE
8
layer0
10
1169.46184473984
20
257.364896966137
30
0
11
1117.50032051278
21
272.364896966137
31
0
0
LINE
8
layer0
10
1117.50032051278
20
272.364896966137
30
0
11
1112.74878730304
21
268.24994849958
31
0
0
LINE
8
layer0
10
1103.84218511678
20
260.536604744873
30
0
11
1160.69919546438
21
259.046729920378
31
0
0
LINE
8
layer0
10
1160.69919546438
20
259.046729920378
30
0
11
1112.74878730304
21
268.24994849958
31
0
0
LINE
8
layer0
10
1112.74878730304
20
268.24994849958
30
0
11
1103.84218511678
21
260.536604744873
31
0
0
LINE
8
layer0
10
1093.45235421279
20
251.538747240995
30
0
11
1151.32599084181
21
259.292344339895
31
0
0
LINE
8
layer0
10
1151.32599084181
20
259.292344339895
30
0
11
1103.84218511678
21
260.536604744873
31
0
0
LINE
8
layer0
10
1103.84218511678
20
260.536604744873
30
0
11
1093.45235421279
21
251.538747240995
31
0
0
LINE
8
layer0
10
1076.2555629164
20
236.645889114741
30
0
11
1142.25974544757
21
258.077697774009
31
0
0
LINE
8
layer0
10
1142.25974544757
20
258.077697774009
30
0
11
1093.45235421279
21
251.538747240995
31
0
0
LINE
8
layer0
10
1093.45235421279
20
251.538747240995
30
0
11
1076.2555629164
21
236.645889114741
31
0
0
LINE
8
layer0
10
1007.79404779265
20
177.356477836005
30
0
11
1134.38792654908
21
255.521688291531
31
0
0
LINE
8
layer0
10
1134.38792654908
20
255.521688291531
30
0
11
1076.2555629164
21
236.645889114741
31
0
0
LINE
8
layer0
10
1076.2555629164
20
236.645889114741
30
0
11
1007.79404779265
21
177.356477836005
31
0
0
LINE
8
layer0
10
935.98108262631
20
85.164625680866
30
0
11
1128.48108262631
21
251.874515909371
31
0
0
LINE
8
layer0
10
1128.48108262631
20
251.874515909371
30
0
11
1007.79404779265
21
177.356477836005
31
0
0
LINE
8
layer0
10
1007.79404779265
20
177.356477836005
30
0
11
925.000320512777
21
105.655006737633
31
0
0
LINE
8
layer0
10
925.000320512777
20
105.655006737633
30
0
11
921.636654604296
21
101.273682099899
31
0
0
LINE
8
layer0
10
921.636654604296
20
101.273682099899
30
0
11
921.145425765262
21
96.5870797886179
31
0
0
LINE
8
layer0
10
921.145425765262
20
96.5870797886179
30
0
11
923.574718897032
21
92.0539570914956
31
0
0
LINE
8
layer0
10
923.574718897032
20
92.0539570914956
30
0
11
928.686737861988
21
88.1180476422497
31
0
0
LINE
8
layer0
10
928.686737861988
20
88.1180476422497
30
0
11
935.98108262631
21
85.164625680866
31
0
0
LINE
8
layer0
10
935.98108262631
20
85.164625680866
30
0
11
935.98108262631
21
85.164625680866
31
0
0
LINE
8
layer0
10
944.210979559424
20
82.7888590759981
30
0
11
965.98108262631
21
111.145387794399
31
0
0
LINE
8
layer0
10
965.98108262631
20
111.145387794399
30
0
11
935.98108262631
21
85.164625680866
31
0
0
LINE
8
layer0
10
935.98108262631
20
85.164625680866
30
0
11
944.210979559424
21
82.7888590759981
31
0
0
LINE
8
layer0
10
959.637667068838
20
78.3355579828656
30
0
11
962.617416717829
21
106.764063156666
31
0
0
LINE
8
layer0
10
962.617416717829
20
106.764063156666
30
0
11
944.210979559424
21
82.7888590759981
31
0
0
LINE
8
layer0
10
944.210979559424
20
82.7888590759981
30
0
11
959.637667068838
21
78.3355579828656
31
0
0
LINE
8
layer0
10
977.633382076594
20
73.1406425308719
30
0
11
962.126187878795
21
102.077460845384
31
0
0
LINE
8
layer0
10
962.126187878795
20
102.077460845384
30
0
11
959.637667068838
21
78.3355579828656
31
0
0
LINE
8
layer0
10
959.637667068838
20
78.3355579828656
30
0
11
977.633382076594
21
73.1406425308719
31
0
0
LINE
8
layer0
10
1007.4190983291
20
64.5422468826761
30
0
11
964.555481010565
21
97.5443381482623
31
0
0
LINE
8
layer0
10
964.555481010565
20
97.5443381482623
30
0
11
977.633382076594
21
73.1406425308719
31
0
0
LINE
8
layer0
10
977.633382076594
20
73.1406425308719
30
0
11
1007.4190983291
21
64.5422468826761
31
0
0
LINE
8
layer0
10
1125.99792088658
20
30.3114893208012
30
0
11
969.667499975521
21
93.6084286990164
31
0
0
LINE
8
layer0
10
969.667499975521
20
93.6084286990164
30
0
11
1007.4190983291
21
64.5422468826761
31
0
0
LINE
8
layer0
10
1007.4190983291
20
64.5422468826761
30
0
11
1125.99792088658
21
30.3114893208012
31
0
0
LINE
8
layer0
10
1265.34830420006
20
7.40500673763268
30
0
11
976.961844739843
21
90.6550067376327
31
0
0
LINE
8
layer0
10
976.961844739843
20
90.6550067376327
30
0
11
1125.99792088658
21
30.3114893208012
31
0
0
LINE
8
layer0
10
1125.99792088658
20
30.3114893208012
30
0
11
1224.36754208653
21
1.9146256808661
31
0
0
LINE
8
layer0
10
1224.36754208653
20
1.9146256808661
30
0
11
1233.130191362
21
0.232792726625576
31
0
0
LINE
8
layer0
10
1233.130191362
20
0.232792726625576
30
0
11
1242.50339598456
21
-0.0128216928914071
31
0
0
LINE
8
layer0
10
1242.50339598456
20
-0.0128216928914071
30
0
11
1251.5696413788
21
1.2018248729936
31
0
0
LINE
8
layer0
10
1251.5696413788
20
1.2018248729936
30
0
11
1259.44146027729
21
3.75783435547174
31
0
0
LINE
8
layer0
10
1259.44146027729
20
3.75783435547174
30
0
11
1265.34830420006
21
7.40500673763268
31
0
0
LINE
8
layer0
10
1265.34830420006
20
7.40500673763268
30
0
11
1265.34830420006
21
7.40500673763268
31
0
0
LINE
8
layer0
10
1270.0998374098
20
11.5199552041892
30
0
11
1213.38677997299
21
22.4050067376327
31
0
0
LINE
8
layer0
10
1213.38677997299
20
22.4050067376327
30
0
11
1265.34830420006
21
7.40500673763268
31
0
0
LINE
8
layer0
10
1265.34830420006
20
7.40500673763268
30
0
11
1270.0998374098
21
11.5199552041892
31
0
0
LINE
8
layer0
10
1279.00643959606
20
19.2332989588966
30
0
11
1222.14942924846
21
20.7231737833922
31
0
0
LINE
8
layer0
10
1222.14942924846
20
20.7231737833922
30
0
11
1270.0998374098
21
11.5199552041892
31
0
0
LINE
8
layer0
10
1270.0998374098
20
11.5199552041892
30
0
11
1279.00643959606
21
19.2332989588966
31
0
0
LINE
8
layer0
10
1289.39627050005
20
28.2311564627751
30
0
11
1231.52263387102
21
20.4775593638751
31
0
0
LINE
8
layer0
10
1231.52263387102
20
20.4775593638751
30
0
11
1279.00643959606
21
19.2332989588966
31
0
0
LINE
8
layer0
10
1279.00643959606
20
19.2332989588966
30
0
11
1289.39627050005
21
28.2311564627751
31
0
0
LINE
8
layer0
10
1306.59306179644
20
43.1240145890292
30
0
11
1240.58887926527
21
21.6922059297601
31
0
0
LINE
8
layer0
10
1240.58887926527
20
21.6922059297601
30
0
11
1289.39627050005
21
28.2311564627751
31
0
0
LINE
8
layer0
10
1289.39627050005
20
28.2311564627751
30
0
11
1306.59306179644
21
43.1240145890292
31
0
0
LINE
8
layer0
10
1375.05457692019
20
102.413425867766
30
0
11
1248.46069816376
21
24.2482154122383
31
0
0
LINE
8
layer0
10
1248.46069816376
20
24.2482154122383
30
0
11
1306.59306179644
21
43.1240145890292
31
0
0
LINE
8
layer0
10
1306.59306179644
20
43.1240145890292
30
0
11
1375.05457692019
21
102.413425867766
31
0
0
LINE
8
layer0
10
1457.84830420006
20
174.114896966137
30
0
11
1431.86754208653
21
181.614896966137
31
0
0
LINE
8
layer0
10
1431.86754208653
20
181.614896966137
30
0
11
1254.36754208653
21
27.8953877943994
31
0
0
LINE
8
layer0
10
1254.36754208653
20
27.8953877943994
30
0
11
1375.05457692019
21
102.413425867766
31
0
0
LINE
8
layer0
10
1375.05457692019
20
102.413425867766
30
0
11
1457.84830420006
21
174.114896966137
31
0
0
LINE
8
layer0
10
1457.84830420006
20
174.114896966137
30
0
11
1457.84830420006
21
174.114896966137
31
0
0
LINE
8
layer0
10
1427.75259361997
20
182.802780268571
30
0
11
1416.86754208653
21
168.62451590937
31
0
0
LINE
8
layer0
10
1416.86754208653
20
168.62451590937
30
0
11
1431.86754208653
21
181.614896966137
31
0
0
LINE
8
layer0
10
1431.86754208653
20
181.614896966137
30
0
11
1427.75259361997
21
182.802780268571
31
0
0
LINE
8
layer0
10
1421.44881713811
20
184.622523792929
30
0
11
1420.23120799501
21
173.005840547104
31
0
0
LINE
8
layer0
10
1420.23120799501
20
173.005840547104
30
0
11
1427.75259361997
21
182.802780268571
31
0
0
LINE
8
layer0
10
1427.75259361997
20
182.802780268571
30
0
11
1421.44881713811
21
184.622523792929
31
0
0
LINE
8
layer0
10
1416.19600474978
20
186.138880116131
30
0
11
1420.72243683404
21
177.692442858385
31
0
0
LINE
8
layer0
10
1420.72243683404
20
177.692442858385
30
0
11
1421.44881713811
21
184.622523792929
31
0
0
LINE
8
layer0
10
1421.44881713811
20
184.622523792929
30
0
11
1416.19600474978
21
186.138880116131
31
0
0
LINE
8
layer0
10
1411.41964304879
20
187.517696973039
30
0
11
1418.29314370227
21
182.225565555508
31
0
0
LINE
8
layer0
10
1418.29314370227
20
182.225565555508
30
0
11
1416.19600474978
21
186.138880116131
31
0
0
LINE
8
layer0
10
1416.19600474978
20
186.138880116131
30
0
11
1411.41964304879
21
187.517696973039
31
0
0
LINE
8
layer0
10
1405.88677997299
20
189.114896966137
30
0
11
1413.18112473732
21
186.161475004753
31
0
0
LINE
8
layer0
10
1413.18112473732
20
186.161475004753
30
0
11
1411.41964304879
21
187.517696973039
31
0
0
LINE
8
layer0
10
1411.41964304879
20
187.517696973039
30
0
11
1405.88677997299
21
189.114896966137
31
0
0
ENDBLK
0
BLOCK
8
layer0
2
PF_OBJECT49
70
0
10
0
20
0
30
0
0
LINE
8
layer0
10
1168.54678123038
20
125.704516538064
30
0
11
1413.63197050138
21
54.9545165380641
31
0
0
LINE
8
layer0
10
1413.63197050138
20
54.9545165380641
30
0
11
1420.9263152657
21
52.0010945766804
31
0
0
LINE
8
layer0
10
1420.9263152657
20
52.0010945766804
30
0
11
1426.03833423066
21
48.0651851274345
31
0
0
LINE
8
layer0
10
1426.03833423066
20
48.0651851274345
30
0
11
1428.46762736243
21
43.5320624303123
31
0
0
LINE
8
layer0
10
1428.46762736243
20
43.5320624303123
30
0
11
1427.97639852339
21
38.8454601190311
31
0
0
LINE
8
layer0
10
1427.97639852339
20
38.8454601190311
30
0
11
1424.61273261491
21
34.4641354812975
31
0
0
LINE
8
layer0
10
1424.61273261491
20
34.4641354812975
30
0
11
1257.11273261491
21
-110.595119652596
31
0
0
LINE
8
layer0
10
1257.11273261491
20
-110.595119652596
30
0
11
1251.20588869214
21
-114.242292034757
31
0
0
LINE
8
layer0
10
1251.20588869214
20
-114.242292034757
30
0
11
1243.33406979365
21
-116.798301517235
31
0
0
LINE
8
layer0
10
1243.33406979365
20
-116.798301517235
30
0
11
1234.26782439941
21
-118.01294808312
31
0
0
LINE
8
layer0
10
1234.26782439941
20
-118.01294808312
30
0
11
1224.89461977685
21
-117.767333663603
31
0
0
LINE
8
layer0
10
1224.89461977685
20
-117.767333663603
30
0
11
1216.13197050138
21
-116.085500709362
31
0
0
LINE
8
layer0
10
1216.13197050138
20
-116.085500709362
30
0
11
971.046781230382
21
-45.3355007093626
31
0
0
LINE
8
layer0
10
971.046781230382
20
-45.3355007093626
30
0
11
963.75243646606
21
-42.3820787479788
31
0
0
LINE
8
layer0
10
963.75243646606
20
-42.3820787479788
30
0
11
958.640417501104
21
-38.446169298733
31
0
0
LINE
8
layer0
10
958.640417501104
20
-38.446169298733
30
0
11
956.211124369334
21
-33.9130466016107
31
0
0
LINE
8
layer0
10
956.211124369334
20
-33.9130466016107
30
0
11
956.702353208368
21
-29.2264442903296
31
0
0
LINE
8
layer0
10
956.702353208368
20
-29.2264442903296
30
0
11
960.066019116849
21
-24.8451196525959
31
0
0
LINE
8
layer0
10
960.066019116849
20
-24.8451196525959
30
0
11
1127.56601911685
21
120.214135481297
31
0
0
LINE
8
layer0
10
1127.56601911685
20
120.214135481297
30
0
11
1133.47286303962
21
123.861307863458
31
0
0
LINE
8
layer0
10
1133.47286303962
20
123.861307863458
30
0
11
1141.34468193811
21
126.417317345937
31
0
0
LINE
8
layer0
10
1141.34468193811
20
126.417317345937
30
0
11
1150.41092733235
21
127.631963911822
31
0
0
LINE
8
layer0
10
1150.41092733235
20
127.631963911822
30
0
11
1159.78413195491
21
127.386349492305
31
0
0
LINE
8
layer0
10
1159.78413195491
20
127.386349492305
30
0
11
1168.54678123038
21
125.704516538064
31
0
0
LINE
8
layer0
10
1168.54678123038
20
130.034643556986
30
0
11
1413.63197050138
21
59.2846435569863
31
0
0
LINE
8
layer0
10
1413.63197050138
20
59.2846435569863
30
0
11
1413.63197050138
21
54.9545165380641
31
0
0
LINE
8
layer0
10
1413.63197050138
20
54.9545165380641
30
0
11
1168.54678123038
21
125.704516538064
31
0
0
LINE
8
layer0
10
1168.54678123038
20
125.704516538064
30
0
11
1168.54678123038
21
130.034643556986
31
0
0
LINE
8
layer0
10
1413.63197050138
20
184.85832710573
30
0
11
1413.63197050138
21
59.2846435569863
31
0
0
LINE
8
layer0
10
1413.63197050138
20
59.2846435569863
30
0
11
1168.54678123038
21
130.034643556986
31
0
0
LINE
8
layer0
10
1168.54678123038
20
130.034643556986
30
0
11
1168.54678123038
21
255.60832710573
31
0
0
LINE
8
layer0
10
1168.54678123038
20
255.60832710573
30
0
11
1413.63197050138
21
184.85832710573
31
0
0
LINE
8
layer0
10
1159.78413195491
20
131.716476511227
30
0
11
1168.54678123038
21
130.034643556986
31
0
0
LINE
8
layer0
10
1168.54678123038
20
130.034643556986
30
0
11
1168.54678123038
21
125.704516538064
31
0
0
LINE
8
layer0
10
1168.54678123038
20
125.704516538064
30
0
11
1159.78413195491
21
127.386349492305
31
0
0
LINE
8
layer0
10
1159.78413195491
20
127.386349492305
30
0
11
1159.78413195491
21
131.716476511227
31
0
0
LINE
8
layer0
10
1168.54678123038
20
255.60832710573
30
0
11
1168.54678123038
21
130.034643556986
31
0
0
LINE
8
layer0
10
1168.54678123038
20
130.034643556986
30
0
11
1159.78413195491
21
131.716476511227
31
0
0
LINE
8
layer0
10
1159.78413195491
20
131.716476511227
30
0
11
1159.78413195491
21
257.29016005997
31
0
0
LINE
8
layer0
10
1159.78413195491
20
257.29016005997
30
0
11
1168.54678123038
21
255.60832710573
31
0
0
LINE
8
layer0
10
1150.41092733235
20
131.962090930744
30
0
11
1159.78413195491
21
131.716476511227
31
0
0
LINE
8
layer0
10
1159.78413195491
20
131.716476511227
30
0
11
1159.78413195491
21
127.386349492305
31
0
0
LINE
8
layer0
10
1159.78413195491
20
127.386349492305
30
0
11
1150.41092733235
21
127.631963911822
31
0
0
LINE
8
layer0
10
1150.41092733235
20
127.631963911822
30
0
11
1150.41092733235
21
131.962090930744
31
0
0
LINE
8
layer0
10
1159.78413195491
20
257.29016005997
30
0
11
1159.78413195491
21
131.716476511227
31
0
0
LINE
8
layer0
10
1159.78413195491
20
131.716476511227
30
0
11
1157.51474176584
21
131.775943361295
31
0
0
LINE
8
layer0
10
1157.51474176584
20
131.775943361295
30
0
11
1157.51474176584
21
257.349626910039
31
0
0
LINE
8
layer0
10
1157.51474176584
20
257.349626910039
30
0
11
1159.78413195491
21
257.29016005997
31
0
0
LINE
8
layer0
10
1157.51474176584
20
257.349626910039
30
0
11
1157.51474176584
21
131.775943361295
31
0
0
LINE
8
layer0
10
1157.51474176584
20
131.775943361295
30
0
11
1150.54066924986
21
131.958691187856
31
0
0
LINE
8
layer0
10
1150.54066924986
20
131.958691187856
30
0
11
1150.54066924986
21
257.532374736599
31
0
0
LINE
8
layer0
10
1150.54066924986
20
257.532374736599
30
0
11
1157.51474176584
21
257.349626910039
31
0
0
LINE
8
layer0
10
1150.54066924986
20
257.532374736599
30
0
11
1150.54066924986
21
131.958691187856
31
0
0
LINE
8
layer0
10
1150.54066924986
20
131.958691187856
30
0
11
1150.41092733235
21
131.962090930744
31
0
0
LINE
8
layer0
10
1150.41092733235
20
131.962090930744
30
0
11
1150.41092733235
21
257.535774479487
31
0
0
LINE
8
layer0
10
1150.41092733235
20
257.535774479487
30
0
11
1150.54066924986
21
257.532374736599
31
0
0
LINE
8
layer0
10
1141.34468193811
20
130.747444364859
30
0
11
1150.41092733235
21
131.962090930744
31
0
0
LINE
8
layer0
10
1150.41092733235
20
131.962090930744
30
0
11
1150.41092733235
21
127.631963911822
31
0
0
LINE
8
layer0
10
1150.41092733235
20
127.631963911822
30
0
11
1141.34468193811
21
126.417317345937
31
0
0
LINE
8
layer0
10
1141.34468193811
20
126.417317345937
30
0
11
1141.34468193811
21
130.747444364859
31
0
0
LINE
8
layer0
10
1150.41092733235
20
257.535774479487
30
0
11
1150.41092733235
21
131.962090930744
31
0
0
LINE
8
layer0
10
1150.41092733235
20
131.962090930744
30
0
11
1141.34468193811
21
130.747444364859
31
0
0
LINE
8
layer0
10
1141.34468193811
20
130.747444364859
30
0
11
1141.34468193811
21
256.321127913602
31
0
0
LINE
8
layer0
10
1141.34468193811
20
256.321127913602
30
0
11
1150.41092733235
21
257.535774479487
31
0
0
LINE
8
layer0
10
1133.47286303962
20
128.191434882381
30
0
11
1141.34468193811
21
130.747444364859
31
0
0
LINE
8
layer0
10
1141.34468193811
20
130.747444364859
30
0
11
1141.34468193811
21
126.417317345937
31
0
0
LINE
8
layer0
10
1141.34468193811
20
126.417317345937
30
0
11
1133.47286303962
21
123.861307863458
31
0
0
LINE
8
layer0
10
1133.47286303962
20
123.861307863458
30
0
11
1133.47286303962
21
128.191434882381
31
0
0
LINE
8
layer0
10
1141.34468193811
20
256.321127913602
30
0
11
1141.34468193811
21
130.747444364859
31
0
0
LINE
8
layer0
10
1141.34468193811
20
130.747444364859
30
0
11
1140.685431426
21
130.533383220669
31
0
0
LINE
8
layer0
10
1140.685431426
20
130.533383220669
30
0
11
1140.685431426
21
256.107066769413
31
0
0
LINE
8
layer0
10
1140.685431426
20
256.107066769413
30
0
11
1141.34468193811
21
256.321127913602
31
0
0
LINE
8
layer0
10
1140.685431426
20
256.107066769413
30
0
11
1140.685431426
21
130.533383220669
31
0
0
LINE
8
layer0
10
1140.685431426
20
130.533383220669
30
0
11
1133.47286303962
21
128.191434882381
31
0
0
LINE
8
layer0
10
1133.47286303962
20
128.191434882381
30
0
11
1133.47286303962
21
253.765118431124
31
0
0
LINE
8
layer0
10
1133.47286303962
20
253.765118431124
30
0
11
1140.685431426
21
256.107066769413
31
0
0
LINE
8
layer0
10
1127.56601911685
20
124.54426250022
30
0
11
1133.47286303962
21
128.191434882381
31
0
0
LINE
8
layer0
10
1133.47286303962
20
128.191434882381
30
0
11
1133.47286303962
21
123.861307863458
31
0
0
LINE
8
layer0
10
1133.47286303962
20
123.861307863458
30
0
11
1127.56601911685
21
120.214135481297
31
0
0
LINE
8
layer0
10
1127.56601911685
20
120.214135481297
30
0
11
1127.56601911685
21
124.54426250022
31
0
0
LINE
8
layer0
10
1133.47286303962
20
253.765118431124
30
0
11
1133.47286303962
21
128.191434882381
31
0
0
LINE
8
layer0
10
1133.47286303962
20
128.191434882381
30
0
11
1132.79290650202
21
127.771596684961
31
0
0
LINE
8
layer0
10
1132.79290650202
20
127.771596684961
30
0
11
1132.79290650202
21
253.345280233705
31
0
0
LINE
8
layer0
10
1132.79290650202
20
253.345280233705
30
0
11
1133.47286303962
21
253.765118431124
31
0
0
LINE
8
layer0
10
1132.79290650202
20
253.345280233705
30
0
11
1132.79290650202
21
127.771596684961
31
0
0
LINE
8
layer0
10
1132.79290650202
20
127.771596684961
30
0
11
1127.56601911685
21
124.54426250022
31
0
0
LINE
8
layer0
10
1127.56601911685
20
124.54426250022
30
0
11
1127.56601911685
21
250.117946048963
31
0
0
LINE
8
layer0
10
1127.56601911685
20
250.117946048963
30
0
11
1132.79290650202
21
253.345280233705
31
0
0
LINE
8
layer0
10
960.066019116849
20
-20.5149926336737
30
0
11
1127.56601911685
21
124.54426250022
31
0
0
LINE
8
layer0
10
1127.56601911685
20
124.54426250022
30
0
11
1127.56601911685
21
120.214135481297
31
0
0
LINE
8
layer0
10
1127.56601911685
20
120.214135481297
30
0
11
960.066019116849
21
-24.8451196525959
31
0
0
LINE
8
layer0
10
960.066019116849
20
-24.8451196525959
30
0
11
960.066019116849
21
-20.5149926336737
31
0
0
LINE
8
layer0
10
1127.56601911685
20
250.117946048963
30
0
11
1127.56601911685
21
124.54426250022
31
0
0
LINE
8
layer0
10
1127.56601911685
20
124.54426250022
30
0
11
1127.05715597116
21
124.103574089007
31
0
0
LINE
8
layer0
10
1127.05715597116
20
124.103574089007
30
0
11
1127.05715597116
21
249.677257637751
31
0
0
LINE
8
layer0
10
1127.05715597116
20
249.677257637751
30
0
11
1127.56601911685
21
250.117946048963
31
0
0
LINE
8
layer0
10
1127.05715597116
20
249.677257637751
30
0
11
1127.05715597116
21
124.103574089007
31
0
0
LINE
8
layer0
10
1127.05715597116
20
124.103574089007
30
0
11
1118.42382972351
21
116.626894239375
31
0
0
LINE
8
layer0
10
1118.42382972351
20
116.626894239375
30
0
11
1118.42382972351
21
242.200577788119
31
0
0
LINE
8
layer0
10
1118.42382972351
20
242.200577788119
30
0
11
1127.05715597116
21
249.677257637751
31
0
0
LINE
8
layer0
10
1118.42382972351
20
242.200577788119
30
0
11
1118.42382972351
21
116.626894239375
31
0
0
LINE
8
layer0
10
1118.42382972351
20
116.626894239375
30
0
11
960.066019116849
21
-20.5149926336737
31
0
0
LINE
8
layer0
10
960.066019116849
20
-20.5149926336737
30
0
11
960.066019116849
21
105.05869091507
31
0
0
LINE
8
layer0
10
960.066019116849
20
105.05869091507
30
0
11
1118.42382972351
21
242.200577788119
31
0
0
LINE
8
layer0
10
956.702353208368
20
-24.8963172714074
30
0
11
960.066019116849
21
-20.5149926336737
31
0
0
LINE
8
layer0
10
960.066019116849
20
-20.5149926336737
30
0
11
960.066019116849
21
-24.8451196525959
31
0
0
LINE
8
layer0
10
960.066019116849
20
-24.8451196525959
30
0
11
956.702353208368
21
-29.2264442903296
31
0
0
LINE
8
layer0
10
956.702353208368
20
-29.2264442903296
30
0
11
956.702353208368
21
-24.8963172714074
31
0
0
LINE
8
layer0
10
960.066019116849
20
105.05869091507
30
0
11
960.066019116849
21
-20.5149926336737
31
0
0
LINE
8
layer0
10
960.066019116849
20
-20.5149926336737
30
0
11
956.702353208368
21
-24.8963172714074
31
0
0
LINE
8
layer0
10
956.702353208368
20
-24.8963172714074
30
0
11
956.702353208368
21
100.677366277336
31
0
0
LINE
8
layer0
10
956.702353208368
20
100.677366277336
30
0
11
960.066019116849
21
105.05869091507
31
0
0
LINE
8
layer0
10
956.211124369334
20
-29.5829195826886
30
0
11
956.702353208368
21
-24.8963172714074
31
0
0
LINE
8
layer0
10
956.702353208368
20
-24.8963172714074
30
0
11
956.702353208368
21
-29.2264442903296
31
0
0
LINE
8
layer0
10
956.702353208368
20
-29.2264442903296
30
0
11
956.211124369334
21
-33.9130466016107
31
0
0
LINE
8
layer0
10
956.211124369334
20
-33.9130466016107
30
0
11
956.211124369334
21
-29.5829195826886
31
0
0
LINE
8
layer0
10
956.702353208368
20
100.677366277336
30
0
11
956.702353208368
21
-24.8963172714074
31
0
0
LINE
8
layer0
10
956.702353208368
20
-24.8963172714074
30
0
11
956.583419508232
21
-26.0310123659461
31
0
0
LINE
8
layer0
10
956.583419508232
20
-26.0310123659461
30
0
11
956.583419508232
21
99.5426711827976
31
0
0
LINE
8
layer0
10
956.583419508232
20
99.5426711827976
30
0
11
956.702353208368
21
100.677366277336
31
0
0
LINE
8
layer0
10
956.583419508232
20
99.5426711827976
30
0
11
956.583419508232
21
-26.0310123659461
31
0
0
LINE
8
layer0
10
956.583419508232
20
-26.0310123659461
30
0
11
956.211124369334
21
-29.5829195826886
31
0
0
LINE
8
layer0
10
956.211124369334
20
-29.5829195826886
30
0
11
956.211124369334
21
95.9907639660551
31
0
0
LINE
8
layer0
10
956.211124369334
20
95.9907639660551
30
0
11
956.583419508232
21
99.5426711827976
31
0
0
LINE
8
layer0
10
958.640417501104
20
-34.1160422798108
30
0
11
956.211124369334
21
-29.5829195826886
31
0
0
LINE
8
layer0
10
956.211124369334
20
-29.5829195826886
30
0
11
956.211124369334
21
-33.9130466016107
31
0
0
LINE
8
layer0
10
956.211124369334
20
-33.9130466016107
30
0
11
958.640417501104
21
-38.446169298733
31
0
0
LINE
8
layer0
10
958.640417501104
20
-38.446169298733
30
0
11
958.640417501104
21
-34.1160422798108
31
0
0
LINE
8
layer0
10
956.211124369334
20
95.9907639660551
30
0
11
956.211124369334
21
-29.5829195826886
31
0
0
LINE
8
layer0
10
956.211124369334
20
-29.5829195826886
30
0
11
956.537859621054
21
-30.1926158627106
31
0
0
LINE
8
layer0
10
956.537859621054
20
-30.1926158627106
30
0
11
956.537859621054
21
95.381067686033
31
0
0
LINE
8
layer0
10
956.537859621054
20
95.381067686033
30
0
11
956.211124369334
21
95.9907639660551
31
0
0
LINE
8
layer0
10
956.537859621054
20
95.381067686033
30
0
11
956.537859621054
21
-30.1926158627106
31
0
0
LINE
8
layer0
10
956.537859621054
20
-30.1926158627106
30
0
11
958.640417501104
21
-34.1160422798108
31
0
0
LINE
8
layer0
10
958.640417501104
20
-34.1160422798108
30
0
11
958.640417501104
21
91.4576412689329
31
0
0
LINE
8
layer0
10
958.640417501104
20
91.4576412689329
30
0
11
956.537859621054
21
95.381067686033
31
0
0
LINE
8
layer0
10
963.75243646606
20
-38.0519517290567
30
0
11
958.640417501104
21
-34.1160422798108
31
0
0
LINE
8
layer0
10
958.640417501104
20
-34.1160422798108
30
0
11
958.640417501104
21
-38.446169298733
31
0
0
LINE
8
layer0
10
958.640417501104
20
-38.446169298733
30
0
11
963.75243646606
21
-42.3820787479788
31
0
0
LINE
8
layer0
10
963.75243646606
20
-42.3820787479788
30
0
11
963.75243646606
21
-38.0519517290567
31
0
0
LINE
8
layer0
10
958.640417501104
20
91.4576412689329
30
0
11
958.640417501104
21
-34.1160422798108
31
0
0
LINE
8
layer0
10
958.640417501104
20
-34.1160422798108
30
0
11
961.171867039697
21
-36.0650875058828
31
0
0
LINE
8
layer0
10
961.171867039697
20
-36.0650875058828
30
0
11
961.171867039697
21
89.5085960428607
31
0
0
LINE
8
layer0
10
961.171867039697
20
89.5085960428607
30
0
11
958.640417501104
21
91.4576412689329
31
0
0
LINE
8
layer0
10
961.171867039697
20
89.5085960428607
30
0
11
961.171867039697
21
-36.0650875058828
31
0
0
LINE
8
layer0
10
961.171867039697
20
-36.0650875058828
30
0
11
963.75243646606
21
-38.0519517290567
31
0
0
LINE
8
layer0
10
963.75243646606
20
-38.0519517290567
30
0
11
963.75243646606
21
87.521731819687
31
0
0
LINE
8
layer0
10
963.75243646606
20
87.521731819687
30
0
11
961.171867039697
21
89.5085960428607
31
0
0
LINE
8
layer0
10
971.046781230382
20
-41.0053736904404
30
0
11
963.75243646606
21
-38.0519517290567
31
0
0
LINE
8
layer0
10
963.75243646606
20
-38.0519517290567
30
0
11
963.75243646606
21
-42.3820787479788
31
0
0
LINE
8
layer0
10
963.75243646606
20
-42.3820787479788
30
0
11
971.046781230382
21
-45.3355007093626
31
0
0
LINE
8
layer0
10
971.046781230382
20
-45.3355007093626
30
0
11
971.046781230382
21
-41.0053736904404
31
0
0
LINE
8
layer0
10
963.75243646606
20
87.521731819687
30
0
11
963.75243646606
21
-38.0519517290567
31
0
0
LINE
8
layer0
10
963.75243646606
20
-38.0519517290567
30
0
11
969.266653240865
21
-40.2846140789634
31
0
0
LINE
8
layer0
10
969.266653240865
20
-40.2846140789634
30
0
11
969.266653240865
21
85.2890694697803
31
0
0
LINE
8
layer0
10
969.266653240865
20
85.2890694697803
30
0
11
963.75243646606
21
87.521731819687
31
0
0
LINE
8
layer0
10
969.266653240865
20
85.2890694697803
30
0
11
969.266653240865
21
-40.2846140789634
31
0
0
LINE
8
layer0
10
969.266653240865
20
-40.2846140789634
30
0
11
971.046781230382
21
-41.0053736904404
31
0
0
LINE
8
layer0
10
971.046781230382
20
-41.0053736904404
30
0
11
971.046781230382
21
84.5683098583033
31
0
0
LINE
8
layer0
10
971.046781230382
20
84.5683098583033
30
0
11
969.266653240865
21
85.2890694697803
31
0
0
LINE
8
layer0
10
1216.13197050138
20
-111.75537369044
30
0
11
971.046781230382
21
-41.0053736904404
31
0
0
LINE
8
layer0
10
971.046781230382
20
-41.0053736904404
30
0
11
971.046781230382
21
-45.3355007093626
31
0
0
LINE
8
layer0
10
971.046781230382
20
-45.3355007093626
30
0
11
1216.13197050138
21
-116.085500709362
31
0
0
LINE
8
layer0
10
1216.13197050138
20
-116.085500709362
30
0
11
1216.13197050138
21
-111.75537369044
31
0
0
LINE
8
layer0
10
971.046781230382
20
84.5683098583033
30
0
11
971.046781230382
21
-41.0053736904404
31
0
0
LINE
8
layer0
10
971.046781230382
20
-41.0053736904404
30
0
11
980.426510830315
21
-43.7130683951641
31
0
0
LINE
8
layer0
10
980.426510830315
20
-43.7130683951641
30
0
11
980.426510830315
21
81.8606151535796
31
0
0
LINE
8
layer0
10
980.426510830315
20
81.8606151535796
30
0
11
971.046781230382
21
84.5683098583033
31
0
0
LINE
8
layer0
10
980.426510830315
20
81.8606151535796
30
0
11
980.426510830315
21
-43.7130683951641
31
0
0
LINE
8
layer0
10
980.426510830315
20
-43.7130683951641
30
0
11
1014.22086377653
21
-53.4686577804558
31
0
0
LINE
8
layer0
10
1014.22086377653
20
-53.4686577804558
30
0
11
1014.22086377653
21
72.1050257682878
31
0
0
LINE
8
layer0
10
1014.22086377653
20
72.1050257682878
30
0
11
980.426510830315
21
81.8606151535796
31
0
0
LINE
8
layer0
10
1014.22086377653
20
72.1050257682878
30
0
11
1014.22086377653
21
-53.4686577804558
31
0
0
LINE
8
layer0
10
1014.22086377653
20
-53.4686577804558
30
0
11
1216.13197050138
21
-111.75537369044
31
0
0
LINE
8
layer0
10
1216.13197050138
20
-111.75537369044
30
0
11
1216.13197050138
21
13.8183098583033
31
0
0
LINE
8
layer0
10
1216.13197050138
20
13.8183098583033
30
0
11
1014.22086377653
21
72.1050257682878
31
0
0
LINE
8
layer0
10
1224.89461977685
20
-113.437206644681
30
0
11
1216.13197050138
21
-111.75537369044
31
0
0
LINE
8
layer0
10
1216.13197050138
20
-111.75537369044
30
0
11
1216.13197050138
21
-116.085500709362
31
0
0
LINE
8
layer0
10
1216.13197050138
20
-116.085500709362
30
0
11
1224.89461977685
21
-117.767333663603
31
0
0
LINE
8
layer0
10
1224.89461977685
20
-117.767333663603
30
0
11
1224.89461977685
21
-113.437206644681
31
0
0
LINE
8
layer0
10
1216.13197050138
20
13.8183098583033
30
0
11
1216.13197050138
21
-111.75537369044
31
0
0
LINE
8
layer0
10
1216.13197050138
20
-111.75537369044
30
0
11
1224.89461977685
21
-113.437206644681
31
0
0
LINE
8
layer0
10
1224.89461977685
20
-113.437206644681
30
0
11
1224.89461977685
21
12.1364769040628
31
0
0
LINE
8
layer0
10
1224.89461977685
20
12.1364769040628
30
0
11
1216.13197050138
21
13.8183098583033
31
0
0
LINE
8
layer0
10
1234.26782439941
20
-113.682821064198
30
0
11
1224.89461977685
21
-113.437206644681
31
0
0
LINE
8
layer0
10
1224.89461977685
20
-113.437206644681
30
0
11
1224.89461977685
21
-117.767333663603
31
0
0
LINE
8
layer0
10
1224.89461977685
20
-117.767333663603
30
0
11
1234.26782439941
21
-118.01294808312
31
0
0
LINE
8
layer0
10
1234.26782439941
20
-118.01294808312
30
0
11
1234.26782439941
21
-113.682821064198
31
0
0
LINE
8
layer0
10
1224.89461977685
20
12.1364769040628
30
0
11
1224.89461977685
21
-113.437206644681
31
0
0
LINE
8
layer0
10
1224.89461977685
20
-113.437206644681
30
0
11
1234.26782439941
21
-113.682821064198
31
0
0
LINE
8
layer0
10
1234.26782439941
20
-113.682821064198
30
0
11
1234.26782439941
21
11.8908624845458
31
0
0
LINE
8
layer0
10
1234.26782439941
20
11.8908624845458
30
0
11
1224.89461977685
21
12.1364769040628
31
0
0
LINE
8
layer0
10
1243.33406979365
20
-112.468174498313
30
0
11
1234.26782439941
21
-113.682821064198
31
0
0
LINE
8
layer0
10
1234.26782439941
20
-113.682821064198
30
0
11
1234.26782439941
21
-118.01294808312
31
0
0
LINE
8
layer0
10
1234.26782439941
20
-118.01294808312
30
0
11
1243.33406979365
21
-116.798301517235
31
0
0
LINE
8
layer0
10
1243.33406979365
20
-116.798301517235
30
0
11
1243.33406979365
21
-112.468174498313
31
0
0
LINE
8
layer0
10
1234.26782439941
20
11.8908624845458
30
0
11
1234.26782439941
21
-113.682821064198
31
0
0
LINE
8
layer0
10
1234.26782439941
20
-113.682821064198
30
0
11
1236.68638580654
21
-113.358795276254
31
0
0
LINE
8
layer0
10
1236.68638580654
20
-113.358795276254
30
0
11
1236.68638580654
21
12.2148882724893
31
0
0
LINE
8
layer0
10
1236.68638580654
20
12.2148882724893
30
0
11
1234.26782439941
21
11.8908624845458
31
0
0
LINE
8
layer0
10
1236.68638580654
20
12.2148882724893
30
0
11
1236.68638580654
21
-113.358795276254
31
0
0
LINE
8
layer0
10
1236.68638580654
20
-113.358795276254
30
0
11
1243.33406979365
21
-112.468174498313
31
0
0
LINE
8
layer0
10
1243.33406979365
20
-112.468174498313
30
0
11
1243.33406979365
21
13.1055090504308
31
0
0
LINE
8
layer0
10
1243.33406979365
20
13.1055090504308
30
0
11
1236.68638580654
21
12.2148882724893
31
0
0
LINE
8
layer0
10
1251.20588869214
20
-109.912165015835
30
0
11
1243.33406979365
21
-112.468174498313
31
0
0
LINE
8
layer0
10
1243.33406979365
20
-112.468174498313
30
0
11
1243.33406979365
21
-116.798301517235
31
0
0
LINE
8
layer0
10
1243.33406979365
20
-116.798301517235
30
0
11
1251.20588869214
21
-114.242292034757
31
0
0
LINE
8
layer0
10
1251.20588869214
20
-114.242292034757
30
0
11
1251.20588869214
21
-109.912165015835
31
0
0
LINE
8
layer0
10
1243.33406979365
20
13.1055090504308
30
0
11
1243.33406979365
21
-112.468174498313
31
0
0
LINE
8
layer0
10
1243.33406979365
20
-112.468174498313
30
0
11
1243.50353601184
21
-112.413148173873
31
0
0
LINE
8
layer0
10
1243.50353601184
20
-112.413148173873
30
0
11
1243.50353601184
21
13.1605353748711
31
0
0
LINE
8
layer0
10
1243.50353601184
20
13.1605353748711
30
0
11
1243.33406979365
21
13.1055090504308
31
0
0
LINE
8
layer0
10
1243.50353601184
20
13.1605353748711
30
0
11
1243.50353601184
21
-112.413148173873
31
0
0
LINE
8
layer0
10
1243.50353601184
20
-112.413148173873
30
0
11
1251.20588869214
21
-109.912165015835
31
0
0
LINE
8
layer0
10
1251.20588869214
20
-109.912165015835
30
0
11
1251.20588869214
21
15.661518532909
31
0
0
LINE
8
layer0
10
1251.20588869214
20
15.661518532909
30
0
11
1243.50353601184
21
13.1605353748711
31
0
0
LINE
8
layer0
10
1257.11273261491
20
-106.264992633674
30
0
11
1251.20588869214
21
-109.912165015835
31
0
0
LINE
8
layer0
10
1251.20588869214
20
-109.912165015835
30
0
11
1251.20588869214
21
-114.242292034757
31
0
0
LINE
8
layer0
10
1251.20588869214
20
-114.242292034757
30
0
11
1257.11273261491
21
-110.595119652596
31
0
0
LINE
8
layer0
10
1257.11273261491
20
-110.595119652596
30
0
11
1257.11273261491
21
-106.264992633674
31
0
0
LINE
8
layer0
10
1251.20588869214
20
15.661518532909
30
0
11
1251.20588869214
21
-109.912165015835
31
0
0
LINE
8
layer0
10
1251.20588869214
20
-109.912165015835
30
0
11
1252.5049769741
21
-109.1100448031
31
0
0
LINE
8
layer0
10
1252.5049769741
20
-109.1100448031
30
0
11
1252.5049769741
21
16.4636387456441
31
0
0
LINE
8
layer0
10
1252.5049769741
20
16.4636387456441
30
0
11
1251.20588869214
21
15.661518532909
31
0
0
LINE
8
layer0
10
1252.5049769741
20
16.4636387456441
30
0
11
1252.5049769741
21
-109.1100448031
31
0
0
LINE
8
layer0
10
1252.5049769741
20
-109.1100448031
30
0
11
1257.11273261491
21
-106.264992633674
31
0
0
LINE
8
layer0
10
1257.11273261491
20
-106.264992633674
30
0
11
1257.11273261491
21
19.3086909150699
31
0
0
LINE
8
layer0
10
1257.11273261491
20
19.3086909150699
30
0
11
1252.5049769741
21
16.4636387456441
31
0
0
LINE
8
layer0
10
1424.61273261491
20
38.7942625002197
30
0
11
1257.11273261491
21
-106.264992633674
31
0
0
LINE
8
layer0
10
1257.11273261491
20
-106.264992633674
30
0
11
1257.11273261491
21
-110.595119652596
31
0
0
LINE
8
layer0
10
1257.11273261491
20
-110.595119652596
30
0
11
1424.61273261491
21
34.4641354812975
31
0
0
LINE
8
layer0
10
1424.61273261491
20
34.4641354812975
30
0
11
1424.61273261491
21
38.7942625002197
31
0
0
LINE
8
layer0
10
1257.11273261491
20
19.3086909150699
30
0
11
1257.11273261491
21
-106.264992633674
31
0
0
LINE
8
layer0
10
1257.11273261491
20
-106.264992633674
30
0
11
1258.6606989149
21
-104.924414493681
31
0
0
LINE
8
layer0
10
1258.6606989149
20
-104.924414493681
30
0
11
1258.6606989149
21
20.6492690550622
31
0
0
LINE
8
layer0
10
1258.6606989149
20
20.6492690550622
30
0
11
1257.11273261491
21
19.3086909150699
31
0
0
LINE
8
layer0
10
1258.6606989149
20
20.6492690550622
30
0
11
1258.6606989149
21
-104.924414493681
31
0
0
LINE
8
layer0
10
1258.6606989149
20
-104.924414493681
30
0
11
1265.02812202436
21
-99.4100643242459
31
0
0
LINE
8
layer0
10
1265.02812202436
20
-99.4100643242459
30
0
11
1265.02812202436
21
26.1636192244977
31
0
0
LINE
8
layer0
10
1265.02812202436
20
26.1636192244977
30
0
11
1258.6606989149
21
20.6492690550622
31
0
0
LINE
8
layer0
10
1265.02812202436
20
26.1636192244977
30
0
11
1265.02812202436
21
-99.4100643242459
31
0
0
LINE
8
layer0
10
1265.02812202436
20
-99.4100643242459
30
0
11
1284.53930079494
21
-82.5128878511405
31
0
0
LINE
8
layer0
10
1284.53930079494
20
-82.5128878511405
30
0
11
1284.53930079494
21
43.0607956976031
31
0
0
LINE
8
layer0
10
1284.53930079494
20
43.0607956976031
30
0
11
1265.02812202436
21
26.1636192244977
31
0
0
LINE
8
layer0
10
1284.53930079494
20
43.0607956976031
30
0
11
1284.53930079494
21
-82.5128878511405
31
0
0
LINE
8
layer0
10
1284.53930079494
20
-82.5128878511405
30
0
11
1424.61273261491
21
38.7942625002197
31
0
0
LINE
8
layer0
10
1424.61273261491
20
38.7942625002197
30
0
11
1424.61273261491
21
164.367946048963
31
0
0
LINE
8
layer0
10
1424.61273261491
20
164.367946048963
30
0
11
1284.53930079494
21
43.0607956976031
31
0
0
LINE
8
layer0
10
1427.97639852339
20
43.1755871379533
30
0
11
1424.61273261491
21
38.7942625002197
31
0
0
LINE
8
layer0
10
1424.61273261491
20
38.7942625002197
30
0
11
1424.61273261491
21
34.4641354812975
31
0
0
LINE
8
layer0
10
1424.61273261491
20
34.4641354812975
30
0
11
1427.97639852339
21
38.8454601190311
31
0
0
LINE
8
layer0
10
1427.97639852339
20
38.8454601190311
30
0
11
1427.97639852339
21
43.1755871379533
31
0
0
LINE
8
layer0
10
1424.61273261491
20
164.367946048963
30
0
11
1424.61273261491
21
38.7942625002197
31
0
0
LINE
8
layer0
10
1424.61273261491
20
38.7942625002197
30
0
11
1427.97639852339
21
43.1755871379533
31
0
0
LINE
8
layer0
10
1427.97639852339
20
43.1755871379533
30
0
11
1427.97639852339
21
168.749270686697
31
0
0
LINE
8
layer0
10
1427.97639852339
20
168.749270686697
30
0
11
1424.61273261491
21
164.367946048963
31
0
0
LINE
8
layer0
10
1428.46762736243
20
47.8621894492345
30
0
11
1427.97639852339
21
43.1755871379533
31
0
0
LINE
8
layer0
10
1427.97639852339
20
43.1755871379533
30
0
11
1427.97639852339
21
38.8454601190311
31
0
0
LINE
8
layer0
10
1427.97639852339
20
38.8454601190311
30
0
11
1428.46762736243
21
43.5320624303123
31
0
0
LINE
8
layer0
10
1428.46762736243
20
43.5320624303123
30
0
11
1428.46762736243
21
47.8621894492345
31
0
0
LINE
8
layer0
10
1427.97639852339
20
168.749270686697
30
0
11
1427.97639852339
21
43.1755871379533
31
0
0
LINE
8
layer0
10
1427.97639852339
20
43.1755871379533
30
0
11
1428.46762736243
21
47.8621894492345
31
0
0
LINE
8
layer0
10
1428.46762736243
20
47.8621894492345
30
0
11
1428.46762736243
21
173.435872997978
31
0
0
LINE
8
layer0
10
1428.46762736243
20
173.435872997978
30
0
11
1427.97639852339
21
168.749270686697
31
0
0
LINE
8
layer0
10
1426.03833423066
20
52.3953121463567
30
0
11
1428.46762736243
21
47.8621894492345
31
0
0
LINE
8
layer0
10
1428.46762736243
20
47.8621894492345
30
0
11
1428.46762736243
21
43.5320624303123
31
0
0
LINE
8
layer0
10
1428.46762736243
20
43.5320624303123
30
0
11
1426.03833423066
21
48.0651851274345
31
0
0
LINE
8
layer0
10
1426.03833423066
20
48.0651851274345
30
0
11
1426.03833423066
21
52.3953121463567
31
0
0
LINE
8
layer0
10
1428.46762736243
20
173.435872997978
30
0
11
1428.46762736243
21
47.8621894492345
31
0
0
LINE
8
layer0
10
1428.46762736243
20
47.8621894492345
30
0
11
1427.81957578654
21
49.0714701528022
31
0
0
LINE
8
layer0
10
1427.81957578654
20
49.0714701528022
30
0
11
1427.81957578654
21
174.645153701546
31
0
0
LINE
8
layer0
10
1427.81957578654
20
174.645153701546
30
0
11
1428.46762736243
21
173.435872997978
31
0
0
LINE
8
layer0
10
1427.81957578654
20
174.645153701546
30
0
11
1427.81957578654
21
49.0714701528022
31
0
0
LINE
8
layer0
10
1427.81957578654
20
49.0714701528022
30
0
11
1426.31076509178
21
51.8869492387176
31
0
0
LINE
8
layer0
10
1426.31076509178
20
51.8869492387176
30
0
11
1426.31076509178
21
177.460632787461
31
0
0
LINE
8
layer0
10
1426.31076509178
20
177.460632787461
30
0
11
1427.81957578654
21
174.645153701546
31
0
0
LINE
8
layer0
10
1426.31076509178
20
177.460632787461
30
0
11
1426.31076509178
21
51.8869492387176
31
0
0
LINE
8
layer0
10
1426.31076509178
20
51.8869492387176
30
0
11
1426.03833423066
21
52.3953121463567
31
0
0
LINE
8
layer0
10
1426.03833423066
20
52.3953121463567
30
0
11
1426.03833423066
21
177.9689956951
31
0
0
LINE
8
layer0
10
1426.03833423066
20
177.9689956951
30
0
11
1426.31076509178
21
177.460632787461
31
0
0
LINE
8
layer0
10
1420.9263152657
20
56.3312215956026
30
0
11
1426.03833423066
21
52.3953121463567
31
0
0
LINE
8
layer0
10
1426.03833423066
20
52.3953121463567
30
0
11
1426.03833423066
21
48.0651851274345
31
0
0
LINE
8
layer0
10
1426.03833423066
20
48.0651851274345
30
0
11
1420.9263152657
21
52.0010945766804
31
0
0
LINE
8
layer0
10
1420.9263152657
20
52.0010945766804
30
0
11
1420.9263152657
21
56.3312215956026
31
0
0
LINE
8
layer0
10
1422.16400996592
20
180.95196379196
30
0
11
1422.16400996592
21
55.3782802432165
31
0
0
LINE
8
layer0
10
1422.16400996592
20
55.3782802432165
30
0
11
1420.9263152657
21
56.3312215956026
31
0
0
LINE
8
layer0
10
1420.9263152657
20
56.3312215956026
30
0
11
1420.9263152657
21
181.904905144346
31
0
0
LINE
8
layer0
10
1420.9263152657
20
181.904905144346
30
0
11
1422.16400996592
21
180.95196379196
31
0
0
LINE
8
layer0
10
1426.03833423066
20
177.9689956951
30
0
11
1426.03833423066
21
52.3953121463567
31
0
0
LINE
8
layer0
10
1426.03833423066
20
52.3953121463567
30
0
11
1422.16400996592
21
55.3782802432165
31
0
0
LINE
8
layer0
10
1422.16400996592
20
55.3782802432165
30
0
11
1422.16400996592
21
180.95196379196
31
0
0
LINE
8
layer0
10
1422.16400996592
20
180.95196379196
30
0
11
1426.03833423066
21
177.9689956951
31
0
0
LINE
8
layer0
10
1413.63197050138
20
59.2846435569863
30
0
11
1420.9263152657
21
56.3312215956026
31
0
0
LINE
8
layer0
10
1420.9263152657
20
56.3312215956026
30
0
11
1420.9263152657
21
52.0010945766804
31
0
0
LINE
8
layer0
10
1420.9263152657
20
52.0010945766804
30
0
11
1413.63197050138
21
54.9545165380641
31
0
0
LINE
8
layer0
10
1413.63197050138
20
54.9545165380641
30
0
11
1413.63197050138
21
59.2846435569863
31
0
0
LINE
8
layer0
10
1420.9263152657
20
181.904905144346
30
0
11
1420.9263152657
21
56.3312215956026
31
0
0
LINE
8
layer0
10
1420.9263152657
20
56.3312215956026
30
0
11
1413.63197050138
21
59.2846435569863
31
0
0
LINE
8
layer0
10
1413.63197050138
20
59.2846435569863
30
0
11
1413.63197050138
21
184.85832710573
31
0
0
LINE
8
layer0
10
1413.63197050138
20
184.85832710573
30
0
11
1420.9263152657
21
181.904905144346
31
0
0
LINE
8
layer0
10
1405.88677997299
20
60.0771118022558
30
0
11
1169.46184473984
21
128.327111802256
31
0
0
LINE
8
layer0
10
1169.46184473984
20
128.327111802256
30
0
11
1160.69919546438
21
130.008944756496
31
0
0
LINE
8
layer0
10
1160.69919546438
20
130.008944756496
30
0
11
1151.32599084181
21
130.254559176013
31
0
0
LINE
8
layer0
10
1151.32599084181
20
130.254559176013
30
0
11
1142.25974544757
21
129.039912610128
31
0
0
LINE
8
layer0
10
1142.25974544757
20
129.039912610128
30
0
11
1134.38792654908
21
126.48390312765
31
0
0
LINE
8
layer0
10
1134.38792654908
20
126.48390312765
30
0
11
1128.48108262631
21
122.836730745489
31
0
0
LINE
8
layer0
10
1128.48108262631
20
122.836730745489
30
0
11
965.98108262631
21
-17.8923973694821
31
0
0
LINE
8
layer0
10
965.98108262631
20
-17.8923973694821
30
0
11
962.617416717829
21
-22.2737220072158
31
0
0
LINE
8
layer0
10
962.617416717829
20
-22.2737220072158
30
0
11
962.126187878795
21
-26.960324318497
31
0
0
LINE
8
layer0
10
962.126187878795
20
-26.960324318497
30
0
11
964.555481010565
21
-31.4934470156192
31
0
0
LINE
8
layer0
10
964.555481010565
20
-31.4934470156192
30
0
11
969.667499975521
21
-35.429356464865
31
0
0
LINE
8
layer0
10
969.667499975521
20
-35.429356464865
30
0
11
976.961844739843
21
-38.3827784262487
31
0
0
LINE
8
layer0
10
976.961844739843
20
-38.3827784262487
30
0
11
1213.38677997299
21
-106.632778426249
31
0
0
LINE
8
layer0
10
1213.38677997299
20
-106.632778426249
30
0
11
1222.14942924846
21
-108.314611380489
31
0
0
LINE
8
layer0
10
1222.14942924846
20
-108.314611380489
30
0
11
1231.52263387102
21
-108.560225800006
31
0
0
LINE
8
layer0
10
1231.52263387102
20
-108.560225800006
30
0
11
1240.58887926527
21
-107.345579234121
31
0
0
LINE
8
layer0
10
1240.58887926527
20
-107.345579234121
30
0
11
1248.46069816376
21
-104.789569751643
31
0
0
LINE
8
layer0
10
1248.46069816376
20
-104.789569751643
30
0
11
1254.36754208653
21
-101.142397369482
31
0
0
LINE
8
layer0
10
1254.36754208653
20
-101.142397369482
30
0
11
1416.86754208653
21
39.5867307454891
31
0
0
LINE
8
layer0
10
1416.86754208653
20
39.5867307454891
30
0
11
1420.23120799501
21
43.9680553832228
31
0
0
LINE
8
layer0
10
1420.23120799501
20
43.9680553832228
30
0
11
1420.72243683404
21
48.654657694504
31
0
0
LINE
8
layer0
10
1420.72243683404
20
48.654657694504
30
0
11
1418.29314370227
21
53.1877803916262
31
0
0
LINE
8
layer0
10
1418.29314370227
20
53.1877803916262
30
0
11
1413.18112473732
21
57.123689840872
31
0
0
LINE
8
layer0
10
1413.18112473732
20
57.123689840872
30
0
11
1405.88677997299
21
60.0771118022558
31
0
0
LINE
8
layer0
10
1405.88677997299
20
60.0771118022558
30
0
11
1405.88677997299
21
185.650795350999
31
0
0
LINE
8
layer0
10
1405.88677997299
20
185.650795350999
30
0
11
1169.46184473984
21
253.900795350999
31
0
0
LINE
8
layer0
10
1169.46184473984
20
253.900795350999
30
0
11
1169.46184473984
21
128.327111802256
31
0
0
LINE
8
layer0
10
1169.46184473984
20
128.327111802256
30
0
11
1405.88677997299
21
60.0771118022558
31
0
0
LINE
8
layer0
10
1169.46184473984
20
128.327111802256
30
0
11
1169.46184473984
21
253.900795350999
31
0
0
LINE
8
layer0
10
1169.46184473984
20
253.900795350999
30
0
11
1160.69919546438
21
255.58262830524
31
0
0
LINE
8
layer0
10
1160.69919546438
20
255.58262830524
30
0
11
1160.69919546438
21
130.008944756496
31
0
0
LINE
8
layer0
10
1160.69919546438
20
130.008944756496
30
0
11
1169.46184473984
21
128.327111802256
31
0
0
LINE
8
layer0
10
1160.69919546438
20
130.008944756496
30
0
11
1160.69919546438
21
255.58262830524
31
0
0
LINE
8
layer0
10
1160.69919546438
20
255.58262830524
30
0
11
1151.32599084181
21
255.828242724757
31
0
0
LINE
8
layer0
10
1151.32599084181
20
255.828242724757
30
0
11
1151.32599084181
21
130.254559176013
31
0
0
LINE
8
layer0
10
1151.32599084181
20
130.254559176013
30
0
11
1160.69919546438
21
130.008944756496
31
0
0
LINE
8
layer0
10
1151.32599084181
20
130.254559176013
30
0
11
1151.32599084181
21
255.828242724757
31
0
0
LINE
8
layer0
10
1151.32599084181
20
255.828242724757
30
0
11
1142.25974544757
21
254.613596158872
31
0
0
LINE
8
layer0
10
1142.25974544757
20
254.613596158872
30
0
11
1142.25974544757
21
129.039912610128
31
0
0
LINE
8
layer0
10
1142.25974544757
20
129.039912610128
30
0
11
1151.32599084181
21
130.254559176013
31
0
0
LINE
8
layer0
10
1142.25974544757
20
129.039912610128
30
0
11
1142.25974544757
21
254.613596158872
31
0
0
LINE
8
layer0
10
1142.25974544757
20
254.613596158872
30
0
11
1134.38792654908
21
252.057586676394
31
0
0
LINE
8
layer0
10
1134.38792654908
20
252.057586676394
30
0
11
1134.38792654908
21
126.48390312765
31
0
0
LINE
8
layer0
10
1134.38792654908
20
126.48390312765
30
0
11
1142.25974544757
21
129.039912610128
31
0
0
LINE
8
layer0
10
1134.38792654908
20
126.48390312765
30
0
11
1134.38792654908
21
252.057586676394
31
0
0
LINE
8
layer0
10
1134.38792654908
20
252.057586676394
30
0
11
1128.48108262631
21
248.410414294233
31
0
0
LINE
8
layer0
10
1128.48108262631
20
248.410414294233
30
0
11
1128.48108262631
21
122.836730745489
31
0
0
LINE
8
layer0
10
1128.48108262631
20
122.836730745489
30
0
11
1134.38792654908
21
126.48390312765
31
0
0
LINE
8
layer0
10
1128.48108262631
20
122.836730745489
30
0
11
1128.48108262631
21
248.410414294233
31
0
0
LINE
8
layer0
10
1128.48108262631
20
248.410414294233
30
0
11
965.98108262631
21
107.681286179261
31
0
0
LINE
8
layer0
10
965.98108262631
20
107.681286179261
30
0
11
965.98108262631
21
-17.8923973694821
31
0
0
LINE
8
layer0
10
965.98108262631
20
-17.8923973694821
30
0
11
1128.48108262631
21
122.836730745489
31
0
0
LINE
8
layer0
10
965.98108262631
20
-17.8923973694821
30
0
11
965.98108262631
21
107.681286179262
31
0
0
LINE
8
layer0
10
965.98108262631
20
107.681286179262
30
0
11
962.617416717829
21
103.299961541528
31
0
0
LINE
8
layer0
10
962.617416717829
20
103.299961541528
30
0
11
962.617416717829
21
-22.2737220072158
31
0
0
LINE
8
layer0
10
962.617416717829
20
-22.2737220072158
30
0
11
965.98108262631
21
-17.8923973694821
31
0
0
LINE
8
layer0
10
962.617416717829
20
-22.2737220072158
30
0
11
962.617416717829
21
103.299961541528
31
0
0
LINE
8
layer0
10
962.617416717829
20
103.299961541528
30
0
11
962.126187878795
21
98.6133592302467
31
0
0
LINE
8
layer0
10
962.126187878795
20
98.6133592302467
30
0
11
962.126187878795
21
-26.960324318497
31
0
0
LINE
8
layer0
10
962.126187878795
20
-26.960324318497
30
0
11
962.617416717829
21
-22.2737220072158
31
0
0
LINE
8
layer0
10
962.126187878795
20
-26.960324318497
30
0
11
962.126187878795
21
98.6133592302467
31
0
0
LINE
8
layer0
10
962.126187878795
20
98.6133592302467
30
0
11
964.555481010565
21
94.0802365331245
31
0
0
LINE
8
layer0
10
964.555481010565
20
94.0802365331245
30
0
11
964.555481010565
21
-31.4934470156192
31
0
0
LINE
8
layer0
10
964.555481010565
20
-31.4934470156192
30
0
11
962.126187878795
21
-26.960324318497
31
0
0
LINE
8
layer0
10
964.555481010565
20
-31.4934470156192
30
0
11
964.555481010565
21
94.0802365331245
31
0
0
LINE
8
layer0
10
964.555481010565
20
94.0802365331245
30
0
11
969.667499975521
21
90.1443270838786
31
0
0
LINE
8
layer0
10
969.667499975521
20
90.1443270838786
30
0
11
969.667499975521
21
-35.429356464865
31
0
0
LINE
8
layer0
10
969.667499975521
20
-35.429356464865
30
0
11
964.555481010565
21
-31.4934470156192
31
0
0
LINE
8
layer0
10
969.667499975521
20
-35.429356464865
30
0
11
969.667499975521
21
90.1443270838786
31
0
0
LINE
8
layer0
10
969.667499975521
20
90.1443270838786
30
0
11
976.961844739843
21
87.1909051224949
31
0
0
LINE
8
layer0
10
976.961844739843
20
87.1909051224949
30
0
11
976.961844739843
21
-38.3827784262487
31
0
0
LINE
8
layer0
10
976.961844739843
20
-38.3827784262487
30
0
11
969.667499975521
21
-35.429356464865
31
0
0
LINE
8
layer0
10
976.961844739843
20
-38.3827784262487
30
0
11
976.961844739843
21
87.1909051224949
31
0
0
LINE
8
layer0
10
976.961844739843
20
87.1909051224949
30
0
11
1213.38677997299
21
18.9409051224949
31
0
0
LINE
8
layer0
10
1213.38677997299
20
18.9409051224949
30
0
11
1213.38677997299
21
-106.632778426249
31
0
0
LINE
8
layer0
10
1213.38677997299
20
-106.632778426249
30
0
11
976.961844739843
21
-38.3827784262487
31
0
0
LINE
8
layer0
10
1213.38677997299
20
-106.632778426249
30
0
11
1213.38677997299
21
18.9409051224949
31
0
0
LINE
8
layer0
10
1213.38677997299
20
18.9409051224949
30
0
11
1222.14942924846
21
17.2590721682544
31
0
0
LINE
8
layer0
10
1222.14942924846
20
17.2590721682544
30
0
11
1222.14942924846
21
-108.314611380489
31
0
0
LINE
8
layer0
10
1222.14942924846
20
-108.314611380489
30
0
11
1213.38677997299
21
-106.632778426249
31
0
0
LINE
8
layer0
10
1222.14942924846
20
-108.314611380489
30
0
11
1222.14942924846
21
17.2590721682544
31
0
0
LINE
8
layer0
10
1222.14942924846
20
17.2590721682544
30
0
11
1231.52263387102
21
17.0134577487374
31
0
0
LINE
8
layer0
10
1231.52263387102
20
17.0134577487374
30
0
11
1231.52263387102
21
-108.560225800006
31
0
0
LINE
8
layer0
10
1231.52263387102
20
-108.560225800006
30
0
11
1222.14942924846
21
-108.314611380489
31
0
0
LINE
8
layer0
10
1231.52263387102
20
-108.560225800006
30
0
11
1231.52263387102
21
17.0134577487374
31
0
0
LINE
8
layer0
10
1231.52263387102
20
17.0134577487374
30
0
11
1240.58887926527
21
18.2281043146224
31
0
0
LINE
8
layer0
10
1240.58887926527
20
18.2281043146224
30
0
11
1240.58887926527
21
-107.345579234121
31
0
0
LINE
8
layer0
10
1240.58887926527
20
-107.345579234121
30
0
11
1231.52263387102
21
-108.560225800006
31
0
0
LINE
8
layer0
10
1240.58887926527
20
-107.345579234121
30
0
11
1240.58887926527
21
18.2281043146224
31
0
0
LINE
8
layer0
10
1240.58887926527
20
18.2281043146224
30
0
11
1248.46069816376
21
20.7841137971006
31
0
0
LINE
8
layer0
10
1248.46069816376
20
20.7841137971006
30
0
11
1248.46069816376
21
-104.789569751643
31
0
0
LINE
8
layer0
10
1248.46069816376
20
-104.789569751643
30
0
11
1240.58887926527
21
-107.345579234121
31
0
0
LINE
8
layer0
10
1248.46069816376
20
-104.789569751643
30
0
11
1248.46069816376
21
20.7841137971006
31
0
0
LINE
8
layer0
10
1248.46069816376
20
20.7841137971006
30
0
11
1254.36754208653
21
24.4312861792615
31
0
0
LINE
8
layer0
10
1254.36754208653
20
24.4312861792615
30
0
11
1254.36754208653
21
-101.142397369482
31
0
0
LINE
8
layer0
10
1254.36754208653
20
-101.142397369482
30
0
11
1248.46069816376
21
-104.789569751643
31
0
0
LINE
8
layer0
10
1254.36754208653
20
-101.142397369482
30
0
11
1254.36754208653
21
24.4312861792615
31
0
0
LINE
8
layer0
10
1254.36754208653
20
24.4312861792615
30
0
11
1416.86754208653
21
165.160414294233
31
0
0
LINE
8
layer0
10
1416.86754208653
20
165.160414294233
30
0
11
1416.86754208653
21
39.5867307454891
31
0
0
LINE
8
layer0
10
1416.86754208653
20
39.5867307454891
30
0
11
1254.36754208653
21
-101.142397369482
31
0
0
LINE
8
layer0
10
1416.86754208653
20
39.5867307454891
30
0
11
1416.86754208653
21
165.160414294233
31
0
0
LINE
8
layer0
10
1416.86754208653
20
165.160414294233
30
0
11
1420.23120799501
21
169.541738931966
31
0
0
LINE
8
layer0
10
1420.23120799501
20
169.541738931966
30
0
11
1420.23120799501
21
43.9680553832228
31
0
0
LINE
8
layer0
10
1420.23120799501
20
43.9680553832228
30
0
11
1416.86754208653
21
39.5867307454891
31
0
0
LINE
8
layer0
10
1420.23120799501
20
43.9680553832228
30
0
11
1420.23120799501
21
169.541738931966
31
0
0
LINE
8
layer0
10
1420.23120799501
20
169.541738931966
30
0
11
1420.72243683404
21
174.228341243248
31
0
0
LINE
8
layer0
10
1420.72243683404
20
174.228341243248
30
0
11
1420.72243683404
21
48.654657694504
31
0
0
LINE
8
layer0
10
1420.72243683404
20
48.654657694504
30
0
11
1420.23120799501
21
43.9680553832228
31
0
0
LINE
8
layer0
10
1420.72243683404
20
48.654657694504
30
0
11
1420.72243683404
21
174.228341243248
31
0
0
LINE
8
layer0
10
1420.72243683404
20
174.228341243248
30
0
11
1418.29314370227
21
178.76146394037
31
0
0
LINE
8
layer0
10
1418.29314370227
20
178.76146394037
30
0
11
1418.29314370227
21
53.1877803916262
31
0
0
LINE
8
layer0
10
1418.29314370227
20
53.1877803916262
30
0
11
1420.72243683404
21
48.654657694504
31
0
0
LINE
8
layer0
10
1418.29314370227
20
53.1877803916262
30
0
11
1418.29314370227
21
178.76146394037
31
0
0
LINE
8
layer0
10
1418.29314370227
20
178.76146394037
30
0
11
1413.18112473732
21
182.697373389616
31
0
0
LINE
8
layer0
10
1413.18112473732
20
182.697373389616
30
0
11
1413.18112473732
21
57.123689840872
31
0
0
LINE
8
layer0
10
1413.18112473732
20
57.123689840872
30
0
11
1418.29314370227
21
53.1877803916262
31
0
0
LINE
8
layer0
10
1413.18112473732
20
57.123689840872
30
0
11
1413.18112473732
21
182.697373389616
31
0
0
LINE
8
layer0
10
1413.18112473732
20
182.697373389616
30
0
11
1405.88677997299
21
185.650795350999
31
0
0
LINE
8
layer0
10
1405.88677997299
20
185.650795350999
30
0
11
1405.88677997299
21
60.0771118022558
31
0
0
LINE
8
layer0
10
1405.88677997299
20
60.0771118022558
30
0
11
1413.18112473732
21
57.123689840872
31
0
0
LINE
8
layer0
10
1413.63197050138
20
184.85832710573
30
0
11
1168.54678123038
21
255.60832710573
31
0
0
LINE
8
layer0
10
1168.54678123038
20
255.60832710573
30
0
11
1159.78413195491
21
257.29016005997
31
0
0
LINE
8
layer0
10
1159.78413195491
20
257.29016005997
30
0
11
1157.51474176584
21
257.349626910039
31
0
0
LINE
8
layer0
10
1157.51474176584
20
257.349626910039
30
0
11
1422.16400996592
21
180.95196379196
31
0
0
LINE
8
layer0
10
1422.16400996592
20
180.95196379196
30
0
11
1420.9263152657
21
181.904905144346
31
0
0
LINE
8
layer0
10
1420.9263152657
20
181.904905144346
30
0
11
1413.63197050138
21
184.85832710573
31
0
0
LINE
8
layer0
10
1150.54066924986
20
257.532374736599
30
0
11
1169.46184473984
21
253.900795350999
31
0
0
LINE
8
layer0
10
1169.46184473984
20
253.900795350999
30
0
11
1157.51474176584
21
257.349626910039
31
0
0
LINE
8
layer0
10
1157.51474176584
20
257.349626910039
30
0
11
1150.54066924986
21
257.532374736599
31
0
0
LINE
8
layer0
10
1140.685431426
20
256.107066769413
30
0
11
1160.69919546438
21
255.58262830524
31
0
0
LINE
8
layer0
10
1160.69919546438
20
255.58262830524
30
0
11
1150.54066924986
21
257.532374736599
31
0
0
LINE
8
layer0
10
1150.54066924986
20
257.532374736599
30
0
11
1150.41092733235
21
257.535774479487
31
0
0
LINE
8
layer0
10
1150.41092733235
20
257.535774479487
30
0
11
1141.34468193811
21
256.321127913602
31
0
0
LINE
8
layer0
10
1141.34468193811
20
256.321127913602
30
0
11
1140.685431426
21
256.107066769413
31
0
0
LINE
8
layer0
10
1132.79290650202
20
253.345280233705
30
0
11
1151.32599084181
21
255.828242724757
31
0
0
LINE
8
layer0
10
1151.32599084181
20
255.828242724757
30
0
11
1140.685431426
21
256.107066769413
31
0
0
LINE
8
layer0
10
1140.685431426
20
256.107066769413
30
0
11
1133.47286303962
21
253.765118431124
31
0
0
LINE
8
layer0
10
1133.47286303962
20
253.765118431124
30
0
11
1132.79290650202
21
253.345280233705
31
0
0
LINE
8
layer0
10
1127.05715597116
20
249.677257637751
30
0
11
1142.25974544757
21
254.613596158872
31
0
0
LINE
8
layer0
10
1142.25974544757
20
254.613596158872
30
0
11
1132.79290650202
21
253.345280233705
31
0
0
LINE
8
layer0
10
1132.79290650202
20
253.345280233705
30
0
11
1127.56601911685
21
250.117946048963
31
0
0
LINE
8
layer0
10
1127.56601911685
20
250.117946048963
30
0
11
1127.05715597116
21
249.677257637751
31
0
0
LINE
8
layer0
10
1118.42382972351
20
242.200577788119
30
0
11
1134.38792654908
21
252.057586676394
31
0
0
LINE
8
layer0
10
1134.38792654908
20
252.057586676394
30
0
11
1127.05715597116
21
249.677257637751
31
0
0
LINE
8
layer0
10
1127.05715597116
20
249.677257637751
30
0
11
1118.42382972351
21
242.200577788119
31
0
0
LINE
8
layer0
10
956.583419508232
20
99.5426711827976
30
0
11
1128.48108262631
21
248.410414294233
31
0
0
LINE
8
layer0
10
1128.48108262631
20
248.410414294233
30
0
11
1118.42382972351
21
242.200577788119
31
0
0
LINE
8
layer0
10
1118.42382972351
20
242.200577788119
30
0
11
960.066019116849
21
105.05869091507
31
0
0
LINE
8
layer0
10
960.066019116849
20
105.05869091507
30
0
11
956.702353208368
21
100.677366277336
31
0
0
LINE
8
layer0
10
956.702353208368
20
100.677366277336
30
0
11
956.583419508232
21
99.5426711827976
31
0
0
LINE
8
layer0
10
956.537859621054
20
95.381067686033
30
0
11
965.98108262631
21
107.681286179262
31
0
0
LINE
8
layer0
10
965.98108262631
20
107.681286179262
30
0
11
956.583419508232
21
99.5426711827976
31
0
0
LINE
8
layer0
10
956.583419508232
20
99.5426711827976
30
0
11
956.211124369334
21
95.9907639660551
31
0
0
LINE
8
layer0
10
956.211124369334
20
95.9907639660551
30
0
11
956.537859621054
21
95.381067686033
31
0
0
LINE
8
layer0
10
961.171867039697
20
89.5085960428607
30
0
11
962.617416717829
21
103.299961541528
31
0
0
LINE
8
layer0
10
962.617416717829
20
103.299961541528
30
0
11
956.537859621054
21
95.381067686033
31
0
0
LINE
8
layer0
10
956.537859621054
20
95.381067686033
30
0
11
958.640417501104
21
91.4576412689329
31
0
0
LINE
8
layer0
10
958.640417501104
20
91.4576412689329
30
0
11
961.171867039697
21
89.5085960428607
31
0
0
LINE
8
layer0
10
969.266653240865
20
85.2890694697803
30
0
11
962.126187878795
21
98.6133592302468
31
0
0
LINE
8
layer0
10
962.126187878795
20
98.6133592302468
30
0
11
961.171867039697
21
89.5085960428607
31
0
0
LINE
8
layer0
10
961.171867039697
20
89.5085960428607
30
0
11
963.75243646606
21
87.521731819687
31
0
0
LINE
8
layer0
10
963.75243646606
20
87.521731819687
30
0
11
969.266653240865
21
85.2890694697803
31
0
0
LINE
8
layer0
10
980.426510830315
20
81.8606151535796
30
0
11
964.555481010565
21
94.0802365331245
31
0
0
LINE
8
layer0
10
964.555481010565
20
94.0802365331245
30
0
11
969.266653240865
21
85.2890694697803
31
0
0
LINE
8
layer0
10
969.266653240865
20
85.2890694697803
30
0
11
971.046781230382
21
84.5683098583033
31
0
0
LINE
8
layer0
10
971.046781230382
20
84.5683098583033
30
0
11
980.426510830315
21
81.8606151535796
31
0
0
LINE
8
layer0
10
1014.22086377653
20
72.1050257682878
30
0
11
969.667499975521
21
90.1443270838786
31
0
0
LINE
8
layer0
10
969.667499975521
20
90.1443270838786
30
0
11
980.426510830315
21
81.8606151535796
31
0
0
LINE
8
layer0
10
980.426510830315
20
81.8606151535796
30
0
11
1014.22086377653
21
72.1050257682878
31
0
0
LINE
8
layer0
10
1236.68638580654
20
12.2148882724893
30
0
11
976.961844739843
21
87.190905122495
31
0
0
LINE
8
layer0
10
976.961844739843
20
87.190905122495
30
0
11
1014.22086377653
21
72.1050257682878
31
0
0
LINE
8
layer0
10
1014.22086377653
20
72.1050257682878
30
0
11
1216.13197050138
21
13.8183098583033
31
0
0
LINE
8
layer0
10
1216.13197050138
20
13.8183098583033
30
0
11
1224.89461977685
21
12.1364769040628
31
0
0
LINE
8
layer0
10
1224.89461977685
20
12.1364769040628
30
0
11
1234.26782439941
21
11.8908624845458
31
0
0
LINE
8
layer0
10
1234.26782439941
20
11.8908624845458
30
0
11
1236.68638580654
21
12.2148882724893
31
0
0
LINE
8
layer0
10
1243.50353601184
20
13.1605353748711
30
0
11
1213.38677997299
21
18.9409051224949
31
0
0
LINE
8
layer0
10
1213.38677997299
20
18.9409051224949
30
0
11
1236.68638580654
21
12.2148882724893
31
0
0
LINE
8
layer0
10
1236.68638580654
20
12.2148882724893
30
0
11
1243.33406979365
21
13.1055090504308
31
0
0
LINE
8
layer0
10
1243.33406979365
20
13.1055090504308
30
0
11
1243.50353601184
21
13.1605353748711
31
0
0
LINE
8
layer0
10
1252.5049769741
20
16.4636387456441
30
0
11
1222.14942924846
21
17.2590721682545
31
0
0
LINE
8
layer0
10
1222.14942924846
20
17.2590721682545
30
0
11
1243.50353601184
21
13.1605353748711
31
0
0
LINE
8
layer0
10
1243.50353601184
20
13.1605353748711
30
0
11
1251.20588869214
21
15.661518532909
31
0
0
LINE
8
layer0
10
1251.20588869214
20
15.661518532909
30
0
11
1252.5049769741
21
16.4636387456441
31
0
0
LINE
8
layer0
10
1258.6606989149
20
20.6492690550622
30
0
11
1231.52263387102
21
17.0134577487374
31
0
0
LINE
8
layer0
10
1231.52263387102
20
17.0134577487374
30
0
11
1252.5049769741
21
16.4636387456441
31
0
0
LINE
8
layer0
10
1252.5049769741
20
16.4636387456441
30
0
11
1257.11273261491
21
19.3086909150699
31
0
0
LINE
8
layer0
10
1257.11273261491
20
19.3086909150699
30
0
11
1258.6606989149
21
20.6492690550622
31
0
0
LINE
8
layer0
10
1265.02812202436
20
26.1636192244977
30
0
11
1240.58887926527
21
18.2281043146224
31
0
0
LINE
8
layer0
10
1240.58887926527
20
18.2281043146224
30
0
11
1258.6606989149
21
20.6492690550622
31
0
0
LINE
8
layer0
10
1258.6606989149
20
20.6492690550622
30
0
11
1265.02812202436
21
26.1636192244977
31
0
0
LINE
8
layer0
10
1284.53930079494
20
43.0607956976031
30
0
11
1248.46069816376
21
20.7841137971006
31
0
0
LINE
8
layer0
10
1248.46069816376
20
20.7841137971006
30
0
11
1265.02812202436
21
26.1636192244977
31
0
0
LINE
8
layer0
10
1265.02812202436
20
26.1636192244977
30
0
11
1284.53930079494
21
43.0607956976031
31
0
0
LINE
8
layer0
10
1427.81957578654
20
174.645153701546
30
0
11
1254.36754208653
21
24.4312861792616
31
0
0
LINE
8
layer0
10
1254.36754208653
20
24.4312861792616
30
0
11
1284.53930079494
21
43.0607956976031
31
0
0
LINE
8
layer0
10
1284.53930079494
20
43.0607956976031
30
0
11
1424.61273261491
21
164.367946048963
31
0
0
LINE
8
layer0
10
1424.61273261491
20
164.367946048963
30
0
11
1427.97639852339
21
168.749270686697
31
0
0
LINE
8
layer0
10
1427.97639852339
20
168.749270686697
30
0
11
1428.46762736243
21
173.435872997978
31
0
0
LINE
8
layer0
10
1428.46762736243
20
173.435872997978
30
0
11
1427.81957578654
21
174.645153701546
31
0
0
LINE
8
layer0
10
1426.31076509178
20
177.460632787461
30
0
11
1416.86754208653
21
165.160414294233
31
0
0
LINE
8
layer0
10
1416.86754208653
20
165.160414294233
30
0
11
1427.81957578654
21
174.645153701546
31
0
0
LINE
8
layer0
10
1427.81957578654
20
174.645153701546
30
0
11
1426.31076509178
21
177.460632787461
31
0
0
LINE
8
layer0
10
1422.16400996592
20
180.95196379196
30
0
11
1421.44881713811
21
181.158422177792
31
0
0
LINE
8
layer0
10
1421.44881713811
20
181.158422177792
30
0
11
1420.23120799501
21
169.541738931966
31
0
0
LINE
8
layer0
10
1420.23120799501
20
169.541738931966
30
0
11
1426.31076509178
21
177.460632787461
31
0
0
LINE
8
layer0
10
1426.31076509178
20
177.460632787461
30
0
11
1426.03833423066
21
177.9689956951
31
0
0
LINE
8
layer0
10
1426.03833423066
20
177.9689956951
30
0
11
1422.16400996592
21
180.95196379196
31
0
0
LINE
8
layer0
10
1416.19600474978
20
182.674778500994
30
0
11
1420.72243683404
21
174.228341243248
31
0
0
LINE
8
layer0
10
1420.72243683404
20
174.228341243248
30
0
11
1421.44881713811
21
181.158422177792
31
0
0
LINE
8
layer0
10
1421.44881713811
20
181.158422177792
30
0
11
1416.19600474978
21
182.674778500994
31
0
0
LINE
8
layer0
10
1411.41964304879
20
184.053595357901
30
0
11
1418.29314370227
21
178.76146394037
31
0
0
LINE
8
layer0
10
1418.29314370227
20
178.76146394037
30
0
11
1416.19600474978
21
182.674778500994
31
0
0
LINE
8
layer0
10
1416.19600474978
20
182.674778500994
30
0
11
1411.41964304879
21
184.053595357901
31
0
0
LINE
8
layer0
10
1405.88677997299
20
185.650795350999
30
0
11
1413.18112473732
21
182.697373389616
31
0
0
LINE
8
layer0
10
1413.18112473732
20
182.697373389616
30
0
11
1411.41964304879
21
184.053595357901
31
0
0
LINE
8
layer0
10
1411.41964304879
20
184.053595357901
30
0
11
1405.88677997299
21
185.650795350999
31
0
0
ENDBLK
0
BLOCK
8
layer0
2
PF_OBJECT50
70
0
10
0
20
0
30
0
0
LINE
8
layer0
10
1342.16319975075
20
256.357954340646
30
0
11
1335.17431235642
21
260.91200203076
31
0
0
LINE
8
layer0
10
1335.17431235642
20
260.91200203076
30
0
11
1335.17431235642
21
390.815812598426
31
0
0
LINE
8
layer0
10
1335.17431235642
20
390.815812598426
30
0
11
1342.16319975075
21
386.261764908312
31
0
0
LINE
8
layer0
10
1342.16319975075
20
386.261764908312
30
0
11
1342.16319975075
21
256.357954340646
31
0
0
LINE
8
layer0
10
1340.66469341319
20
250.666811502377
30
0
11
1342.16319975075
21
256.357954340646
31
0
0
LINE
8
layer0
10
1342.16319975075
20
256.357954340646
30
0
11
1342.16319975075
21
386.261764908312
31
0
0
LINE
8
layer0
10
1342.16319975075
20
386.261764908312
30
0
11
1340.66469341319
21
380.570622070043
31
0
0
LINE
8
layer0
10
1340.66469341319
20
380.570622070043
30
0
11
1340.66469341319
21
250.666811502377
31
0
0
LINE
8
layer0
10
1331.55659803296
20
247.172367805209
30
0
11
1340.66469341319
21
250.666811502377
31
0
0
LINE
8
layer0
10
1340.66469341319
20
250.666811502377
30
0
11
1340.66469341319
21
380.570622070043
31
0
0
LINE
8
layer0
10
1340.66469341319
20
380.570622070043
30
0
11
1331.55659803296
21
377.076178372875
31
0
0
LINE
8
layer0
10
1331.55659803296
20
377.076178372875
30
0
11
1331.55659803296
21
247.172367805209
31
0
0
LINE
8
layer0
10
1320.17431235642
20
247.921620973994
30
0
11
1331.55659803296
21
247.172367805209
31
0
0
LINE
8
layer0
10
1331.55659803296
20
247.172367805209
30
0
11
1331.55659803296
21
377.076178372875
31
0
0
LINE
8
layer0
10
1331.55659803296
20
377.076178372875
30
0
11
1320.17431235642
21
377.825431541659
31
0
0
LINE
8
layer0
10
1320.17431235642
20
377.825431541659
30
0
11
1320.17431235642
21
247.921620973994
31
0
0
LINE
8
layer0
10
1313.18542496208
20
252.475668664108
30
0
11
1320.17431235642
21
247.921620973994
31
0
0
LINE
8
layer0
10
1320.17431235642
20
247.921620973994
30
0
11
1320.17431235642
21
377.825431541659
31
0
0
LINE
8
layer0
10
1320.17431235642
20
377.825431541659
30
0
11
1313.18542496208
21
382.379479231774
31
0
0
LINE
8
layer0
10
1313.18542496208
20
382.379479231774
30
0
11
1313.18542496208
21
252.475668664108
31
0
0
LINE
8
layer0
10
1314.68393129965
20
258.166811502377
30
0
11
1313.18542496208
21
252.475668664108
31
0
0
LINE
8
layer0
10
1313.18542496208
20
252.475668664108
30
0
11
1313.18542496208
21
382.379479231774
31
0
0
LINE
8
layer0
10
1313.18542496208
20
382.379479231774
30
0
11
1314.68393129965
21
388.070622070043
31
0
0
LINE
8
layer0
10
1314.68393129965
20
388.070622070043
30
0
11
1314.68393129965
21
258.166811502377
31
0
0
LINE
8
layer0
10
1323.79202667988
20
261.661255199545
30
0
11
1314.68393129965
21
258.166811502377
31
0
0
LINE
8
layer0
10
1314.68393129965
20
258.166811502377
30
0
11
1314.68393129965
21
388.070622070043
31
0
0
LINE
8
layer0
10
1314.68393129965
20
388.070622070043
30
0
11
1323.79202667988
21
391.565065767211
31
0
0
LINE
8
layer0
10
1323.79202667988
20
391.565065767211
30
0
11
1323.79202667988
21
261.661255199545
31
0
0
LINE
8
layer0
10
1335.17431235642
20
260.91200203076
30
0
11
1323.79202667988
21
261.661255199545
31
0
0
LINE
8
layer0
10
1323.79202667988
20
261.661255199545
30
0
11
1323.79202667988
21
391.565065767211
31
0
0
LINE
8
layer0
10
1323.79202667988
20
391.565065767211
30
0
11
1335.17431235642
21
390.815812598426
31
0
0
LINE
8
layer0
10
1335.17431235642
20
390.815812598426
30
0
11
1335.17431235642
21
260.91200203076
31
0
0
LINE
8
layer0
10
1335.17431235642
20
390.815812598426
30
0
11
1323.79202667988
21
391.565065767211
31
0
0
LINE
8
layer0
10
1323.79202667988
20
391.565065767211
30
0
11
1314.68393129965
21
388.070622070043
31
0
0
LINE
8
layer0
10
1314.68393129965
20
388.070622070043
30
0
11
1313.18542496208
21
382.379479231774
31
0
0
LINE
8
layer0
10
1313.18542496208
20
382.379479231774
30
0
11
1320.17431235642
21
377.825431541659
31
0
0
LINE
8
layer0
10
1320.17431235642
20
377.825431541659
30
0
11
1331.55659803296
21
377.076178372875
31
0
0
LINE
8
layer0
10
1331.55659803296
20
377.076178372875
30
0
11
1340.66469341319
21
380.570622070043
31
0
0
LINE
8
layer0
10
1340.66469341319
20
380.570622070043
30
0
11
1342.16319975075
21
386.261764908312
31
0
0
LINE
8
layer0
10
1342.16319975075
20
386.261764908312
30
0
11
1335.17431235642
21
390.815812598426
31
0
0
LINE
8
layer0
10
1323.79202667988
20
261.661255199545
30
0
11
1335.17431235642
21
260.91200203076
31
0
0
LINE
8
layer0
10
1335.17431235642
20
260.91200203076
30
0
11
1342.16319975075
21
256.357954340646
31
0
0
LINE
8
layer0
10
1342.16319975075
20
256.357954340646
30
0
11
1340.66469341319
21
250.666811502377
31
0
0
LINE
8
layer0
10
1340.66469341319
20
250.666811502377
30
0
11
1331.55659803296
21
247.172367805209
31
0
0
LINE
8
layer0
10
1331.55659803296
20
247.172367805209
30
0
11
1320.17431235642
21
247.921620973994
31
0
0
LINE
8
layer0
10
1320.17431235642
20
247.921620973994
30
0
11
1313.18542496208
21
252.475668664108
31
0
0
LINE
8
layer0
10
1313.18542496208
20
252.475668664108
30
0
11
1314.68393129965
21
258.166811502377
31
0
0
LINE
8
layer0
10
1314.68393129965
20
258.166811502377
30
0
11
1323.79202667988
21
261.661255199545
31
0
0
ENDBLK
0
BLOCK
8
layer0
2
PF_OBJECT51
70
0
10
0
20
0
30
0
0
LINE
8
layer0
10
1332.33456639426
20
274.433472000772
30
0
11
1336.33456639426
21
277.89757361591
31
0
0
LINE
8
layer0
10
1336.33456639426
20
277.89757361591
30
0
11
1296.33456639426
21
312.538589767288
31
0
0
LINE
8
layer0
10
1296.33456639426
20
312.538589767288
30
0
11
1294.04054689499
21
313.206823758568
31
0
0
LINE
8
layer0
10
1294.04054689499
20
313.206823758568
30
0
11
1291.33456639426
21
311.672564363503
31
0
0
LINE
8
layer0
10
1291.33456639426
20
311.672564363503
30
0
11
1286.33456639426
21
307.342437344581
31
0
0
LINE
8
layer0
10
1286.33456639426
20
307.342437344581
30
0
11
1286.33456639426
21
302.146284921874
31
0
0
LINE
8
layer0
10
1286.33456639426
20
302.146284921874
30
0
11
1291.33456639426
21
306.476411940797
31
0
0
LINE
8
layer0
10
1291.33456639426
20
306.476411940797
30
0
11
1293.31425170472
21
307.757402360498
31
0
0
LINE
8
layer0
10
1293.31425170472
20
307.757402360498
30
0
11
1294.83456639426
21
306.909424642689
31
0
0
LINE
8
layer0
10
1294.83456639426
20
306.909424642689
30
0
11
1332.33456639426
21
274.433472000772
31
0
0
LINE
8
layer0
10
1319.01405831857
20
282.89757361591
30
0
11
1315.01405831857
21
279.433472000772
31
0
0
LINE
8
layer0
10
1315.01405831857
20
279.433472000772
30
0
11
1277.51405831857
21
311.909424642689
31
0
0
LINE
8
layer0
10
1277.51405831857
20
311.909424642689
30
0
11
1275.99374362903
21
312.757402360498
31
0
0
LINE
8
layer0
10
1275.99374362903
20
312.757402360498
30
0
11
1274.01405831857
21
311.476411940797
31
0
0
LINE
8
layer0
10
1274.01405831857
20
311.476411940797
30
0
11
1269.01405831857
21
307.146284921874
31
0
0
LINE
8
layer0
10
1269.01405831857
20
307.146284921874
30
0
11
1269.01405831857
21
312.342437344581
31
0
0
LINE
8
layer0
10
1269.01405831857
20
312.342437344581
30
0
11
1274.01405831857
21
316.672564363503
31
0
0
LINE
8
layer0
10
1274.01405831857
20
316.672564363503
30
0
11
1276.72003881931
21
318.206823758568
31
0
0
LINE
8
layer0
10
1276.72003881931
20
318.206823758568
30
0
11
1279.01405831857
21
317.538589767288
31
0
0
LINE
8
layer0
10
1279.01405831857
20
317.538589767288
30
0
11
1319.01405831857
21
282.89757361591
31
0
0
LINE
8
layer0
10
1319.01405831857
20
282.89757361591
30
0
11
1336.33456639426
21
277.89757361591
31
0
0
LINE
8
layer0
10
1336.33456639426
20
277.89757361591
30
0
11
1332.33456639426
21
274.433472000772
31
0
0
LINE
8
layer0
10
1332.33456639426
20
274.433472000772
30
0
11
1315.01405831857
21
279.433472000772
31
0
0
LINE
8
layer0
10
1315.01405831857
20
279.433472000772
30
0
11
1319.01405831857
21
282.89757361591
31
0
0
LINE
8
layer0
10
1315.01405831857
20
279.433472000772
30
0
11
1332.33456639426
21
274.433472000772
31
0
0
LINE
8
layer0
10
1332.33456639426
20
274.433472000772
30
0
11
1294.83456639426
21
306.909424642689
31
0
0
LINE
8
layer0
10
1294.83456639426
20
306.909424642689
30
0
11
1277.51405831857
21
311.909424642689
31
0
0
LINE
8
layer0
10
1277.51405831857
20
311.909424642689
30
0
11
1315.01405831857
21
279.433472000772
31
0
0
LINE
8
layer0
10
1277.51405831857
20
311.909424642689
30
0
11
1294.83456639426
21
306.909424642689
31
0
0
LINE
8
layer0
10
1294.83456639426
20
306.909424642689
30
0
11
1293.31425170472
21
307.757402360498
31
0
0
LINE
8
layer0
10
1293.31425170472
20
307.757402360498
30
0
11
1275.99374362903
21
312.757402360498
31
0
0
LINE
8
layer0
10
1275.99374362903
20
312.757402360498
30
0
11
1277.51405831857
21
311.909424642689
31
0
0
LINE
8
layer0
10
1275.99374362903
20
312.757402360498
30
0
11
1293.31425170472
21
307.757402360498
31
0
0
LINE
8
layer0
10
1293.31425170472
20
307.757402360498
30
0
11
1291.33456639426
21
306.476411940797
31
0
0
LINE
8
layer0
10
1291.33456639426
20
306.476411940797
30
0
11
1274.01405831857
21
311.476411940797
31
0
0
LINE
8
layer0
10
1274.01405831857
20
311.476411940797
30
0
11
1275.99374362903
21
312.757402360498
31
0
0
LINE
8
layer0
10
1274.01405831857
20
311.476411940797
30
0
11
1291.33456639426
21
306.476411940797
31
0
0
LINE
8
layer0
10
1291.33456639426
20
306.476411940797
30
0
11
1286.33456639426
21
302.146284921874
31
0
0
LINE
8
layer0
10
1286.33456639426
20
302.146284921874
30
0
11
1269.01405831857
21
307.146284921874
31
0
0
LINE
8
layer0
10
1269.01405831857
20
307.146284921874
30
0
11
1274.01405831857
21
311.476411940797
31
0
0
LINE
8
layer0
10
1269.01405831857
20
307.146284921874
30
0
11
1286.33456639426
21
302.146284921874
31
0
0
LINE
8
layer0
10
1286.33456639426
20
302.146284921874
30
0
11
1286.33456639426
21
307.342437344581
31
0
0
LINE
8
layer0
10
1286.33456639426
20
307.342437344581
30
0
11
1269.01405831857
21
312.342437344581
31
0
0
LINE
8
layer0
10
1269.01405831857
20
312.342437344581
30
0
11
1269.01405831857
21
307.146284921874
31
0
0
LINE
8
layer0
10
1269.01405831857
20
312.342437344581
30
0
11
1286.33456639426
21
307.342437344581
31
0
0
LINE
8
layer0
10
1286.33456639426
20
307.342437344581
30
0
11
1291.33456639426
21
311.672564363503
31
0
0
LINE
8
layer0
10
1291.33456639426
20
311.672564363503
30
0
11
1274.01405831857
21
316.672564363503
31
0
0
LINE
8
layer0
10
1274.01405831857
20
316.672564363503
30
0
11
1269.01405831857
21
312.342437344581
31
0
0
LINE
8
layer0
10
1274.01405831857
20
316.672564363503
30
0
11
1291.33456639426
21
311.672564363503
31
0
0
LINE
8
layer0
10
1291.33456639426
20
311.672564363503
30
0
11
1294.04054689499
21
313.206823758568
31
0
0
LINE
8
layer0
10
1294.04054689499
20
313.206823758568
30
0
11
1276.72003881931
21
318.206823758568
31
0
0
LINE
8
layer0
10
1276.72003881931
20
318.206823758568
30
0
11
1274.01405831857
21
316.672564363503
31
0
0
LINE
8
layer0
10
1276.72003881931
20
318.206823758568
30
0
11
1294.04054689499
21
313.206823758568
31
0
0
LINE
8
layer0
10
1294.04054689499
20
313.206823758568
30
0
11
1296.33456639426
21
312.538589767288
31
0
0
LINE
8
layer0
10
1296.33456639426
20
312.538589767288
30
0
11
1279.01405831857
21
317.538589767288
31
0
0
LINE
8
layer0
10
1279.01405831857
20
317.538589767288
30
0
11
1276.72003881931
21
318.206823758568
31
0
0
LINE
8
layer0
10
1279.01405831857
20
317.538589767288
30
0
11
1296.33456639426
21
312.538589767288
31
0
0
LINE
8
layer0
10
1296.33456639426
20
312.538589767288
30
0
11
1336.33456639426
21
277.89757361591
31
0
0
LINE
8
layer0
10
1336.33456639426
20
277.89757361591
30
0
11
1319.01405831857
21
282.89757361591
31
0
0
LINE
8
layer0
10
1319.01405831857
20
282.89757361591
30
0
11
1279.01405831857
21
317.538589767288
31
0
0
ENDBLK
0
BLOCK
8
layer0
2
PF_OBJECT52
70
0
10
0
20
0
30
0
0
LINE
8
layer0
10
1334.99962990372
20
369.504279118953
30
0
11
1313.34899480911
21
375.754279118953
31
0
0
LINE
8
layer0
10
1313.34899480911
20
375.754279118953
30
0
11
1313.78311525328
21
380.394581111666
31
0
0
LINE
8
layer0
10
1313.78311525328
20
380.394581111666
30
0
11
1335.43375034789
21
374.144581111666
31
0
0
LINE
8
layer0
10
1335.43375034789
20
374.144581111666
30
0
11
1334.99962990372
21
369.504279118953
31
0
0
LINE
8
layer0
10
1278.88072345369
20
356.430741823248
30
0
11
1300.5313585483
21
350.180741823248
31
0
0
LINE
8
layer0
10
1300.5313585483
20
350.180741823248
30
0
11
1300.96547899246
21
354.821043815961
31
0
0
LINE
8
layer0
10
1300.96547899246
20
354.821043815961
30
0
11
1279.31484389785
21
361.071043815961
31
0
0
LINE
8
layer0
10
1279.31484389785
20
361.071043815961
30
0
11
1278.88072345369
21
356.430741823248
31
0
0
LINE
8
layer0
10
1313.34899480911
20
375.754279118953
30
0
11
1278.88072345369
21
356.430741823248
31
0
0
LINE
8
layer0
10
1278.88072345369
20
356.430741823248
30
0
11
1279.31484389785
21
361.071043815961
31
0
0
LINE
8
layer0
10
1279.31484389785
20
361.071043815961
30
0
11
1313.78311525328
21
380.394581111666
31
0
0
LINE
8
layer0
10
1313.78311525328
20
380.394581111666
30
0
11
1313.34899480911
21
375.754279118953
31
0
0
LINE
8
layer0
10
1300.5313585483
20
350.180741823248
30
0
11
1334.99962990372
21
369.504279118953
31
0
0
LINE
8
layer0
10
1334.99962990372
20
369.504279118953
30
0
11
1335.43375034789
21
374.144581111666
31
0
0
LINE
8
layer0
10
1335.43375034789
20
374.144581111666
30
0
11
1300.96547899246
21
354.821043815961
31
0
0
LINE
8
layer0
10
1300.96547899246
20
354.821043815961
30
0
11
1300.5313585483
21
350.180741823248
31
0
0
LINE
8
layer0
10
1335.43375034789
20
374.144581111666
30
0
11
1313.78311525328
21
380.394581111666
31
0
0
LINE
8
layer0
10
1313.78311525328
20
380.394581111666
30
0
11
1279.31484389785
21
361.071043815961
31
0
0
LINE
8
layer0
10
1279.31484389785
20
361.071043815961
30
0
11
1300.96547899246
21
354.821043815961
31
0
0
LINE
8
layer0
10
1300.96547899246
20
354.821043815961
30
0
11
1335.43375034789
21
374.144581111666
31
0
0
LINE
8
layer0
10
1313.34899480911
20
375.754279118953
30
0
11
1334.99962990372
21
369.504279118953
31
0
0
LINE
8
layer0
10
1334.99962990372
20
369.504279118953
30
0
11
1300.5313585483
21
350.180741823248
31
0
0
LINE
8
layer0
10
1300.5313585483
20
350.180741823248
30
0
11
1278.88072345369
21
356.430741823248
31
0
0
LINE
8
layer0
10
1278.88072345369
20
356.430741823248
30
0
11
1313.34899480911
21
375.754279118953
31
0
0
ENDBLK
0
ENDSEC
0
SECTION
2
ENTITIES
0
INSERT
2
PF_OBJECT0
8
0
10
0
20
0
30
0
0
INSERT
2
PF_OBJECT1
8
0
10
0
20
0
30
0
0
INSERT
2
PF_OBJECT2
8
0
10
0
20
0
30
0
0
INSERT
2
PF_OBJECT3
8
0
10
0
20
0
30
0
0
INSERT
2
PF_OBJECT4
8
0
10
0
20
0
30
0
0
INSERT
2
PF_OBJECT5
8
0
10
0
20
0
30
0
0
INSERT
2
PF_OBJECT6
8
0
10
0
20
0
30
0
0
INSERT
2
PF_OBJECT7
8
0
10
0
20
0
30
0
0
INSERT
2
PF_OBJECT8
8
0
10
0
20
0
30
0
0
INSERT
2
PF_OBJECT9
8
0
10
0
20
0
30
0
0
INSERT
2
PF_OBJECT10
8
0
10
0
20
0
30
0
0
INSERT
2
PF_OBJECT11
8
0
10
0
20
0
30
0
0
INSERT
2
PF_OBJECT12
8
0
10
0
20
0
30
0
0
INSERT
2
PF_OBJECT13
8
0
10
0
20
0
30
0
0
INSERT
2
PF_OBJECT14
8
0
10
0
20
0
30
0
0
INSERT
2
PF_SKETCH15
8
0
10
0
20
0
30
0
0
INSERT
2
PF_SKETCH16
8
0
10
0
20
0
30
0
0
INSERT
2
PF_SKETCH17
8
0
10
0
20
0
30
0
0
INSERT
2
PF_SKETCH18
8
0
10
0
20
0
30
0
0
INSERT
2
PF_SKETCH19
8
0
10
0
20
0
30
0
0
INSERT
2
PF_SKETCH20
8
0
10
0
20
0
30
0
0
INSERT
2
PF_OBJECT21
8
0
10
0
20
0
30
0
0
INSERT
2
PF_OBJECT22
8
0
10
0
20
0
30
0
0
INSERT
2
PF_OBJECT23
8
0
10
0
20
0
30
0
0
INSERT
2
PF_OBJECT24
8
0
10
0
20
0
30
0
0
INSERT
2
PF_OBJECT25
8
0
10
0
20
0
30
0
0
INSERT
2
PF_OBJECT26
8
0
10
0
20
0
30
0
0
INSERT
2
PF_OBJECT27
8
0
10
0
20
0
30
0
0
INSERT
2
PF_OBJECT28
8
0
10
0
20
0
30
0
0
INSERT
2
PF_OBJECT29
8
0
10
0
20
0
30
0
0
INSERT
2
PF_OBJECT30
8
0
10
0
20
0
30
0
0
INSERT
2
PF_OBJECT31
8
0
10
0
20
0
30
0
0
INSERT
2
PF_OBJECT32
8
0
10
0
20
0
30
0
0
INSERT
2
PF_OBJECT33
8
0
10
0
20
0
30
0
0
INSERT
2
PF_OBJECT34
8
0
10
0
20
0
30
0
0
INSERT
2
PF_OBJECT35
8
0
10
0
20
0
30
0
0
INSERT
2
PF_OBJECT36
8
0
10
0
20
0
30
0
0
INSERT
2
PF_OBJECT37
8
0
10
0
20
0
30
0
0
INSERT
2
PF_SKETCH38
8
0
10
0
20
0
30
0
0
INSERT
2
PF_SKETCH39
8
0
10
0
20
0
30
0
0
INSERT
2
PF_SKETCH40
8
0
10
0
20
0
30
0
0
INSERT
2
PF_SKETCH41
8
0
10
0
20
0
30
0
0
INSERT
2
PF_SKETCH42
8
0
10
0
20
0
30
0
0
INSERT
2
PF_SKETCH43
8
0
10
0
20
0
30
0
0
INSERT
2
PF_OBJECT44
8
0
10
0
20
0
30
0
0
INSERT
2
PF_OBJECT45
8
0
10
0
20
0
30
0
0
INSERT
2
PF_OBJECT46
8
0
10
0
20
0
30
0
0
INSERT
2
PF_OBJECT47
8
0
10
0
20
0
30
0
0
INSERT
2
PF_OBJECT48
8
0
10
0
20
0
30
0
0
INSERT
2
PF_OBJECT49
8
0
10
0
20
0
30
0
0
INSERT
2
PF_OBJECT50
8
0
10
0
20
0
30
0
0
INSERT
2
PF_OBJECT51
8
0
10
0
20
0
30
0
0
INSERT
2
PF_OBJECT52
8
0
10
0
20
0
30
0
0
ENDSEC
0
EOF
