0
SECTION
2
HEADER
9
$EXTMIN
10
-570.000000000001
20
-570
30
0
9
$EXTMAX
10
4570
20
2750
30
0
0
ENDSEC
0
SECTION
2
TABLES
0
TABLE
2
LAYER
5
2
70
3
0
LAYER
5
14
2
layer0
5
14
70
0
62
7
6
CONTINUOUS
0
ENDTAB
0
TABLE
2
DIMSTYLE
70
2
0
DIMSTYLE
2
PFDIMSTYLE
70
0
3

4

5

6

7

40
1
41
30
42
0
43
0
44
1
45
0
46
0
47
0
48
0
71
0
72
0
73
0
74
0
75
0
76
0
77
2
78
12
140
30
141
0
142
0
143
1
144
1
145
0
146
1
147
5
170
0
171
1
172
0
173
1
174
0
175
0
176
7
177
7
178
7
0
ENDTAB
0
ENDSEC
0
SECTION
2
BLOCKS
0
BLOCK
8
layer0
2
PF_OBJECT0
70
0
10
0
20
0
30
0
0
LINE
8
layer0
10
3499.10161513775
20
1325.27820916122
30
0
11
3499.10161513775
21
-969.689110867545
31
0
0
LINE
8
layer0
10
3499.10161513775
20
-969.689110867545
30
0
11
-25.6217782649107
21
47.8108891324554
31
0
0
LINE
8
layer0
10
-25.6217782649107
20
47.8108891324554
30
0
11
-25.6217782649108
21
2342.77820916122
31
0
0
LINE
8
layer0
10
-25.6217782649108
20
2342.77820916122
30
0
11
3499.10161513775
21
1325.27820916122
31
0
0
LINE
8
layer0
10
3464.10161513775
20
1294.96732002876
30
0
11
3499.10161513775
21
1325.27820916122
31
0
0
LINE
8
layer0
10
3499.10161513775
20
1325.27820916122
30
0
11
-25.6217782649107
21
2342.77820916122
31
0
0
LINE
8
layer0
10
-25.6217782649107
20
2342.77820916122
30
0
11
-2.46139223857096E-14
21
2294.96732002876
31
0
0
LINE
8
layer0
10
-2.46139223857096E-14
20
2294.96732002876
30
0
11
3464.10161513775
21
1294.96732002876
31
0
0
LINE
8
layer0
10
0
20
0
30
0
11
-25.6217782649108
21
47.8108891324554
31
0
0
LINE
8
layer0
10
-25.6217782649108
20
47.8108891324554
30
0
11
3499.10161513775
21
-969.689110867545
31
0
0
LINE
8
layer0
10
3499.10161513775
20
-969.689110867545
30
0
11
3464.10161513775
21
-1000
31
0
0
LINE
8
layer0
10
3464.10161513775
20
-1000
30
0
11
0
21
0
31
0
0
LINE
8
layer0
10
3464.10161513775
20
1294.96732002876
30
0
11
3464.10161513775
21
-1000
31
0
0
LINE
8
layer0
10
3464.10161513775
20
-1000
30
0
11
3499.10161513775
21
-969.689110867545
31
0
0
LINE
8
layer0
10
3499.10161513775
20
-969.689110867545
30
0
11
3499.10161513775
21
1325.27820916122
31
0
0
LINE
8
layer0
10
3499.10161513775
20
1325.27820916122
30
0
11
3464.10161513775
21
1294.96732002876
31
0
0
LINE
8
layer0
10
-25.6217782649108
20
2342.77820916122
30
0
11
-25.6217782649108
21
47.8108891324554
31
0
0
LINE
8
layer0
10
-25.6217782649108
20
47.8108891324554
30
0
11
-3.69208835785644E-14
21
1.06581410364015E-14
31
0
0
LINE
8
layer0
10
-3.69208835785644E-14
20
1.06581410364015E-14
30
0
11
-2.46139223857096E-14
21
2294.96732002876
31
0
0
LINE
8
layer0
10
-2.46139223857096E-14
20
2294.96732002876
30
0
11
-25.6217782649108
21
2342.77820916122
31
0
0
LINE
8
layer0
10
0
20
2294.96732002876
30
0
11
-2.46139223857096E-14
21
7.105427357601E-15
31
0
0
LINE
8
layer0
10
-2.46139223857096E-14
20
7.105427357601E-15
30
0
11
3464.10161513775
21
-1000
31
0
0
LINE
8
layer0
10
3464.10161513775
20
-1000
30
0
11
3464.10161513775
21
1294.96732002876
31
0
0
LINE
8
layer0
10
3464.10161513775
20
1294.96732002876
30
0
11
0
21
2294.96732002876
31
0
0
ENDBLK
0
BLOCK
8
layer0
2
PF_OBJECT1
70
0
10
0
20
0
30
0
0
LINE
8
layer0
10
-25.621778264911
20
2342.77820916122
30
0
11
-25.621778264911
21
47.8108891324557
31
0
0
LINE
8
layer0
10
-25.621778264911
20
47.8108891324557
30
0
11
-1560.62177826491
21
-1281.53810567666
31
0
0
LINE
8
layer0
10
-1560.62177826491
20
-1281.53810567666
30
0
11
-1560.62177826491
21
1013.4292143521
31
0
0
LINE
8
layer0
10
-1560.62177826491
20
1013.4292143521
30
0
11
-25.621778264911
21
2342.77820916122
31
0
0
LINE
8
layer0
10
-2.27373675443232E-13
20
2294.96732002876
30
0
11
-25.621778264911
21
2342.77820916122
31
0
0
LINE
8
layer0
10
-25.621778264911
20
2342.77820916122
30
0
11
-1560.62177826491
21
1013.4292143521
31
0
0
LINE
8
layer0
10
-1560.62177826491
20
1013.4292143521
30
0
11
-1500
21
995.929214352105
31
0
0
LINE
8
layer0
10
-1500
20
995.929214352105
30
0
11
-2.27373675443232E-13
21
2294.96732002876
31
0
0
LINE
8
layer0
10
-1500
20
-1299.03810567666
30
0
11
-1560.62177826491
21
-1281.53810567666
31
0
0
LINE
8
layer0
10
-1560.62177826491
20
-1281.53810567666
30
0
11
-25.621778264911
21
47.8108891324557
31
0
0
LINE
8
layer0
10
-25.621778264911
20
47.8108891324557
30
0
11
-2.27373675443232E-13
21
4.54747350886464E-13
31
0
0
LINE
8
layer0
10
-2.27373675443232E-13
20
4.54747350886464E-13
30
0
11
-1500
21
-1299.03810567666
31
0
0
LINE
8
layer0
10
-1560.62177826491
20
1013.4292143521
30
0
11
-1560.62177826491
21
-1281.53810567666
31
0
0
LINE
8
layer0
10
-1560.62177826491
20
-1281.53810567666
30
0
11
-1500
21
-1299.03810567666
31
0
0
LINE
8
layer0
10
-1500
20
-1299.03810567666
30
0
11
-1500
21
995.929214352105
31
0
0
LINE
8
layer0
10
-1500
20
995.929214352105
30
0
11
-1560.62177826491
21
1013.4292143521
31
0
0
LINE
8
layer0
10
-4.54747350886464E-13
20
2294.96732002876
30
0
11
-4.54747350886464E-13
21
2.27373675443232E-13
31
0
0
LINE
8
layer0
10
-4.54747350886464E-13
20
2.27373675443232E-13
30
0
11
-25.6217782649112
21
47.8108891324555
31
0
0
LINE
8
layer0
10
-25.6217782649112
20
47.8108891324555
30
0
11
-25.6217782649112
21
2342.77820916122
31
0
0
LINE
8
layer0
10
-25.6217782649112
20
2342.77820916122
30
0
11
-4.54747350886464E-13
21
2294.96732002876
31
0
0
LINE
8
layer0
10
-1500
20
995.929214352105
30
0
11
-1500
21
-1299.03810567666
31
0
0
LINE
8
layer0
10
-1500
20
-1299.03810567666
30
0
11
-2.27373675443232E-13
21
4.54747350886464E-13
31
0
0
LINE
8
layer0
10
-2.27373675443232E-13
20
4.54747350886464E-13
30
0
11
-2.27373675443232E-13
21
2294.96732002876
31
0
0
LINE
8
layer0
10
-2.27373675443232E-13
20
2294.96732002876
30
0
11
-1500
21
995.929214352105
31
0
0
ENDBLK
0
BLOCK
8
layer0
2
PF_OBJECT2
70
0
10
0
20
0
30
0
0
LINE
8
layer0
10
0
20
0
30
0
11
-1500
21
-1299.03810567666
31
0
0
LINE
8
layer0
10
-1500
20
-1299.03810567666
30
0
11
1964.10161513776
21
-2299.03810567666
31
0
0
LINE
8
layer0
10
1964.10161513776
20
-2299.03810567666
30
0
11
3464.10161513775
21
-1000
31
0
0
LINE
8
layer0
10
3464.10161513775
20
-1000
30
0
11
0
21
0
31
0
0
LINE
8
layer0
10
0
20
0
30
0
11
3464.10161513775
21
-1000
31
0
0
LINE
8
layer0
10
3464.10161513775
20
-1000
30
0
11
-1500
21
-1299.03810567666
31
0
0
LINE
8
layer0
10
-1500
20
-1299.03810567666
30
0
11
0
21
0
31
0
0
LINE
8
layer0
10
3464.10161513775
20
-1000
30
0
11
1964.10161513776
21
-2299.03810567666
31
0
0
LINE
8
layer0
10
1964.10161513776
20
-2299.03810567666
30
0
11
-1500
21
-1299.03810567666
31
0
0
LINE
8
layer0
10
-1500
20
-1299.03810567666
30
0
11
3464.10161513775
21
-1000
31
0
0
ENDBLK
0
BLOCK
8
layer0
2
PF_OBJECT3
70
0
10
0
20
0
30
0
0
LINE
8
layer0
10
1041.67534827
20
-201.978875334514
30
0
11
549.772918920436
21
-59.978875334514
31
0
0
LINE
8
layer0
10
549.772918920436
20
-59.978875334514
30
0
11
549.772918920436
21
-46.122468873963
31
0
0
LINE
8
layer0
10
549.772918920436
20
-46.122468873963
30
0
11
1041.67534827
21
-188.122468873963
31
0
0
LINE
8
layer0
10
1041.67534827
20
-188.122468873963
30
0
11
1041.67534827
21
-201.978875334514
31
0
0
LINE
8
layer0
10
294.272918920436
20
-281.248366001438
30
0
11
786.175348269997
21
-423.248366001438
31
0
0
LINE
8
layer0
10
786.175348269997
20
-423.248366001438
30
0
11
786.175348269997
21
-409.391959540887
31
0
0
LINE
8
layer0
10
786.175348269997
20
-409.391959540887
30
0
11
294.272918920436
21
-267.391959540887
31
0
0
LINE
8
layer0
10
294.272918920436
20
-267.391959540887
30
0
11
294.272918920436
21
-281.248366001438
31
0
0
LINE
8
layer0
10
549.772918920436
20
-59.978875334514
30
0
11
294.272918920436
21
-281.248366001438
31
0
0
LINE
8
layer0
10
294.272918920436
20
-281.248366001438
30
0
11
294.272918920436
21
-267.391959540887
31
0
0
LINE
8
layer0
10
294.272918920436
20
-267.391959540887
30
0
11
549.772918920436
21
-46.122468873963
31
0
0
LINE
8
layer0
10
549.772918920436
20
-46.122468873963
30
0
11
549.772918920436
21
-59.978875334514
31
0
0
LINE
8
layer0
10
786.175348269997
20
-423.248366001438
30
0
11
1041.67534827
21
-201.978875334514
31
0
0
LINE
8
layer0
10
1041.67534827
20
-201.978875334514
30
0
11
1041.67534827
21
-188.122468873963
31
0
0
LINE
8
layer0
10
1041.67534827
20
-188.122468873963
30
0
11
786.175348269997
21
-409.391959540887
31
0
0
LINE
8
layer0
10
786.175348269997
20
-409.391959540887
30
0
11
786.175348269997
21
-423.248366001438
31
0
0
LINE
8
layer0
10
1041.67534827
20
-188.122468873963
30
0
11
549.772918920436
21
-46.122468873963
31
0
0
LINE
8
layer0
10
549.772918920436
20
-46.122468873963
30
0
11
294.272918920436
21
-267.391959540887
31
0
0
LINE
8
layer0
10
294.272918920436
20
-267.391959540887
30
0
11
786.175348269997
21
-409.391959540887
31
0
0
LINE
8
layer0
10
786.175348269997
20
-409.391959540887
30
0
11
1041.67534827
21
-188.122468873963
31
0
0
LINE
8
layer0
10
549.772918920436
20
-59.978875334514
30
0
11
1041.67534827
21
-201.978875334514
31
0
0
LINE
8
layer0
10
1041.67534827
20
-201.978875334514
30
0
11
786.175348269997
21
-423.248366001438
31
0
0
LINE
8
layer0
10
786.175348269997
20
-423.248366001438
30
0
11
294.272918920436
21
-281.248366001438
31
0
0
LINE
8
layer0
10
294.272918920436
20
-281.248366001438
30
0
11
549.772918920436
21
-59.978875334514
31
0
0
ENDBLK
0
BLOCK
8
layer0
2
PF_OBJECT4
70
0
10
0
20
0
30
0
0
LINE
8
layer0
10
1043.67534827
20
-200.246824526945
30
0
11
551.772918920436
21
-58.2468245269451
31
0
0
LINE
8
layer0
10
551.772918920436
20
-58.2468245269451
30
0
11
551.772918920436
21
439.717782649107
31
0
0
LINE
8
layer0
10
551.772918920436
20
439.717782649107
30
0
11
1043.67534827
21
297.717782649107
31
0
0
LINE
8
layer0
10
1043.67534827
20
297.717782649107
30
0
11
1043.67534827
21
-200.246824526945
31
0
0
LINE
8
layer0
10
549.772918920436
20
-59.978875334514
30
0
11
1041.67534827
21
-201.978875334514
31
0
0
LINE
8
layer0
10
1041.67534827
20
-201.978875334514
30
0
11
1041.67534827
21
295.985731841538
31
0
0
LINE
8
layer0
10
1041.67534827
20
295.985731841538
30
0
11
549.772918920436
21
437.985731841538
31
0
0
LINE
8
layer0
10
549.772918920436
20
437.985731841538
30
0
11
549.772918920436
21
-59.978875334514
31
0
0
LINE
8
layer0
10
551.772918920436
20
-58.2468245269451
30
0
11
549.772918920436
21
-59.978875334514
31
0
0
LINE
8
layer0
10
549.772918920436
20
-59.978875334514
30
0
11
549.772918920436
21
437.985731841538
31
0
0
LINE
8
layer0
10
549.772918920436
20
437.985731841538
30
0
11
551.772918920436
21
439.717782649107
31
0
0
LINE
8
layer0
10
551.772918920436
20
439.717782649107
30
0
11
551.772918920436
21
-58.2468245269451
31
0
0
LINE
8
layer0
10
1041.67534827
20
-201.978875334514
30
0
11
1043.67534827
21
-200.246824526945
31
0
0
LINE
8
layer0
10
1043.67534827
20
-200.246824526945
30
0
11
1043.67534827
21
297.717782649107
31
0
0
LINE
8
layer0
10
1043.67534827
20
297.717782649107
30
0
11
1041.67534827
21
295.985731841538
31
0
0
LINE
8
layer0
10
1041.67534827
20
295.985731841538
30
0
11
1041.67534827
21
-201.978875334514
31
0
0
LINE
8
layer0
10
1043.67534827
20
297.717782649107
30
0
11
551.772918920436
21
439.717782649107
31
0
0
LINE
8
layer0
10
551.772918920436
20
439.717782649107
30
0
11
549.772918920436
21
437.985731841538
31
0
0
LINE
8
layer0
10
549.772918920436
20
437.985731841538
30
0
11
1041.67534827
21
295.985731841538
31
0
0
LINE
8
layer0
10
1041.67534827
20
295.985731841538
30
0
11
1043.67534827
21
297.717782649107
31
0
0
LINE
8
layer0
10
551.772918920436
20
-58.2468245269451
30
0
11
1043.67534827
21
-200.246824526945
31
0
0
LINE
8
layer0
10
1043.67534827
20
-200.246824526945
30
0
11
1041.67534827
21
-201.978875334514
31
0
0
LINE
8
layer0
10
1041.67534827
20
-201.978875334514
30
0
11
549.772918920436
21
-59.978875334514
31
0
0
LINE
8
layer0
10
549.772918920436
20
-59.978875334514
30
0
11
551.772918920436
21
-58.2468245269451
31
0
0
ENDBLK
0
BLOCK
8
layer0
2
PF_OBJECT5
70
0
10
0
20
0
30
0
0
LINE
8
layer0
10
1016.67534827
20
274.335096746927
30
0
11
524.772918920436
21
416.335096746927
31
0
0
LINE
8
layer0
10
524.772918920436
20
416.335096746927
30
0
11
524.772918920436
21
402.478690286376
31
0
0
LINE
8
layer0
10
524.772918920436
20
402.478690286376
30
0
11
1016.67534827
21
260.478690286376
31
0
0
LINE
8
layer0
10
1016.67534827
20
260.478690286376
30
0
11
1016.67534827
21
274.335096746927
31
0
0
LINE
8
layer0
10
549.772918920436
20
437.985731841538
30
0
11
1041.67534827
21
295.985731841538
31
0
0
LINE
8
layer0
10
1041.67534827
20
295.985731841538
30
0
11
1041.67534827
21
282.129325380987
31
0
0
LINE
8
layer0
10
1041.67534827
20
282.129325380987
30
0
11
549.772918920436
21
424.129325380987
31
0
0
LINE
8
layer0
10
549.772918920436
20
424.129325380987
30
0
11
549.772918920436
21
437.985731841538
31
0
0
LINE
8
layer0
10
524.772918920436
20
416.335096746927
30
0
11
549.772918920436
21
437.985731841538
31
0
0
LINE
8
layer0
10
549.772918920436
20
437.985731841538
30
0
11
549.772918920436
21
424.129325380987
31
0
0
LINE
8
layer0
10
549.772918920436
20
424.129325380987
30
0
11
524.772918920436
21
402.478690286376
31
0
0
LINE
8
layer0
10
524.772918920436
20
402.478690286376
30
0
11
524.772918920436
21
416.335096746927
31
0
0
LINE
8
layer0
10
1041.67534827
20
295.985731841538
30
0
11
1016.67534827
21
274.335096746927
31
0
0
LINE
8
layer0
10
1016.67534827
20
274.335096746927
30
0
11
1016.67534827
21
260.478690286376
31
0
0
LINE
8
layer0
10
1016.67534827
20
260.478690286376
30
0
11
1041.67534827
21
282.129325380987
31
0
0
LINE
8
layer0
10
1041.67534827
20
282.129325380987
30
0
11
1041.67534827
21
295.985731841538
31
0
0
LINE
8
layer0
10
1016.67534827
20
260.478690286376
30
0
11
524.772918920436
21
402.478690286376
31
0
0
LINE
8
layer0
10
524.772918920436
20
402.478690286376
30
0
11
549.772918920436
21
424.129325380987
31
0
0
LINE
8
layer0
10
549.772918920436
20
424.129325380987
30
0
11
1041.67534827
21
282.129325380987
31
0
0
LINE
8
layer0
10
1041.67534827
20
282.129325380987
30
0
11
1016.67534827
21
260.478690286376
31
0
0
LINE
8
layer0
10
524.772918920436
20
416.335096746927
30
0
11
1016.67534827
21
274.335096746927
31
0
0
LINE
8
layer0
10
1016.67534827
20
274.335096746927
30
0
11
1041.67534827
21
295.985731841538
31
0
0
LINE
8
layer0
10
1041.67534827
20
295.985731841538
30
0
11
549.772918920436
21
437.985731841538
31
0
0
LINE
8
layer0
10
549.772918920436
20
437.985731841538
30
0
11
524.772918920436
21
416.335096746927
31
0
0
ENDBLK
0
BLOCK
8
layer0
2
PF_OBJECT6
70
0
10
0
20
0
30
0
0
LINE
8
layer0
10
319.272918920436
20
224.510469808674
30
0
11
811.175348269997
21
82.5104698086741
31
0
0
LINE
8
layer0
10
811.175348269997
20
82.5104698086741
30
0
11
786.175348269997
21
60.8598347140631
31
0
0
LINE
8
layer0
10
786.175348269997
20
60.8598347140631
30
0
11
294.272918920436
21
202.859834714063
31
0
0
LINE
8
layer0
10
294.272918920436
20
202.859834714063
30
0
11
319.272918920436
21
224.510469808674
31
0
0
LINE
8
layer0
10
811.175348269997
20
96.3668762692251
30
0
11
319.272918920436
21
238.366876269225
31
0
0
LINE
8
layer0
10
319.272918920436
20
238.366876269225
30
0
11
294.272918920436
21
216.716241174614
31
0
0
LINE
8
layer0
10
294.272918920436
20
216.716241174614
30
0
11
786.175348269997
21
74.7162411746141
31
0
0
LINE
8
layer0
10
786.175348269997
20
74.7162411746141
30
0
11
811.175348269997
21
96.3668762692251
31
0
0
LINE
8
layer0
10
786.175348269997
20
60.8598347140631
30
0
11
811.175348269997
21
82.5104698086741
31
0
0
LINE
8
layer0
10
811.175348269997
20
82.5104698086741
30
0
11
811.175348269997
21
96.3668762692251
31
0
0
LINE
8
layer0
10
811.175348269997
20
96.3668762692251
30
0
11
786.175348269997
21
74.7162411746141
31
0
0
LINE
8
layer0
10
786.175348269997
20
74.7162411746141
30
0
11
786.175348269997
21
60.8598347140631
31
0
0
LINE
8
layer0
10
319.272918920436
20
224.510469808674
30
0
11
294.272918920436
21
202.859834714063
31
0
0
LINE
8
layer0
10
294.272918920436
20
202.859834714063
30
0
11
294.272918920436
21
216.716241174614
31
0
0
LINE
8
layer0
10
294.272918920436
20
216.716241174614
30
0
11
319.272918920436
21
238.366876269225
31
0
0
LINE
8
layer0
10
319.272918920436
20
238.366876269225
30
0
11
319.272918920436
21
224.510469808674
31
0
0
LINE
8
layer0
10
294.272918920436
20
202.859834714063
30
0
11
786.175348269997
21
60.8598347140631
31
0
0
LINE
8
layer0
10
786.175348269997
20
60.8598347140631
30
0
11
786.175348269997
21
74.7162411746141
31
0
0
LINE
8
layer0
10
786.175348269997
20
74.7162411746141
30
0
11
294.272918920436
21
216.716241174614
31
0
0
LINE
8
layer0
10
294.272918920436
20
216.716241174614
30
0
11
294.272918920436
21
202.859834714063
31
0
0
LINE
8
layer0
10
811.175348269997
20
82.5104698086741
30
0
11
319.272918920436
21
224.510469808674
31
0
0
LINE
8
layer0
10
319.272918920436
20
224.510469808674
30
0
11
319.272918920436
21
238.366876269225
31
0
0
LINE
8
layer0
10
319.272918920436
20
238.366876269225
30
0
11
811.175348269997
21
96.3668762692251
31
0
0
LINE
8
layer0
10
811.175348269997
20
96.3668762692251
30
0
11
811.175348269997
21
82.5104698086741
31
0
0
LINE
8
layer0
10
1068.67534827
20
-178.596189432334
30
0
11
1082.53175473055
21
-182.596189432334
31
0
0
LINE
8
layer0
10
1082.53175473055
20
-182.596189432334
30
0
11
799.531754730549
21
-427.68137870333
31
0
0
LINE
8
layer0
10
799.531754730549
20
-427.68137870333
30
0
11
785.675348269997
21
-423.68137870333
31
0
0
LINE
8
layer0
10
785.675348269997
20
-423.68137870333
30
0
11
1068.67534827
21
-178.596189432334
31
0
0
LINE
8
layer0
10
1082.53175473055
20
315.368417743718
30
0
11
1068.67534827
21
319.368417743718
31
0
0
LINE
8
layer0
10
1068.67534827
20
319.368417743718
30
0
11
785.675348269997
21
74.2832284727219
31
0
0
LINE
8
layer0
10
785.675348269997
20
74.2832284727219
30
0
11
799.531754730549
21
70.2832284727219
31
0
0
LINE
8
layer0
10
799.531754730549
20
70.2832284727219
30
0
11
1082.53175473055
21
315.368417743718
31
0
0
LINE
8
layer0
10
799.531754730549
20
-427.68137870333
30
0
11
1082.53175473055
21
-182.596189432334
31
0
0
LINE
8
layer0
10
1082.53175473055
20
-182.596189432334
30
0
11
1082.53175473055
21
315.368417743718
31
0
0
LINE
8
layer0
10
1082.53175473055
20
315.368417743718
30
0
11
799.531754730549
21
70.2832284727219
31
0
0
LINE
8
layer0
10
799.531754730549
20
70.2832284727219
30
0
11
799.531754730549
21
-427.68137870333
31
0
0
LINE
8
layer0
10
1068.67534827
20
-178.596189432334
30
0
11
785.675348269997
21
-423.68137870333
31
0
0
LINE
8
layer0
10
785.675348269997
20
-423.68137870333
30
0
11
785.675348269997
21
74.2832284727219
31
0
0
LINE
8
layer0
10
785.675348269997
20
74.2832284727219
30
0
11
1068.67534827
21
319.368417743718
31
0
0
LINE
8
layer0
10
1068.67534827
20
319.368417743718
30
0
11
1068.67534827
21
-178.596189432334
31
0
0
LINE
8
layer0
10
785.675348269997
20
-423.68137870333
30
0
11
799.531754730549
21
-427.68137870333
31
0
0
LINE
8
layer0
10
799.531754730549
20
-427.68137870333
30
0
11
799.531754730549
21
70.2832284727219
31
0
0
LINE
8
layer0
10
799.531754730549
20
70.2832284727219
30
0
11
785.675348269997
21
74.2832284727219
31
0
0
LINE
8
layer0
10
785.675348269997
20
74.2832284727219
30
0
11
785.675348269997
21
-423.68137870333
31
0
0
LINE
8
layer0
10
1082.53175473055
20
-182.596189432334
30
0
11
1068.67534827
21
-178.596189432334
31
0
0
LINE
8
layer0
10
1068.67534827
20
-178.596189432334
30
0
11
1068.67534827
21
319.368417743718
31
0
0
LINE
8
layer0
10
1068.67534827
20
319.368417743718
30
0
11
1082.53175473055
21
315.368417743718
31
0
0
LINE
8
layer0
10
1082.53175473055
20
315.368417743718
30
0
11
1082.53175473055
21
-182.596189432334
31
0
0
LINE
8
layer0
10
562.916512459885
20
-32.5961894323342
30
0
11
576.772918920436
21
-36.5961894323342
31
0
0
LINE
8
layer0
10
576.772918920436
20
-36.5961894323342
30
0
11
293.772918920436
21
-281.68137870333
31
0
0
LINE
8
layer0
10
293.772918920436
20
-281.68137870333
30
0
11
279.916512459885
21
-277.68137870333
31
0
0
LINE
8
layer0
10
279.916512459885
20
-277.68137870333
30
0
11
562.916512459885
21
-32.5961894323342
31
0
0
LINE
8
layer0
10
576.772918920436
20
461.368417743718
30
0
11
562.916512459885
21
465.368417743718
31
0
0
LINE
8
layer0
10
562.916512459885
20
465.368417743718
30
0
11
279.916512459885
21
220.283228472722
31
0
0
LINE
8
layer0
10
279.916512459885
20
220.283228472722
30
0
11
293.772918920436
21
216.283228472722
31
0
0
LINE
8
layer0
10
293.772918920436
20
216.283228472722
30
0
11
576.772918920436
21
461.368417743718
31
0
0
LINE
8
layer0
10
293.772918920436
20
-281.68137870333
30
0
11
576.772918920436
21
-36.5961894323342
31
0
0
LINE
8
layer0
10
576.772918920436
20
-36.5961894323342
30
0
11
576.772918920436
21
461.368417743718
31
0
0
LINE
8
layer0
10
576.772918920436
20
461.368417743718
30
0
11
293.772918920436
21
216.283228472722
31
0
0
LINE
8
layer0
10
293.772918920436
20
216.283228472722
30
0
11
293.772918920436
21
-281.68137870333
31
0
0
LINE
8
layer0
10
562.916512459885
20
-32.5961894323342
30
0
11
279.916512459885
21
-277.68137870333
31
0
0
LINE
8
layer0
10
279.916512459885
20
-277.68137870333
30
0
11
279.916512459885
21
220.283228472722
31
0
0
LINE
8
layer0
10
279.916512459885
20
220.283228472722
30
0
11
562.916512459885
21
465.368417743718
31
0
0
LINE
8
layer0
10
562.916512459885
20
465.368417743718
30
0
11
562.916512459885
21
-32.5961894323342
31
0
0
LINE
8
layer0
10
279.916512459885
20
-277.68137870333
30
0
11
293.772918920436
21
-281.68137870333
31
0
0
LINE
8
layer0
10
293.772918920436
20
-281.68137870333
30
0
11
293.772918920436
21
216.283228472722
31
0
0
LINE
8
layer0
10
293.772918920436
20
216.283228472722
30
0
11
279.916512459885
21
220.283228472722
31
0
0
LINE
8
layer0
10
279.916512459885
20
220.283228472722
30
0
11
279.916512459885
21
-277.68137870333
31
0
0
LINE
8
layer0
10
576.772918920436
20
-36.5961894323342
30
0
11
562.916512459885
21
-32.5961894323342
31
0
0
LINE
8
layer0
10
562.916512459885
20
-32.5961894323342
30
0
11
562.916512459885
21
465.368417743718
31
0
0
LINE
8
layer0
10
562.916512459885
20
465.368417743718
30
0
11
576.772918920436
21
461.368417743718
31
0
0
LINE
8
layer0
10
576.772918920436
20
461.368417743718
30
0
11
576.772918920436
21
-36.5961894323342
31
0
0
ENDBLK
0
BLOCK
8
layer0
2
PF_OBJECT7
70
0
10
0
20
0
30
0
0
LINE
8
layer0
10
716.818636873639
20
21.3736941109504
30
0
11
757.959351708797
21
21.3736941109504
31
0
0
LINE
8
layer0
10
757.959351708797
20
21.3736941109504
30
0
11
757.959351708797
21
30.0339481487948
31
0
0
LINE
8
layer0
10
757.959351708797
20
30.0339481487948
30
0
11
716.818636873639
21
30.0339481487948
31
0
0
LINE
8
layer0
10
716.818636873639
20
30.0339481487948
30
0
11
716.818636873639
21
21.3736941109504
31
0
0
LINE
8
layer0
10
708.453473836261
20
32.4487627145175
30
0
11
708.453473836261
21
23.788508676673
31
0
0
LINE
8
layer0
10
708.453473836261
20
23.788508676673
30
0
11
716.818636873639
21
21.3736941109504
31
0
0
LINE
8
layer0
10
716.818636873639
20
21.3736941109504
30
0
11
716.818636873639
21
30.0339481487948
31
0
0
LINE
8
layer0
10
716.818636873639
20
30.0339481487948
30
0
11
708.453473836261
21
32.4487627145175
31
0
0
LINE
8
layer0
10
658.541231182716
20
38.1969320426142
30
0
11
708.453473836261
21
23.788508676673
31
0
0
LINE
8
layer0
10
708.453473836261
20
23.788508676673
30
0
11
708.453473836261
21
32.4487627145175
31
0
0
LINE
8
layer0
10
708.453473836261
20
32.4487627145175
30
0
11
658.541231182716
21
46.8571860804587
31
0
0
LINE
8
layer0
10
658.541231182716
20
46.8571860804587
30
0
11
658.541231182716
21
38.1969320426142
31
0
0
LINE
8
layer0
10
653.71160205127
20
51.0397675991477
30
0
11
653.71160205127
21
42.3795135613032
31
0
0
LINE
8
layer0
10
653.71160205127
20
42.3795135613032
30
0
11
658.541231182716
21
38.1969320426142
31
0
0
LINE
8
layer0
10
658.541231182716
20
38.1969320426142
30
0
11
658.541231182716
21
46.8571860804587
31
0
0
LINE
8
layer0
10
658.541231182716
20
46.8571860804587
30
0
11
653.71160205127
21
51.0397675991477
31
0
0
LINE
8
layer0
10
637.970873765137
20
64.6716381690076
30
0
11
637.970873765137
21
56.0113841311632
31
0
0
LINE
8
layer0
10
637.970873765137
20
56.0113841311632
30
0
11
653.71160205127
21
42.3795135613032
31
0
0
LINE
8
layer0
10
653.71160205127
20
42.3795135613032
30
0
11
653.71160205127
21
51.0397675991477
31
0
0
LINE
8
layer0
10
653.71160205127
20
51.0397675991477
30
0
11
637.970873765137
21
64.6716381690076
31
0
0
LINE
8
layer0
10
708.453473836261
20
23.788508676673
30
0
11
749.594188671419
21
23.7885086766731
31
0
0
LINE
8
layer0
10
749.594188671419
20
23.7885086766731
30
0
11
757.959351708797
21
21.3736941109504
31
0
0
LINE
8
layer0
10
757.959351708797
20
21.3736941109504
30
0
11
716.818636873639
21
21.3736941109504
31
0
0
LINE
8
layer0
10
716.818636873639
20
21.3736941109504
30
0
11
708.453473836261
21
23.788508676673
31
0
0
LINE
8
layer0
10
653.71160205127
20
42.3795135613032
30
0
11
718.112732099152
21
23.788508676673
31
0
0
LINE
8
layer0
10
718.112732099152
20
23.788508676673
30
0
11
708.453473836261
21
23.788508676673
31
0
0
LINE
8
layer0
10
708.453473836261
20
23.788508676673
30
0
11
658.541231182716
21
38.1969320426142
31
0
0
LINE
8
layer0
10
658.541231182716
20
38.1969320426142
30
0
11
653.71160205127
21
42.3795135613032
31
0
0
LINE
8
layer0
10
637.970873765137
20
56.0113841311632
30
0
11
646.336036802515
21
53.5965695654405
31
0
0
LINE
8
layer0
10
646.336036802515
20
53.5965695654405
30
0
11
662.076765088648
21
39.9646989955806
31
0
0
LINE
8
layer0
10
662.076765088648
20
39.9646989955806
30
0
11
653.71160205127
21
42.3795135613032
31
0
0
LINE
8
layer0
10
653.71160205127
20
42.3795135613032
30
0
11
637.970873765137
21
56.0113841311632
31
0
0
LINE
8
layer0
10
749.594188671419
20
32.4487627145175
30
0
11
749.594188671419
21
23.7885086766731
31
0
0
LINE
8
layer0
10
749.594188671419
20
23.7885086766731
30
0
11
718.112732099152
21
23.788508676673
31
0
0
LINE
8
layer0
10
718.112732099152
20
23.788508676673
30
0
11
718.112732099152
21
32.4487627145175
31
0
0
LINE
8
layer0
10
718.112732099152
20
32.4487627145175
30
0
11
749.594188671419
21
32.4487627145175
31
0
0
LINE
8
layer0
10
718.112732099152
20
23.788508676673
30
0
11
662.076765088648
21
39.9646989955806
31
0
0
LINE
8
layer0
10
662.076765088648
20
39.9646989955806
30
0
11
662.076765088648
21
48.624953033425
31
0
0
LINE
8
layer0
10
662.076765088648
20
48.624953033425
30
0
11
718.112732099152
21
32.4487627145175
31
0
0
LINE
8
layer0
10
718.112732099152
20
32.4487627145175
30
0
11
718.112732099152
21
23.788508676673
31
0
0
LINE
8
layer0
10
662.076765088648
20
39.9646989955806
30
0
11
646.336036802515
21
53.5965695654405
31
0
0
LINE
8
layer0
10
646.336036802515
20
53.5965695654405
30
0
11
646.336036802515
21
62.2568236032849
31
0
0
LINE
8
layer0
10
646.336036802515
20
62.2568236032849
30
0
11
662.076765088648
21
48.624953033425
31
0
0
LINE
8
layer0
10
662.076765088648
20
48.624953033425
30
0
11
662.076765088648
21
39.9646989955806
31
0
0
LINE
8
layer0
10
749.594188671419
20
23.7885086766731
30
0
11
749.594188671419
21
32.4487627145175
31
0
0
LINE
8
layer0
10
749.594188671419
20
32.4487627145175
30
0
11
757.959351708797
21
30.0339481487948
31
0
0
LINE
8
layer0
10
757.959351708797
20
30.0339481487948
30
0
11
757.959351708797
21
21.3736941109504
31
0
0
LINE
8
layer0
10
757.959351708797
20
21.3736941109504
30
0
11
749.594188671419
21
23.7885086766731
31
0
0
LINE
8
layer0
10
637.970873765137
20
64.6716381690076
30
0
11
646.336036802515
21
62.2568236032849
31
0
0
LINE
8
layer0
10
646.336036802515
20
62.2568236032849
30
0
11
646.336036802515
21
53.5965695654405
31
0
0
LINE
8
layer0
10
646.336036802515
20
53.5965695654405
30
0
11
637.970873765137
21
56.0113841311632
31
0
0
LINE
8
layer0
10
637.970873765137
20
56.0113841311632
30
0
11
637.970873765137
21
64.6716381690076
31
0
0
LINE
8
layer0
10
757.959351708797
20
30.0339481487948
30
0
11
749.594188671419
21
32.4487627145175
31
0
0
LINE
8
layer0
10
749.594188671419
20
32.4487627145175
30
0
11
708.453473836261
21
32.4487627145175
31
0
0
LINE
8
layer0
10
708.453473836261
20
32.4487627145175
30
0
11
716.818636873639
21
30.0339481487948
31
0
0
LINE
8
layer0
10
716.818636873639
20
30.0339481487948
30
0
11
757.959351708797
21
30.0339481487948
31
0
0
LINE
8
layer0
10
708.453473836261
20
32.4487627145175
30
0
11
718.112732099152
21
32.4487627145175
31
0
0
LINE
8
layer0
10
718.112732099152
20
32.4487627145175
30
0
11
653.71160205127
21
51.0397675991477
31
0
0
LINE
8
layer0
10
653.71160205127
20
51.0397675991477
30
0
11
658.541231182716
21
46.8571860804587
31
0
0
LINE
8
layer0
10
658.541231182716
20
46.8571860804587
30
0
11
708.453473836261
21
32.4487627145175
31
0
0
LINE
8
layer0
10
653.71160205127
20
51.0397675991477
30
0
11
662.076765088648
21
48.624953033425
31
0
0
LINE
8
layer0
10
662.076765088648
20
48.624953033425
30
0
11
646.336036802515
21
62.2568236032849
31
0
0
LINE
8
layer0
10
646.336036802515
20
62.2568236032849
30
0
11
637.970873765137
21
64.6716381690076
31
0
0
LINE
8
layer0
10
637.970873765137
20
64.6716381690076
30
0
11
653.71160205127
21
51.0397675991477
31
0
0
ENDBLK
0
BLOCK
8
layer0
2
PF_OBJECT8
70
0
10
0
20
0
30
0
0
LINE
8
layer0
10
795.433678519195
20
-425.632340597654
30
0
11
281.014588671239
21
-277.132340597654
31
0
0
LINE
8
layer0
10
281.014588671239
20
-277.132340597654
30
0
11
281.014588671239
21
212.172012540554
31
0
0
LINE
8
layer0
10
281.014588671239
20
212.172012540554
30
0
11
795.433678519195
21
63.6720125405542
31
0
0
LINE
8
layer0
10
795.433678519195
20
63.6720125405542
30
0
11
795.433678519195
21
-425.632340597654
31
0
0
LINE
8
layer0
10
271.014588671239
20
-285.792594635498
30
0
11
785.433678519195
21
-434.292594635498
31
0
0
LINE
8
layer0
10
785.433678519195
20
-434.292594635498
30
0
11
785.433678519195
21
55.0117585027098
31
0
0
LINE
8
layer0
10
785.433678519195
20
55.0117585027098
30
0
11
271.014588671239
21
203.51175850271
31
0
0
LINE
8
layer0
10
271.014588671239
20
203.51175850271
30
0
11
271.014588671239
21
-285.792594635498
31
0
0
LINE
8
layer0
10
281.014588671239
20
-277.132340597654
30
0
11
271.014588671239
21
-285.792594635498
31
0
0
LINE
8
layer0
10
271.014588671239
20
-285.792594635498
30
0
11
271.014588671239
21
203.51175850271
31
0
0
LINE
8
layer0
10
271.014588671239
20
203.51175850271
30
0
11
281.014588671239
21
212.172012540554
31
0
0
LINE
8
layer0
10
281.014588671239
20
212.172012540554
30
0
11
281.014588671239
21
-277.132340597654
31
0
0
LINE
8
layer0
10
785.433678519195
20
-434.292594635498
30
0
11
795.433678519195
21
-425.632340597654
31
0
0
LINE
8
layer0
10
795.433678519195
20
-425.632340597654
30
0
11
795.433678519195
21
63.6720125405542
31
0
0
LINE
8
layer0
10
795.433678519195
20
63.6720125405542
30
0
11
785.433678519195
21
55.0117585027098
31
0
0
LINE
8
layer0
10
785.433678519195
20
55.0117585027098
30
0
11
785.433678519195
21
-434.292594635498
31
0
0
LINE
8
layer0
10
795.433678519195
20
63.6720125405542
30
0
11
281.014588671239
21
212.172012540554
31
0
0
LINE
8
layer0
10
281.014588671239
20
212.172012540554
30
0
11
271.014588671239
21
203.51175850271
31
0
0
LINE
8
layer0
10
271.014588671239
20
203.51175850271
30
0
11
785.433678519195
21
55.0117585027098
31
0
0
LINE
8
layer0
10
785.433678519195
20
55.0117585027098
30
0
11
795.433678519195
21
63.6720125405542
31
0
0
LINE
8
layer0
10
281.014588671239
20
-277.132340597654
30
0
11
795.433678519195
21
-425.632340597654
31
0
0
LINE
8
layer0
10
795.433678519195
20
-425.632340597654
30
0
11
785.433678519195
21
-434.292594635498
31
0
0
LINE
8
layer0
10
785.433678519195
20
-434.292594635498
30
0
11
271.014588671239
21
-285.792594635498
31
0
0
LINE
8
layer0
10
271.014588671239
20
-285.792594635498
30
0
11
281.014588671239
21
-277.132340597654
31
0
0
ENDBLK
0
BLOCK
8
layer0
2
PF_OBJECT9
70
0
10
0
20
0
30
0
0
LINE
8
layer0
10
590.858798800485
20
-228.301270189222
30
0
11
556.217782649107
21
-218.301270189222
31
0
0
LINE
8
layer0
10
556.217782649107
20
-218.301270189222
30
0
11
556.217782649107
21
-88.3974596215561
31
0
0
LINE
8
layer0
10
556.217782649107
20
-88.3974596215561
30
0
11
590.858798800485
21
-98.3974596215561
31
0
0
LINE
8
layer0
10
590.858798800485
20
-98.3974596215561
30
0
11
590.858798800485
21
-228.301270189222
31
0
0
LINE
8
layer0
10
536.217782649107
20
-235.621778264911
30
0
11
570.858798800485
21
-245.621778264911
31
0
0
LINE
8
layer0
10
570.858798800485
20
-245.621778264911
30
0
11
570.858798800485
21
-115.717967697245
31
0
0
LINE
8
layer0
10
570.858798800485
20
-115.717967697245
30
0
11
536.217782649107
21
-105.717967697245
31
0
0
LINE
8
layer0
10
536.217782649107
20
-105.717967697245
30
0
11
536.217782649107
21
-235.621778264911
31
0
0
LINE
8
layer0
10
556.217782649107
20
-218.301270189222
30
0
11
536.217782649107
21
-235.621778264911
31
0
0
LINE
8
layer0
10
536.217782649107
20
-235.621778264911
30
0
11
536.217782649107
21
-105.717967697245
31
0
0
LINE
8
layer0
10
536.217782649107
20
-105.717967697245
30
0
11
556.217782649107
21
-88.3974596215561
31
0
0
LINE
8
layer0
10
556.217782649107
20
-88.3974596215561
30
0
11
556.217782649107
21
-218.301270189222
31
0
0
LINE
8
layer0
10
570.858798800485
20
-245.621778264911
30
0
11
590.858798800485
21
-228.301270189222
31
0
0
LINE
8
layer0
10
590.858798800485
20
-228.301270189222
30
0
11
590.858798800485
21
-98.3974596215561
31
0
0
LINE
8
layer0
10
590.858798800485
20
-98.3974596215561
30
0
11
570.858798800485
21
-115.717967697245
31
0
0
LINE
8
layer0
10
570.858798800485
20
-115.717967697245
30
0
11
570.858798800485
21
-245.621778264911
31
0
0
LINE
8
layer0
10
590.858798800485
20
-98.3974596215561
30
0
11
556.217782649107
21
-88.3974596215561
31
0
0
LINE
8
layer0
10
556.217782649107
20
-88.3974596215561
30
0
11
536.217782649107
21
-105.717967697245
31
0
0
LINE
8
layer0
10
536.217782649107
20
-105.717967697245
30
0
11
570.858798800485
21
-115.717967697245
31
0
0
LINE
8
layer0
10
570.858798800485
20
-115.717967697245
30
0
11
590.858798800485
21
-98.3974596215561
31
0
0
LINE
8
layer0
10
556.217782649107
20
-218.301270189222
30
0
11
590.858798800485
21
-228.301270189222
31
0
0
LINE
8
layer0
10
590.858798800485
20
-228.301270189222
30
0
11
570.858798800485
21
-245.621778264911
31
0
0
LINE
8
layer0
10
570.858798800485
20
-245.621778264911
30
0
11
536.217782649107
21
-235.621778264911
31
0
0
LINE
8
layer0
10
536.217782649107
20
-235.621778264911
30
0
11
556.217782649107
21
-218.301270189222
31
0
0
ENDBLK
0
BLOCK
8
layer0
2
PF_OBJECT10
70
0
10
0
20
0
30
0
0
LINE
8
layer0
10
432.858798800485
20
-365.133283987163
30
0
11
398.217782649107
21
-355.133283987163
31
0
0
LINE
8
layer0
10
398.217782649107
20
-355.133283987163
30
0
11
398.217782649107
21
-225.229473419497
31
0
0
LINE
8
layer0
10
398.217782649107
20
-225.229473419497
30
0
11
432.858798800485
21
-235.229473419497
31
0
0
LINE
8
layer0
10
432.858798800485
20
-235.229473419497
30
0
11
432.858798800485
21
-365.133283987163
31
0
0
LINE
8
layer0
10
378.217782649107
20
-372.453792062852
30
0
11
412.858798800485
21
-382.453792062852
31
0
0
LINE
8
layer0
10
412.858798800485
20
-382.453792062852
30
0
11
412.858798800485
21
-252.549981495186
31
0
0
LINE
8
layer0
10
412.858798800485
20
-252.549981495186
30
0
11
378.217782649107
21
-242.549981495186
31
0
0
LINE
8
layer0
10
378.217782649107
20
-242.549981495186
30
0
11
378.217782649107
21
-372.453792062852
31
0
0
LINE
8
layer0
10
398.217782649107
20
-355.133283987163
30
0
11
378.217782649107
21
-372.453792062852
31
0
0
LINE
8
layer0
10
378.217782649107
20
-372.453792062852
30
0
11
378.217782649107
21
-242.549981495186
31
0
0
LINE
8
layer0
10
378.217782649107
20
-242.549981495186
30
0
11
398.217782649107
21
-225.229473419497
31
0
0
LINE
8
layer0
10
398.217782649107
20
-225.229473419497
30
0
11
398.217782649107
21
-355.133283987163
31
0
0
LINE
8
layer0
10
412.858798800485
20
-382.453792062852
30
0
11
432.858798800485
21
-365.133283987163
31
0
0
LINE
8
layer0
10
432.858798800485
20
-365.133283987163
30
0
11
432.858798800485
21
-235.229473419497
31
0
0
LINE
8
layer0
10
432.858798800485
20
-235.229473419497
30
0
11
412.858798800485
21
-252.549981495186
31
0
0
LINE
8
layer0
10
412.858798800485
20
-252.549981495186
30
0
11
412.858798800485
21
-382.453792062852
31
0
0
LINE
8
layer0
10
432.858798800485
20
-235.229473419497
30
0
11
398.217782649107
21
-225.229473419497
31
0
0
LINE
8
layer0
10
398.217782649107
20
-225.229473419497
30
0
11
378.217782649107
21
-242.549981495186
31
0
0
LINE
8
layer0
10
378.217782649107
20
-242.549981495186
30
0
11
412.858798800485
21
-252.549981495186
31
0
0
LINE
8
layer0
10
412.858798800485
20
-252.549981495186
30
0
11
432.858798800485
21
-235.229473419497
31
0
0
LINE
8
layer0
10
398.217782649107
20
-355.133283987163
30
0
11
432.858798800485
21
-365.133283987163
31
0
0
LINE
8
layer0
10
432.858798800485
20
-365.133283987163
30
0
11
412.858798800485
21
-382.453792062852
31
0
0
LINE
8
layer0
10
412.858798800485
20
-382.453792062852
30
0
11
378.217782649107
21
-372.453792062852
31
0
0
LINE
8
layer0
10
378.217782649107
20
-372.453792062852
30
0
11
398.217782649107
21
-355.133283987163
31
0
0
ENDBLK
0
BLOCK
8
layer0
2
PF_OBJECT11
70
0
10
0
20
0
30
0
0
LINE
8
layer0
10
989.230484541327
20
-343.301270189222
30
0
11
954.589468389949
21
-333.301270189222
31
0
0
LINE
8
layer0
10
954.589468389949
20
-333.301270189222
30
0
11
954.589468389949
21
-203.397459621556
31
0
0
LINE
8
layer0
10
954.589468389949
20
-203.397459621556
30
0
11
989.230484541327
21
-213.397459621556
31
0
0
LINE
8
layer0
10
989.230484541327
20
-213.397459621556
30
0
11
989.230484541327
21
-343.301270189222
31
0
0
LINE
8
layer0
10
934.589468389949
20
-350.621778264911
30
0
11
969.230484541327
21
-360.621778264911
31
0
0
LINE
8
layer0
10
969.230484541327
20
-360.621778264911
30
0
11
969.230484541327
21
-230.717967697245
31
0
0
LINE
8
layer0
10
969.230484541327
20
-230.717967697245
30
0
11
934.589468389949
21
-220.717967697245
31
0
0
LINE
8
layer0
10
934.589468389949
20
-220.717967697245
30
0
11
934.589468389949
21
-350.621778264911
31
0
0
LINE
8
layer0
10
954.589468389949
20
-333.301270189222
30
0
11
934.589468389949
21
-350.621778264911
31
0
0
LINE
8
layer0
10
934.589468389949
20
-350.621778264911
30
0
11
934.589468389949
21
-220.717967697245
31
0
0
LINE
8
layer0
10
934.589468389949
20
-220.717967697245
30
0
11
954.589468389949
21
-203.397459621556
31
0
0
LINE
8
layer0
10
954.589468389949
20
-203.397459621556
30
0
11
954.589468389949
21
-333.301270189222
31
0
0
LINE
8
layer0
10
969.230484541327
20
-360.621778264911
30
0
11
989.230484541327
21
-343.301270189222
31
0
0
LINE
8
layer0
10
989.230484541327
20
-343.301270189222
30
0
11
989.230484541327
21
-213.397459621556
31
0
0
LINE
8
layer0
10
989.230484541327
20
-213.397459621556
30
0
11
969.230484541327
21
-230.717967697245
31
0
0
LINE
8
layer0
10
969.230484541327
20
-230.717967697245
30
0
11
969.230484541327
21
-360.621778264911
31
0
0
LINE
8
layer0
10
989.230484541327
20
-213.397459621556
30
0
11
954.589468389949
21
-203.397459621556
31
0
0
LINE
8
layer0
10
954.589468389949
20
-203.397459621556
30
0
11
934.589468389949
21
-220.717967697245
31
0
0
LINE
8
layer0
10
934.589468389949
20
-220.717967697245
30
0
11
969.230484541327
21
-230.717967697245
31
0
0
LINE
8
layer0
10
969.230484541327
20
-230.717967697245
30
0
11
989.230484541327
21
-213.397459621556
31
0
0
LINE
8
layer0
10
954.589468389949
20
-333.301270189222
30
0
11
989.230484541327
21
-343.301270189222
31
0
0
LINE
8
layer0
10
989.230484541327
20
-343.301270189222
30
0
11
969.230484541327
21
-360.621778264911
31
0
0
LINE
8
layer0
10
969.230484541327
20
-360.621778264911
30
0
11
934.589468389949
21
-350.621778264911
31
0
0
LINE
8
layer0
10
934.589468389949
20
-350.621778264911
30
0
11
954.589468389949
21
-333.301270189222
31
0
0
ENDBLK
0
BLOCK
8
layer0
2
PF_OBJECT12
70
0
10
0
20
0
30
0
0
LINE
8
layer0
10
831.230484541327
20
-480.133283987163
30
0
11
796.589468389949
21
-470.133283987163
31
0
0
LINE
8
layer0
10
796.589468389949
20
-470.133283987163
30
0
11
796.589468389949
21
-340.229473419497
31
0
0
LINE
8
layer0
10
796.589468389949
20
-340.229473419497
30
0
11
831.230484541327
21
-350.229473419497
31
0
0
LINE
8
layer0
10
831.230484541327
20
-350.229473419497
30
0
11
831.230484541327
21
-480.133283987163
31
0
0
LINE
8
layer0
10
776.589468389949
20
-487.453792062852
30
0
11
811.230484541327
21
-497.453792062852
31
0
0
LINE
8
layer0
10
811.230484541327
20
-497.453792062852
30
0
11
811.230484541327
21
-367.549981495186
31
0
0
LINE
8
layer0
10
811.230484541327
20
-367.549981495186
30
0
11
776.589468389949
21
-357.549981495186
31
0
0
LINE
8
layer0
10
776.589468389949
20
-357.549981495186
30
0
11
776.589468389949
21
-487.453792062852
31
0
0
LINE
8
layer0
10
796.589468389949
20
-470.133283987163
30
0
11
776.589468389949
21
-487.453792062852
31
0
0
LINE
8
layer0
10
776.589468389949
20
-487.453792062852
30
0
11
776.589468389949
21
-357.549981495186
31
0
0
LINE
8
layer0
10
776.589468389949
20
-357.549981495186
30
0
11
796.589468389949
21
-340.229473419497
31
0
0
LINE
8
layer0
10
796.589468389949
20
-340.229473419497
30
0
11
796.589468389949
21
-470.133283987163
31
0
0
LINE
8
layer0
10
811.230484541327
20
-497.453792062852
30
0
11
831.230484541327
21
-480.133283987163
31
0
0
LINE
8
layer0
10
831.230484541327
20
-480.133283987163
30
0
11
831.230484541327
21
-350.229473419497
31
0
0
LINE
8
layer0
10
831.230484541327
20
-350.229473419497
30
0
11
811.230484541327
21
-367.549981495186
31
0
0
LINE
8
layer0
10
811.230484541327
20
-367.549981495186
30
0
11
811.230484541327
21
-497.453792062852
31
0
0
LINE
8
layer0
10
831.230484541327
20
-350.229473419497
30
0
11
796.589468389949
21
-340.229473419497
31
0
0
LINE
8
layer0
10
796.589468389949
20
-340.229473419497
30
0
11
776.589468389949
21
-357.549981495186
31
0
0
LINE
8
layer0
10
776.589468389949
20
-357.549981495186
30
0
11
811.230484541327
21
-367.549981495186
31
0
0
LINE
8
layer0
10
811.230484541327
20
-367.549981495186
30
0
11
831.230484541327
21
-350.229473419497
31
0
0
LINE
8
layer0
10
796.589468389949
20
-470.133283987163
30
0
11
831.230484541327
21
-480.133283987163
31
0
0
LINE
8
layer0
10
831.230484541327
20
-480.133283987163
30
0
11
811.230484541327
21
-497.453792062852
31
0
0
LINE
8
layer0
10
811.230484541327
20
-497.453792062852
30
0
11
776.589468389949
21
-487.453792062852
31
0
0
LINE
8
layer0
10
776.589468389949
20
-487.453792062852
30
0
11
796.589468389949
21
-470.133283987163
31
0
0
ENDBLK
0
BLOCK
8
layer0
70
0
10
0
20
0
30
0
2
PF_SKETCH13
0
LINE
8
layer0
10
515.749845793219
20
424.520886198552
30
0
11
468.583179126552
21
383.673354653386
31
0
0
ENDBLK
0
BLOCK
8
layer0
70
0
10
0
20
0
30
0
2
PF_SKETCH14
0
LINE
8
layer0
10
1035.36508806388
20
274.520886198552
30
0
11
988.198421397215
21
233.673354653386
31
0
0
ENDBLK
0
BLOCK
8
layer0
70
0
10
0
20
0
30
0
2
PF_SKETCH15
0
LINE
8
layer0
10
421.416512459885
20
342.82582310822
30
0
11
374.249845793219
21
301.978291563054
31
0
0
ENDBLK
0
BLOCK
8
layer0
70
0
10
0
20
0
30
0
2
PF_SKETCH16
0
LINE
8
layer0
10
941.031754730548
20
192.82582310822
30
0
11
893.865088063882
21
151.978291563054
31
0
0
ENDBLK
0
BLOCK
8
layer0
70
0
10
0
20
0
30
0
2
PF_SKETCH17
0
LINE
8
layer0
10
327.083179126552
20
261.130760017888
30
0
11
279.916512459885
21
220.283228472722
31
0
0
ENDBLK
0
BLOCK
8
layer0
70
0
10
0
20
0
30
0
2
PF_SKETCH18
0
LINE
8
layer0
10
846.698421397215
20
111.130760017888
30
0
11
799.531754730549
21
70.2832284727219
31
0
0
ENDBLK
0
BLOCK
8
layer0
2
PF_OBJECT19
70
0
10
0
20
0
30
0
0
LINE
8
layer0
10
2080.90583281132
20
-501.978875334514
30
0
11
1069.3881611911
21
-209.978875334514
31
0
0
LINE
8
layer0
10
1069.3881611911
20
-209.978875334514
30
0
11
1069.3881611911
21
-196.122468873963
31
0
0
LINE
8
layer0
10
1069.3881611911
20
-196.122468873963
30
0
11
2080.90583281132
21
-488.122468873963
31
0
0
LINE
8
layer0
10
2080.90583281132
20
-488.122468873963
30
0
11
2080.90583281132
21
-501.978875334514
31
0
0
LINE
8
layer0
10
813.888161191099
20
-431.248366001438
30
0
11
1825.40583281132
21
-723.248366001438
31
0
0
LINE
8
layer0
10
1825.40583281132
20
-723.248366001438
30
0
11
1825.40583281132
21
-709.391959540887
31
0
0
LINE
8
layer0
10
1825.40583281132
20
-709.391959540887
30
0
11
813.888161191099
21
-417.391959540887
31
0
0
LINE
8
layer0
10
813.888161191099
20
-417.391959540887
30
0
11
813.888161191099
21
-431.248366001438
31
0
0
LINE
8
layer0
10
1069.3881611911
20
-209.978875334514
30
0
11
813.888161191099
21
-431.248366001438
31
0
0
LINE
8
layer0
10
813.888161191099
20
-431.248366001438
30
0
11
813.888161191099
21
-417.391959540887
31
0
0
LINE
8
layer0
10
813.888161191099
20
-417.391959540887
30
0
11
1069.3881611911
21
-196.122468873963
31
0
0
LINE
8
layer0
10
1069.3881611911
20
-196.122468873963
30
0
11
1069.3881611911
21
-209.978875334514
31
0
0
LINE
8
layer0
10
1825.40583281132
20
-723.248366001438
30
0
11
2080.90583281132
21
-501.978875334514
31
0
0
LINE
8
layer0
10
2080.90583281132
20
-501.978875334514
30
0
11
2080.90583281132
21
-488.122468873963
31
0
0
LINE
8
layer0
10
2080.90583281132
20
-488.122468873963
30
0
11
1825.40583281132
21
-709.391959540887
31
0
0
LINE
8
layer0
10
1825.40583281132
20
-709.391959540887
30
0
11
1825.40583281132
21
-723.248366001438
31
0
0
LINE
8
layer0
10
2080.90583281132
20
-488.122468873963
30
0
11
1069.3881611911
21
-196.122468873963
31
0
0
LINE
8
layer0
10
1069.3881611911
20
-196.122468873963
30
0
11
813.888161191099
21
-417.391959540887
31
0
0
LINE
8
layer0
10
813.888161191099
20
-417.391959540887
30
0
11
1825.40583281132
21
-709.391959540887
31
0
0
LINE
8
layer0
10
1825.40583281132
20
-709.391959540887
30
0
11
2080.90583281132
21
-488.122468873963
31
0
0
LINE
8
layer0
10
1069.3881611911
20
-209.978875334514
30
0
11
2080.90583281132
21
-501.978875334514
31
0
0
LINE
8
layer0
10
2080.90583281132
20
-501.978875334514
30
0
11
1825.40583281132
21
-723.248366001438
31
0
0
LINE
8
layer0
10
1825.40583281132
20
-723.248366001438
30
0
11
813.888161191099
21
-431.248366001438
31
0
0
LINE
8
layer0
10
813.888161191099
20
-431.248366001438
30
0
11
1069.3881611911
21
-209.978875334514
31
0
0
ENDBLK
0
BLOCK
8
layer0
2
PF_OBJECT20
70
0
10
0
20
0
30
0
0
LINE
8
layer0
10
2082.90583281132
20
-500.246824526945
30
0
11
1071.3881611911
21
-208.246824526945
31
0
0
LINE
8
layer0
10
1071.3881611911
20
-208.246824526945
30
0
11
1071.3881611911
21
289.717782649107
31
0
0
LINE
8
layer0
10
1071.3881611911
20
289.717782649107
30
0
11
2082.90583281132
21
-2.28221735089278
31
0
0
LINE
8
layer0
10
2082.90583281132
20
-2.28221735089278
30
0
11
2082.90583281132
21
-500.246824526945
31
0
0
LINE
8
layer0
10
1069.3881611911
20
-209.978875334514
30
0
11
2080.90583281132
21
-501.978875334514
31
0
0
LINE
8
layer0
10
2080.90583281132
20
-501.978875334514
30
0
11
2080.90583281132
21
-4.01426815846168
31
0
0
LINE
8
layer0
10
2080.90583281132
20
-4.01426815846168
30
0
11
1069.3881611911
21
287.985731841538
31
0
0
LINE
8
layer0
10
1069.3881611911
20
287.985731841538
30
0
11
1069.3881611911
21
-209.978875334514
31
0
0
LINE
8
layer0
10
1071.3881611911
20
-208.246824526945
30
0
11
1069.3881611911
21
-209.978875334514
31
0
0
LINE
8
layer0
10
1069.3881611911
20
-209.978875334514
30
0
11
1069.3881611911
21
287.985731841538
31
0
0
LINE
8
layer0
10
1069.3881611911
20
287.985731841538
30
0
11
1071.3881611911
21
289.717782649107
31
0
0
LINE
8
layer0
10
1071.3881611911
20
289.717782649107
30
0
11
1071.3881611911
21
-208.246824526945
31
0
0
LINE
8
layer0
10
2080.90583281132
20
-501.978875334514
30
0
11
2082.90583281132
21
-500.246824526945
31
0
0
LINE
8
layer0
10
2082.90583281132
20
-500.246824526945
30
0
11
2082.90583281132
21
-2.28221735089278
31
0
0
LINE
8
layer0
10
2082.90583281132
20
-2.28221735089278
30
0
11
2080.90583281132
21
-4.01426815846168
31
0
0
LINE
8
layer0
10
2080.90583281132
20
-4.01426815846168
30
0
11
2080.90583281132
21
-501.978875334514
31
0
0
LINE
8
layer0
10
2082.90583281132
20
-2.28221735089278
30
0
11
1071.3881611911
21
289.717782649107
31
0
0
LINE
8
layer0
10
1071.3881611911
20
289.717782649107
30
0
11
1069.3881611911
21
287.985731841538
31
0
0
LINE
8
layer0
10
1069.3881611911
20
287.985731841538
30
0
11
2080.90583281132
21
-4.01426815846168
31
0
0
LINE
8
layer0
10
2080.90583281132
20
-4.01426815846168
30
0
11
2082.90583281132
21
-2.28221735089278
31
0
0
LINE
8
layer0
10
1071.3881611911
20
-208.246824526945
30
0
11
2082.90583281132
21
-500.246824526945
31
0
0
LINE
8
layer0
10
2082.90583281132
20
-500.246824526945
30
0
11
2080.90583281132
21
-501.978875334514
31
0
0
LINE
8
layer0
10
2080.90583281132
20
-501.978875334514
30
0
11
1069.3881611911
21
-209.978875334514
31
0
0
LINE
8
layer0
10
1069.3881611911
20
-209.978875334514
30
0
11
1071.3881611911
21
-208.246824526945
31
0
0
ENDBLK
0
BLOCK
8
layer0
2
PF_OBJECT21
70
0
10
0
20
0
30
0
0
LINE
8
layer0
10
2055.90583281132
20
-25.6649032530726
30
0
11
1044.3881611911
21
266.335096746927
31
0
0
LINE
8
layer0
10
1044.3881611911
20
266.335096746927
30
0
11
1044.3881611911
21
252.478690286376
31
0
0
LINE
8
layer0
10
1044.3881611911
20
252.478690286376
30
0
11
2055.90583281132
21
-39.5213097136237
31
0
0
LINE
8
layer0
10
2055.90583281132
20
-39.5213097136237
30
0
11
2055.90583281132
21
-25.6649032530726
31
0
0
LINE
8
layer0
10
1069.3881611911
20
287.985731841538
30
0
11
2080.90583281132
21
-4.01426815846168
31
0
0
LINE
8
layer0
10
2080.90583281132
20
-4.01426815846168
30
0
11
2080.90583281132
21
-17.8706746190127
31
0
0
LINE
8
layer0
10
2080.90583281132
20
-17.8706746190127
30
0
11
1069.3881611911
21
274.129325380987
31
0
0
LINE
8
layer0
10
1069.3881611911
20
274.129325380987
30
0
11
1069.3881611911
21
287.985731841538
31
0
0
LINE
8
layer0
10
1044.3881611911
20
266.335096746927
30
0
11
1069.3881611911
21
287.985731841538
31
0
0
LINE
8
layer0
10
1069.3881611911
20
287.985731841538
30
0
11
1069.3881611911
21
274.129325380987
31
0
0
LINE
8
layer0
10
1069.3881611911
20
274.129325380987
30
0
11
1044.3881611911
21
252.478690286376
31
0
0
LINE
8
layer0
10
1044.3881611911
20
252.478690286376
30
0
11
1044.3881611911
21
266.335096746927
31
0
0
LINE
8
layer0
10
2080.90583281132
20
-4.01426815846168
30
0
11
2055.90583281132
21
-25.6649032530726
31
0
0
LINE
8
layer0
10
2055.90583281132
20
-25.6649032530726
30
0
11
2055.90583281132
21
-39.5213097136237
31
0
0
LINE
8
layer0
10
2055.90583281132
20
-39.5213097136237
30
0
11
2080.90583281132
21
-17.8706746190127
31
0
0
LINE
8
layer0
10
2080.90583281132
20
-17.8706746190127
30
0
11
2080.90583281132
21
-4.01426815846168
31
0
0
LINE
8
layer0
10
2055.90583281132
20
-39.5213097136237
30
0
11
1044.3881611911
21
252.478690286376
31
0
0
LINE
8
layer0
10
1044.3881611911
20
252.478690286376
30
0
11
1069.3881611911
21
274.129325380987
31
0
0
LINE
8
layer0
10
1069.3881611911
20
274.129325380987
30
0
11
2080.90583281132
21
-17.8706746190127
31
0
0
LINE
8
layer0
10
2080.90583281132
20
-17.8706746190127
30
0
11
2055.90583281132
21
-39.5213097136237
31
0
0
LINE
8
layer0
10
1044.3881611911
20
266.335096746927
30
0
11
2055.90583281132
21
-25.6649032530726
31
0
0
LINE
8
layer0
10
2055.90583281132
20
-25.6649032530726
30
0
11
2080.90583281132
21
-4.01426815846168
31
0
0
LINE
8
layer0
10
2080.90583281132
20
-4.01426815846168
30
0
11
1069.3881611911
21
287.985731841538
31
0
0
LINE
8
layer0
10
1069.3881611911
20
287.985731841538
30
0
11
1044.3881611911
21
266.335096746927
31
0
0
ENDBLK
0
BLOCK
8
layer0
2
PF_OBJECT22
70
0
10
0
20
0
30
0
0
LINE
8
layer0
10
1313.29059054066
20
-552.896769012504
30
0
11
1341.00340346176
21
-560.896769012504
31
0
0
LINE
8
layer0
10
1341.00340346176
20
-560.896769012504
30
0
11
1333.00340346176
21
-567.824972242779
31
0
0
LINE
8
layer0
10
1333.00340346176
20
-567.824972242779
30
0
11
1305.29059054066
21
-559.824972242779
31
0
0
LINE
8
layer0
10
1305.29059054066
20
-559.824972242779
30
0
11
1313.29059054066
21
-552.896769012504
31
0
0
LINE
8
layer0
10
1341.00340346176
20
-90.6449747575536
30
0
11
1313.29059054066
21
-82.6449747575536
31
0
0
LINE
8
layer0
10
1313.29059054066
20
-82.6449747575536
30
0
11
1305.29059054066
21
-89.5731779878291
31
0
0
LINE
8
layer0
10
1305.29059054066
20
-89.5731779878291
30
0
11
1333.00340346176
21
-97.5731779878291
31
0
0
LINE
8
layer0
10
1333.00340346176
20
-97.5731779878291
30
0
11
1341.00340346176
21
-90.6449747575536
31
0
0
LINE
8
layer0
10
1333.00340346176
20
-567.824972242779
30
0
11
1341.00340346176
21
-560.896769012504
31
0
0
LINE
8
layer0
10
1341.00340346176
20
-560.896769012504
30
0
11
1341.00340346176
21
-90.6449747575536
31
0
0
LINE
8
layer0
10
1341.00340346176
20
-90.6449747575536
30
0
11
1333.00340346176
21
-97.5731779878291
31
0
0
LINE
8
layer0
10
1333.00340346176
20
-97.5731779878291
30
0
11
1333.00340346176
21
-567.824972242779
31
0
0
LINE
8
layer0
10
1313.29059054066
20
-552.896769012504
30
0
11
1305.29059054066
21
-559.824972242779
31
0
0
LINE
8
layer0
10
1305.29059054066
20
-559.824972242779
30
0
11
1305.29059054066
21
-89.5731779878291
31
0
0
LINE
8
layer0
10
1305.29059054066
20
-89.5731779878291
30
0
11
1313.29059054066
21
-82.6449747575536
31
0
0
LINE
8
layer0
10
1313.29059054066
20
-82.6449747575536
30
0
11
1313.29059054066
21
-552.896769012504
31
0
0
LINE
8
layer0
10
1305.29059054066
20
-559.824972242779
30
0
11
1333.00340346176
21
-567.824972242779
31
0
0
LINE
8
layer0
10
1333.00340346176
20
-567.824972242779
30
0
11
1333.00340346176
21
-97.5731779878291
31
0
0
LINE
8
layer0
10
1333.00340346176
20
-97.5731779878291
30
0
11
1305.29059054066
21
-89.5731779878291
31
0
0
LINE
8
layer0
10
1305.29059054066
20
-89.5731779878291
30
0
11
1305.29059054066
21
-559.824972242779
31
0
0
LINE
8
layer0
10
1341.00340346176
20
-560.896769012504
30
0
11
1313.29059054066
21
-552.896769012504
31
0
0
LINE
8
layer0
10
1313.29059054066
20
-552.896769012504
30
0
11
1313.29059054066
21
-82.6449747575536
31
0
0
LINE
8
layer0
10
1313.29059054066
20
-82.6449747575536
30
0
11
1341.00340346176
21
-90.6449747575536
31
0
0
LINE
8
layer0
10
1341.00340346176
20
-90.6449747575536
30
0
11
1341.00340346176
21
-560.896769012504
31
0
0
LINE
8
layer0
10
838.888161191099
20
74.5104698086741
30
0
11
1850.40583281132
21
-217.489530191326
31
0
0
LINE
8
layer0
10
1850.40583281132
20
-217.489530191326
30
0
11
1825.40583281132
21
-239.140165285937
31
0
0
LINE
8
layer0
10
1825.40583281132
20
-239.140165285937
30
0
11
813.888161191099
21
52.8598347140631
31
0
0
LINE
8
layer0
10
813.888161191099
20
52.8598347140631
30
0
11
838.888161191099
21
74.5104698086741
31
0
0
LINE
8
layer0
10
1850.40583281132
20
-203.633123730775
30
0
11
838.888161191099
21
88.3668762692251
31
0
0
LINE
8
layer0
10
838.888161191099
20
88.3668762692251
30
0
11
813.888161191099
21
66.7162411746141
31
0
0
LINE
8
layer0
10
813.888161191099
20
66.7162411746141
30
0
11
1825.40583281132
21
-225.283758825386
31
0
0
LINE
8
layer0
10
1825.40583281132
20
-225.283758825386
30
0
11
1850.40583281132
21
-203.633123730775
31
0
0
LINE
8
layer0
10
1825.40583281132
20
-239.140165285937
30
0
11
1850.40583281132
21
-217.489530191326
31
0
0
LINE
8
layer0
10
1850.40583281132
20
-217.489530191326
30
0
11
1850.40583281132
21
-203.633123730775
31
0
0
LINE
8
layer0
10
1850.40583281132
20
-203.633123730775
30
0
11
1825.40583281132
21
-225.283758825386
31
0
0
LINE
8
layer0
10
1825.40583281132
20
-225.283758825386
30
0
11
1825.40583281132
21
-239.140165285937
31
0
0
LINE
8
layer0
10
838.888161191099
20
74.5104698086741
30
0
11
813.888161191099
21
52.8598347140631
31
0
0
LINE
8
layer0
10
813.888161191099
20
52.8598347140631
30
0
11
813.888161191099
21
66.7162411746141
31
0
0
LINE
8
layer0
10
813.888161191099
20
66.7162411746141
30
0
11
838.888161191099
21
88.3668762692251
31
0
0
LINE
8
layer0
10
838.888161191099
20
88.3668762692251
30
0
11
838.888161191099
21
74.5104698086741
31
0
0
LINE
8
layer0
10
813.888161191099
20
52.8598347140631
30
0
11
1825.40583281132
21
-239.140165285937
31
0
0
LINE
8
layer0
10
1825.40583281132
20
-239.140165285937
30
0
11
1825.40583281132
21
-225.283758825386
31
0
0
LINE
8
layer0
10
1825.40583281132
20
-225.283758825386
30
0
11
813.888161191099
21
66.7162411746141
31
0
0
LINE
8
layer0
10
813.888161191099
20
66.7162411746141
30
0
11
813.888161191099
21
52.8598347140631
31
0
0
LINE
8
layer0
10
1850.40583281132
20
-217.489530191326
30
0
11
838.888161191099
21
74.5104698086741
31
0
0
LINE
8
layer0
10
838.888161191099
20
74.5104698086741
30
0
11
838.888161191099
21
88.3668762692251
31
0
0
LINE
8
layer0
10
838.888161191099
20
88.3668762692251
30
0
11
1850.40583281132
21
-203.633123730775
31
0
0
LINE
8
layer0
10
1850.40583281132
20
-203.633123730775
30
0
11
1850.40583281132
21
-217.489530191326
31
0
0
LINE
8
layer0
10
2107.90583281132
20
-478.596189432334
30
0
11
2121.76223927187
21
-482.596189432334
31
0
0
LINE
8
layer0
10
2121.76223927187
20
-482.596189432334
30
0
11
1838.76223927187
21
-727.68137870333
31
0
0
LINE
8
layer0
10
1838.76223927187
20
-727.68137870333
30
0
11
1824.90583281132
21
-723.68137870333
31
0
0
LINE
8
layer0
10
1824.90583281132
20
-723.68137870333
30
0
11
2107.90583281132
21
-478.596189432334
31
0
0
LINE
8
layer0
10
2121.76223927187
20
15.3684177437182
30
0
11
2107.90583281132
21
19.3684177437182
31
0
0
LINE
8
layer0
10
2107.90583281132
20
19.3684177437182
30
0
11
1824.90583281132
21
-225.716771527278
31
0
0
LINE
8
layer0
10
1824.90583281132
20
-225.716771527278
30
0
11
1838.76223927187
21
-229.716771527278
31
0
0
LINE
8
layer0
10
1838.76223927187
20
-229.716771527278
30
0
11
2121.76223927187
21
15.3684177437182
31
0
0
LINE
8
layer0
10
1838.76223927187
20
-727.68137870333
30
0
11
2121.76223927187
21
-482.596189432334
31
0
0
LINE
8
layer0
10
2121.76223927187
20
-482.596189432334
30
0
11
2121.76223927187
21
15.3684177437182
31
0
0
LINE
8
layer0
10
2121.76223927187
20
15.3684177437182
30
0
11
1838.76223927187
21
-229.716771527278
31
0
0
LINE
8
layer0
10
1838.76223927187
20
-229.716771527278
30
0
11
1838.76223927187
21
-727.68137870333
31
0
0
LINE
8
layer0
10
2107.90583281132
20
-478.596189432334
30
0
11
1824.90583281132
21
-723.68137870333
31
0
0
LINE
8
layer0
10
1824.90583281132
20
-723.68137870333
30
0
11
1824.90583281132
21
-225.716771527278
31
0
0
LINE
8
layer0
10
1824.90583281132
20
-225.716771527278
30
0
11
2107.90583281132
21
19.3684177437182
31
0
0
LINE
8
layer0
10
2107.90583281132
20
19.3684177437182
30
0
11
2107.90583281132
21
-478.596189432334
31
0
0
LINE
8
layer0
10
1824.90583281132
20
-723.68137870333
30
0
11
1838.76223927187
21
-727.68137870333
31
0
0
LINE
8
layer0
10
1838.76223927187
20
-727.68137870333
30
0
11
1838.76223927187
21
-229.716771527278
31
0
0
LINE
8
layer0
10
1838.76223927187
20
-229.716771527278
30
0
11
1824.90583281132
21
-225.716771527278
31
0
0
LINE
8
layer0
10
1824.90583281132
20
-225.716771527278
30
0
11
1824.90583281132
21
-723.68137870333
31
0
0
LINE
8
layer0
10
2121.76223927187
20
-482.596189432334
30
0
11
2107.90583281132
21
-478.596189432334
31
0
0
LINE
8
layer0
10
2107.90583281132
20
-478.596189432334
30
0
11
2107.90583281132
21
19.3684177437182
31
0
0
LINE
8
layer0
10
2107.90583281132
20
19.3684177437182
30
0
11
2121.76223927187
21
15.3684177437182
31
0
0
LINE
8
layer0
10
2121.76223927187
20
15.3684177437182
30
0
11
2121.76223927187
21
-482.596189432334
31
0
0
LINE
8
layer0
10
1082.53175473055
20
-182.596189432334
30
0
11
1096.3881611911
21
-186.596189432334
31
0
0
LINE
8
layer0
10
1096.3881611911
20
-186.596189432334
30
0
11
813.388161191099
21
-431.68137870333
31
0
0
LINE
8
layer0
10
813.388161191099
20
-431.68137870333
30
0
11
799.531754730548
21
-427.68137870333
31
0
0
LINE
8
layer0
10
799.531754730548
20
-427.68137870333
30
0
11
1082.53175473055
21
-182.596189432334
31
0
0
LINE
8
layer0
10
1096.3881611911
20
311.368417743718
30
0
11
1082.53175473055
21
315.368417743718
31
0
0
LINE
8
layer0
10
1082.53175473055
20
315.368417743718
30
0
11
799.531754730548
21
70.283228472722
31
0
0
LINE
8
layer0
10
799.531754730548
20
70.283228472722
30
0
11
813.388161191099
21
66.283228472722
31
0
0
LINE
8
layer0
10
813.388161191099
20
66.283228472722
30
0
11
1096.3881611911
21
311.368417743718
31
0
0
LINE
8
layer0
10
813.388161191099
20
-431.68137870333
30
0
11
1096.3881611911
21
-186.596189432334
31
0
0
LINE
8
layer0
10
1096.3881611911
20
-186.596189432334
30
0
11
1096.3881611911
21
311.368417743718
31
0
0
LINE
8
layer0
10
1096.3881611911
20
311.368417743718
30
0
11
813.388161191099
21
66.283228472722
31
0
0
LINE
8
layer0
10
813.388161191099
20
66.283228472722
30
0
11
813.388161191099
21
-431.68137870333
31
0
0
LINE
8
layer0
10
1082.53175473055
20
-182.596189432334
30
0
11
799.531754730548
21
-427.68137870333
31
0
0
LINE
8
layer0
10
799.531754730548
20
-427.68137870333
30
0
11
799.531754730548
21
70.283228472722
31
0
0
LINE
8
layer0
10
799.531754730548
20
70.283228472722
30
0
11
1082.53175473055
21
315.368417743718
31
0
0
LINE
8
layer0
10
1082.53175473055
20
315.368417743718
30
0
11
1082.53175473055
21
-182.596189432334
31
0
0
LINE
8
layer0
10
799.531754730548
20
-427.68137870333
30
0
11
813.388161191099
21
-431.68137870333
31
0
0
LINE
8
layer0
10
813.388161191099
20
-431.68137870333
30
0
11
813.388161191099
21
66.283228472722
31
0
0
LINE
8
layer0
10
813.388161191099
20
66.283228472722
30
0
11
799.531754730548
21
70.283228472722
31
0
0
LINE
8
layer0
10
799.531754730548
20
70.283228472722
30
0
11
799.531754730548
21
-427.68137870333
31
0
0
LINE
8
layer0
10
1096.3881611911
20
-186.596189432334
30
0
11
1082.53175473055
21
-182.596189432334
31
0
0
LINE
8
layer0
10
1082.53175473055
20
-182.596189432334
30
0
11
1082.53175473055
21
315.368417743718
31
0
0
LINE
8
layer0
10
1082.53175473055
20
315.368417743718
30
0
11
1096.3881611911
21
311.368417743718
31
0
0
LINE
8
layer0
10
1096.3881611911
20
311.368417743718
30
0
11
1096.3881611911
21
-186.596189432334
31
0
0
ENDBLK
0
BLOCK
8
layer0
2
PF_OBJECT23
70
0
10
0
20
0
30
0
0
LINE
8
layer0
10
1236.4338791443
20
-128.62630588905
30
0
11
1277.57459397946
21
-128.62630588905
31
0
0
LINE
8
layer0
10
1277.57459397946
20
-128.62630588905
30
0
11
1277.57459397946
21
-119.966051851205
31
0
0
LINE
8
layer0
10
1277.57459397946
20
-119.966051851205
30
0
11
1236.4338791443
21
-119.966051851205
31
0
0
LINE
8
layer0
10
1236.4338791443
20
-119.966051851205
30
0
11
1236.4338791443
21
-128.62630588905
31
0
0
LINE
8
layer0
10
1228.06871610692
20
-117.551237285483
30
0
11
1228.06871610692
21
-126.211491323327
31
0
0
LINE
8
layer0
10
1228.06871610692
20
-126.211491323327
30
0
11
1236.4338791443
21
-128.62630588905
31
0
0
LINE
8
layer0
10
1236.4338791443
20
-128.62630588905
30
0
11
1236.4338791443
21
-119.966051851205
31
0
0
LINE
8
layer0
10
1236.4338791443
20
-119.966051851205
30
0
11
1228.06871610692
21
-117.551237285483
31
0
0
LINE
8
layer0
10
1178.15647345338
20
-111.803067957386
30
0
11
1228.06871610692
21
-126.211491323327
31
0
0
LINE
8
layer0
10
1228.06871610692
20
-126.211491323327
30
0
11
1228.06871610692
21
-117.551237285483
31
0
0
LINE
8
layer0
10
1228.06871610692
20
-117.551237285483
30
0
11
1178.15647345338
21
-103.142813919541
31
0
0
LINE
8
layer0
10
1178.15647345338
20
-103.142813919541
30
0
11
1178.15647345338
21
-111.803067957386
31
0
0
LINE
8
layer0
10
1173.32684432193
20
-98.9602324008523
30
0
11
1173.32684432193
21
-107.620486438697
31
0
0
LINE
8
layer0
10
1173.32684432193
20
-107.620486438697
30
0
11
1178.15647345338
21
-111.803067957386
31
0
0
LINE
8
layer0
10
1178.15647345338
20
-111.803067957386
30
0
11
1178.15647345338
21
-103.142813919541
31
0
0
LINE
8
layer0
10
1178.15647345338
20
-103.142813919541
30
0
11
1173.32684432193
21
-98.9602324008523
31
0
0
LINE
8
layer0
10
1157.5861160358
20
-85.3283618309924
30
0
11
1157.5861160358
21
-93.9886158688368
31
0
0
LINE
8
layer0
10
1157.5861160358
20
-93.9886158688368
30
0
11
1173.32684432193
21
-107.620486438697
31
0
0
LINE
8
layer0
10
1173.32684432193
20
-107.620486438697
30
0
11
1173.32684432193
21
-98.9602324008523
31
0
0
LINE
8
layer0
10
1173.32684432193
20
-98.9602324008523
30
0
11
1157.5861160358
21
-85.3283618309924
31
0
0
LINE
8
layer0
10
1228.06871610692
20
-126.211491323327
30
0
11
1269.20943094208
21
-126.211491323327
31
0
0
LINE
8
layer0
10
1269.20943094208
20
-126.211491323327
30
0
11
1277.57459397946
21
-128.62630588905
31
0
0
LINE
8
layer0
10
1277.57459397946
20
-128.62630588905
30
0
11
1236.4338791443
21
-128.62630588905
31
0
0
LINE
8
layer0
10
1236.4338791443
20
-128.62630588905
30
0
11
1228.06871610692
21
-126.211491323327
31
0
0
LINE
8
layer0
10
1173.32684432193
20
-107.620486438697
30
0
11
1237.72797436982
21
-126.211491323327
31
0
0
LINE
8
layer0
10
1237.72797436982
20
-126.211491323327
30
0
11
1228.06871610692
21
-126.211491323327
31
0
0
LINE
8
layer0
10
1228.06871610692
20
-126.211491323327
30
0
11
1178.15647345338
21
-111.803067957386
31
0
0
LINE
8
layer0
10
1178.15647345338
20
-111.803067957386
30
0
11
1173.32684432193
21
-107.620486438697
31
0
0
LINE
8
layer0
10
1157.5861160358
20
-93.9886158688368
30
0
11
1165.95127907318
21
-96.4034304345595
31
0
0
LINE
8
layer0
10
1165.95127907318
20
-96.4034304345595
30
0
11
1181.69200735931
21
-110.035301004419
31
0
0
LINE
8
layer0
10
1181.69200735931
20
-110.035301004419
30
0
11
1173.32684432193
21
-107.620486438697
31
0
0
LINE
8
layer0
10
1173.32684432193
20
-107.620486438697
30
0
11
1157.5861160358
21
-93.9886158688368
31
0
0
LINE
8
layer0
10
1269.20943094208
20
-117.551237285482
30
0
11
1269.20943094208
21
-126.211491323327
31
0
0
LINE
8
layer0
10
1269.20943094208
20
-126.211491323327
30
0
11
1237.72797436982
21
-126.211491323327
31
0
0
LINE
8
layer0
10
1237.72797436982
20
-126.211491323327
30
0
11
1237.72797436982
21
-117.551237285483
31
0
0
LINE
8
layer0
10
1237.72797436982
20
-117.551237285483
30
0
11
1269.20943094208
21
-117.551237285482
31
0
0
LINE
8
layer0
10
1237.72797436982
20
-126.211491323327
30
0
11
1181.69200735931
21
-110.035301004419
31
0
0
LINE
8
layer0
10
1181.69200735931
20
-110.035301004419
30
0
11
1181.69200735931
21
-101.375046966575
31
0
0
LINE
8
layer0
10
1181.69200735931
20
-101.375046966575
30
0
11
1237.72797436982
21
-117.551237285483
31
0
0
LINE
8
layer0
10
1237.72797436982
20
-117.551237285483
30
0
11
1237.72797436982
21
-126.211491323327
31
0
0
LINE
8
layer0
10
1181.69200735931
20
-110.035301004419
30
0
11
1165.95127907318
21
-96.4034304345595
31
0
0
LINE
8
layer0
10
1165.95127907318
20
-96.4034304345595
30
0
11
1165.95127907318
21
-87.743176396715
31
0
0
LINE
8
layer0
10
1165.95127907318
20
-87.743176396715
30
0
11
1181.69200735931
21
-101.375046966575
31
0
0
LINE
8
layer0
10
1181.69200735931
20
-101.375046966575
30
0
11
1181.69200735931
21
-110.035301004419
31
0
0
LINE
8
layer0
10
1269.20943094208
20
-126.211491323327
30
0
11
1269.20943094208
21
-117.551237285482
31
0
0
LINE
8
layer0
10
1269.20943094208
20
-117.551237285482
30
0
11
1277.57459397946
21
-119.966051851205
31
0
0
LINE
8
layer0
10
1277.57459397946
20
-119.966051851205
30
0
11
1277.57459397946
21
-128.62630588905
31
0
0
LINE
8
layer0
10
1277.57459397946
20
-128.62630588905
30
0
11
1269.20943094208
21
-126.211491323327
31
0
0
LINE
8
layer0
10
1157.5861160358
20
-85.3283618309924
30
0
11
1165.95127907318
21
-87.743176396715
31
0
0
LINE
8
layer0
10
1165.95127907318
20
-87.743176396715
30
0
11
1165.95127907318
21
-96.4034304345595
31
0
0
LINE
8
layer0
10
1165.95127907318
20
-96.4034304345595
30
0
11
1157.5861160358
21
-93.9886158688368
31
0
0
LINE
8
layer0
10
1157.5861160358
20
-93.9886158688368
30
0
11
1157.5861160358
21
-85.3283618309924
31
0
0
LINE
8
layer0
10
1277.57459397946
20
-119.966051851205
30
0
11
1269.20943094208
21
-117.551237285482
31
0
0
LINE
8
layer0
10
1269.20943094208
20
-117.551237285482
30
0
11
1228.06871610692
21
-117.551237285483
31
0
0
LINE
8
layer0
10
1228.06871610692
20
-117.551237285483
30
0
11
1236.4338791443
21
-119.966051851205
31
0
0
LINE
8
layer0
10
1236.4338791443
20
-119.966051851205
30
0
11
1277.57459397946
21
-119.966051851205
31
0
0
LINE
8
layer0
10
1228.06871610692
20
-117.551237285483
30
0
11
1237.72797436982
21
-117.551237285483
31
0
0
LINE
8
layer0
10
1237.72797436982
20
-117.551237285483
30
0
11
1173.32684432193
21
-98.9602324008523
31
0
0
LINE
8
layer0
10
1173.32684432193
20
-98.9602324008523
30
0
11
1178.15647345338
21
-103.142813919541
31
0
0
LINE
8
layer0
10
1178.15647345338
20
-103.142813919541
30
0
11
1228.06871610692
21
-117.551237285483
31
0
0
LINE
8
layer0
10
1173.32684432193
20
-98.9602324008523
30
0
11
1181.69200735931
21
-101.375046966575
31
0
0
LINE
8
layer0
10
1181.69200735931
20
-101.375046966575
30
0
11
1165.95127907318
21
-87.743176396715
31
0
0
LINE
8
layer0
10
1165.95127907318
20
-87.743176396715
30
0
11
1157.5861160358
21
-85.3283618309924
31
0
0
LINE
8
layer0
10
1157.5861160358
20
-85.3283618309924
30
0
11
1173.32684432193
21
-98.9602324008523
31
0
0
ENDBLK
0
BLOCK
8
layer0
2
PF_OBJECT24
70
0
10
0
20
0
30
0
0
LINE
8
layer0
10
1315.04892078986
20
-575.632340597654
30
0
11
800.629830941902
21
-427.132340597654
31
0
0
LINE
8
layer0
10
800.629830941902
20
-427.132340597654
30
0
11
800.629830941902
21
62.1720125405542
31
0
0
LINE
8
layer0
10
800.629830941902
20
62.1720125405542
30
0
11
1315.04892078986
21
-86.3279874594458
31
0
0
LINE
8
layer0
10
1315.04892078986
20
-86.3279874594458
30
0
11
1315.04892078986
21
-575.632340597654
31
0
0
LINE
8
layer0
10
790.629830941902
20
-435.792594635498
30
0
11
1305.04892078986
21
-584.292594635498
31
0
0
LINE
8
layer0
10
1305.04892078986
20
-584.292594635498
30
0
11
1305.04892078986
21
-94.9882414972901
31
0
0
LINE
8
layer0
10
1305.04892078986
20
-94.9882414972901
30
0
11
790.629830941902
21
53.5117585027098
31
0
0
LINE
8
layer0
10
790.629830941902
20
53.5117585027098
30
0
11
790.629830941902
21
-435.792594635498
31
0
0
LINE
8
layer0
10
800.629830941902
20
-427.132340597654
30
0
11
790.629830941902
21
-435.792594635498
31
0
0
LINE
8
layer0
10
790.629830941902
20
-435.792594635498
30
0
11
790.629830941902
21
53.5117585027098
31
0
0
LINE
8
layer0
10
790.629830941902
20
53.5117585027098
30
0
11
800.629830941902
21
62.1720125405542
31
0
0
LINE
8
layer0
10
800.629830941902
20
62.1720125405542
30
0
11
800.629830941902
21
-427.132340597654
31
0
0
LINE
8
layer0
10
1305.04892078986
20
-584.292594635498
30
0
11
1315.04892078986
21
-575.632340597654
31
0
0
LINE
8
layer0
10
1315.04892078986
20
-575.632340597654
30
0
11
1315.04892078986
21
-86.3279874594458
31
0
0
LINE
8
layer0
10
1315.04892078986
20
-86.3279874594458
30
0
11
1305.04892078986
21
-94.9882414972901
31
0
0
LINE
8
layer0
10
1305.04892078986
20
-94.9882414972901
30
0
11
1305.04892078986
21
-584.292594635498
31
0
0
LINE
8
layer0
10
1315.04892078986
20
-86.3279874594458
30
0
11
800.629830941902
21
62.1720125405542
31
0
0
LINE
8
layer0
10
800.629830941902
20
62.1720125405542
30
0
11
790.629830941902
21
53.5117585027098
31
0
0
LINE
8
layer0
10
790.629830941902
20
53.5117585027098
30
0
11
1305.04892078986
21
-94.9882414972901
31
0
0
LINE
8
layer0
10
1305.04892078986
20
-94.9882414972901
30
0
11
1315.04892078986
21
-86.3279874594458
31
0
0
LINE
8
layer0
10
800.629830941902
20
-427.132340597654
30
0
11
1315.04892078986
21
-575.632340597654
31
0
0
LINE
8
layer0
10
1315.04892078986
20
-575.632340597654
30
0
11
1305.04892078986
21
-584.292594635498
31
0
0
LINE
8
layer0
10
1305.04892078986
20
-584.292594635498
30
0
11
790.629830941902
21
-435.792594635498
31
0
0
LINE
8
layer0
10
790.629830941902
20
-435.792594635498
30
0
11
800.629830941902
21
-427.132340597654
31
0
0
ENDBLK
0
BLOCK
8
layer0
2
PF_OBJECT25
70
0
10
0
20
0
30
0
0
LINE
8
layer0
10
1416.56716313147
20
-180.62630588905
30
0
11
1457.70787796662
21
-180.62630588905
31
0
0
LINE
8
layer0
10
1457.70787796662
20
-180.62630588905
30
0
11
1457.70787796662
21
-171.966051851205
31
0
0
LINE
8
layer0
10
1457.70787796662
20
-171.966051851205
30
0
11
1416.56716313147
21
-171.966051851205
31
0
0
LINE
8
layer0
10
1416.56716313147
20
-171.966051851205
30
0
11
1416.56716313147
21
-180.62630588905
31
0
0
LINE
8
layer0
10
1408.20200009409
20
-169.551237285483
30
0
11
1408.20200009409
21
-178.211491323327
31
0
0
LINE
8
layer0
10
1408.20200009409
20
-178.211491323327
30
0
11
1416.56716313147
21
-180.62630588905
31
0
0
LINE
8
layer0
10
1416.56716313147
20
-180.62630588905
30
0
11
1416.56716313147
21
-171.966051851205
31
0
0
LINE
8
layer0
10
1416.56716313147
20
-171.966051851205
30
0
11
1408.20200009409
21
-169.551237285483
31
0
0
LINE
8
layer0
10
1358.28975744054
20
-163.803067957386
30
0
11
1408.20200009409
21
-178.211491323327
31
0
0
LINE
8
layer0
10
1408.20200009409
20
-178.211491323327
30
0
11
1408.20200009409
21
-169.551237285483
31
0
0
LINE
8
layer0
10
1408.20200009409
20
-169.551237285483
30
0
11
1358.28975744054
21
-155.142813919541
31
0
0
LINE
8
layer0
10
1358.28975744054
20
-155.142813919541
30
0
11
1358.28975744054
21
-163.803067957386
31
0
0
LINE
8
layer0
10
1353.4601283091
20
-150.960232400852
30
0
11
1353.4601283091
21
-159.620486438697
31
0
0
LINE
8
layer0
10
1353.4601283091
20
-159.620486438697
30
0
11
1358.28975744054
21
-163.803067957386
31
0
0
LINE
8
layer0
10
1358.28975744054
20
-163.803067957386
30
0
11
1358.28975744054
21
-155.142813919541
31
0
0
LINE
8
layer0
10
1358.28975744054
20
-155.142813919541
30
0
11
1353.4601283091
21
-150.960232400852
31
0
0
LINE
8
layer0
10
1337.71940002296
20
-137.328361830992
30
0
11
1337.71940002296
21
-145.988615868837
31
0
0
LINE
8
layer0
10
1337.71940002296
20
-145.988615868837
30
0
11
1353.4601283091
21
-159.620486438697
31
0
0
LINE
8
layer0
10
1353.4601283091
20
-159.620486438697
30
0
11
1353.4601283091
21
-150.960232400852
31
0
0
LINE
8
layer0
10
1353.4601283091
20
-150.960232400852
30
0
11
1337.71940002296
21
-137.328361830992
31
0
0
LINE
8
layer0
10
1408.20200009409
20
-178.211491323327
30
0
11
1449.34271492925
21
-178.211491323327
31
0
0
LINE
8
layer0
10
1449.34271492925
20
-178.211491323327
30
0
11
1457.70787796662
21
-180.62630588905
31
0
0
LINE
8
layer0
10
1457.70787796662
20
-180.62630588905
30
0
11
1416.56716313147
21
-180.62630588905
31
0
0
LINE
8
layer0
10
1416.56716313147
20
-180.62630588905
30
0
11
1408.20200009409
21
-178.211491323327
31
0
0
LINE
8
layer0
10
1353.4601283091
20
-159.620486438697
30
0
11
1417.86125835698
21
-178.211491323327
31
0
0
LINE
8
layer0
10
1417.86125835698
20
-178.211491323327
30
0
11
1408.20200009409
21
-178.211491323327
31
0
0
LINE
8
layer0
10
1408.20200009409
20
-178.211491323327
30
0
11
1358.28975744054
21
-163.803067957386
31
0
0
LINE
8
layer0
10
1358.28975744054
20
-163.803067957386
30
0
11
1353.4601283091
21
-159.620486438697
31
0
0
LINE
8
layer0
10
1337.71940002296
20
-145.988615868837
30
0
11
1346.08456306034
21
-148.403430434559
31
0
0
LINE
8
layer0
10
1346.08456306034
20
-148.403430434559
30
0
11
1361.82529134647
21
-162.035301004419
31
0
0
LINE
8
layer0
10
1361.82529134647
20
-162.035301004419
30
0
11
1353.4601283091
21
-159.620486438697
31
0
0
LINE
8
layer0
10
1353.4601283091
20
-159.620486438697
30
0
11
1337.71940002296
21
-145.988615868837
31
0
0
LINE
8
layer0
10
1449.34271492925
20
-169.551237285482
30
0
11
1449.34271492925
21
-178.211491323327
31
0
0
LINE
8
layer0
10
1449.34271492925
20
-178.211491323327
30
0
11
1417.86125835698
21
-178.211491323327
31
0
0
LINE
8
layer0
10
1417.86125835698
20
-178.211491323327
30
0
11
1417.86125835698
21
-169.551237285483
31
0
0
LINE
8
layer0
10
1417.86125835698
20
-169.551237285483
30
0
11
1449.34271492925
21
-169.551237285482
31
0
0
LINE
8
layer0
10
1417.86125835698
20
-178.211491323327
30
0
11
1361.82529134647
21
-162.035301004419
31
0
0
LINE
8
layer0
10
1361.82529134647
20
-162.035301004419
30
0
11
1361.82529134647
21
-153.375046966575
31
0
0
LINE
8
layer0
10
1361.82529134647
20
-153.375046966575
30
0
11
1417.86125835698
21
-169.551237285483
31
0
0
LINE
8
layer0
10
1417.86125835698
20
-169.551237285483
30
0
11
1417.86125835698
21
-178.211491323327
31
0
0
LINE
8
layer0
10
1361.82529134647
20
-162.035301004419
30
0
11
1346.08456306034
21
-148.403430434559
31
0
0
LINE
8
layer0
10
1346.08456306034
20
-148.403430434559
30
0
11
1346.08456306034
21
-139.743176396715
31
0
0
LINE
8
layer0
10
1346.08456306034
20
-139.743176396715
30
0
11
1361.82529134647
21
-153.375046966575
31
0
0
LINE
8
layer0
10
1361.82529134647
20
-153.375046966575
30
0
11
1361.82529134647
21
-162.035301004419
31
0
0
LINE
8
layer0
10
1449.34271492925
20
-178.211491323327
30
0
11
1449.34271492925
21
-169.551237285482
31
0
0
LINE
8
layer0
10
1449.34271492925
20
-169.551237285482
30
0
11
1457.70787796662
21
-171.966051851205
31
0
0
LINE
8
layer0
10
1457.70787796662
20
-171.966051851205
30
0
11
1457.70787796662
21
-180.62630588905
31
0
0
LINE
8
layer0
10
1457.70787796662
20
-180.62630588905
30
0
11
1449.34271492925
21
-178.211491323327
31
0
0
LINE
8
layer0
10
1337.71940002296
20
-137.328361830992
30
0
11
1346.08456306034
21
-139.743176396715
31
0
0
LINE
8
layer0
10
1346.08456306034
20
-139.743176396715
30
0
11
1346.08456306034
21
-148.403430434559
31
0
0
LINE
8
layer0
10
1346.08456306034
20
-148.403430434559
30
0
11
1337.71940002296
21
-145.988615868837
31
0
0
LINE
8
layer0
10
1337.71940002296
20
-145.988615868837
30
0
11
1337.71940002296
21
-137.328361830992
31
0
0
LINE
8
layer0
10
1457.70787796662
20
-171.966051851205
30
0
11
1449.34271492925
21
-169.551237285482
31
0
0
LINE
8
layer0
10
1449.34271492925
20
-169.551237285482
30
0
11
1408.20200009409
21
-169.551237285483
31
0
0
LINE
8
layer0
10
1408.20200009409
20
-169.551237285483
30
0
11
1416.56716313147
21
-171.966051851205
31
0
0
LINE
8
layer0
10
1416.56716313147
20
-171.966051851205
30
0
11
1457.70787796662
21
-171.966051851205
31
0
0
LINE
8
layer0
10
1408.20200009409
20
-169.551237285483
30
0
11
1417.86125835698
21
-169.551237285483
31
0
0
LINE
8
layer0
10
1417.86125835698
20
-169.551237285483
30
0
11
1353.4601283091
21
-150.960232400852
31
0
0
LINE
8
layer0
10
1353.4601283091
20
-150.960232400852
30
0
11
1358.28975744054
21
-155.142813919541
31
0
0
LINE
8
layer0
10
1358.28975744054
20
-155.142813919541
30
0
11
1408.20200009409
21
-169.551237285483
31
0
0
LINE
8
layer0
10
1353.4601283091
20
-150.960232400852
30
0
11
1361.82529134647
21
-153.375046966575
31
0
0
LINE
8
layer0
10
1361.82529134647
20
-153.375046966575
30
0
11
1346.08456306034
21
-139.743176396715
31
0
0
LINE
8
layer0
10
1346.08456306034
20
-139.743176396715
30
0
11
1337.71940002296
21
-137.328361830992
31
0
0
LINE
8
layer0
10
1337.71940002296
20
-137.328361830992
30
0
11
1353.4601283091
21
-150.960232400852
31
0
0
ENDBLK
0
BLOCK
8
layer0
2
PF_OBJECT26
70
0
10
0
20
0
30
0
0
LINE
8
layer0
10
1834.66416306052
20
-725.632340597654
30
0
11
1320.24507321256
21
-577.132340597654
31
0
0
LINE
8
layer0
10
1320.24507321256
20
-577.132340597654
30
0
11
1320.24507321256
21
-87.8279874594458
31
0
0
LINE
8
layer0
10
1320.24507321256
20
-87.8279874594458
30
0
11
1834.66416306052
21
-236.327987459446
31
0
0
LINE
8
layer0
10
1834.66416306052
20
-236.327987459446
30
0
11
1834.66416306052
21
-725.632340597654
31
0
0
LINE
8
layer0
10
1310.24507321256
20
-585.792594635498
30
0
11
1824.66416306052
21
-734.292594635498
31
0
0
LINE
8
layer0
10
1824.66416306052
20
-734.292594635498
30
0
11
1824.66416306052
21
-244.98824149729
31
0
0
LINE
8
layer0
10
1824.66416306052
20
-244.98824149729
30
0
11
1310.24507321256
21
-96.4882414972901
31
0
0
LINE
8
layer0
10
1310.24507321256
20
-96.4882414972901
30
0
11
1310.24507321256
21
-585.792594635498
31
0
0
LINE
8
layer0
10
1320.24507321256
20
-577.132340597654
30
0
11
1310.24507321256
21
-585.792594635498
31
0
0
LINE
8
layer0
10
1310.24507321256
20
-585.792594635498
30
0
11
1310.24507321256
21
-96.4882414972901
31
0
0
LINE
8
layer0
10
1310.24507321256
20
-96.4882414972901
30
0
11
1320.24507321256
21
-87.8279874594458
31
0
0
LINE
8
layer0
10
1320.24507321256
20
-87.8279874594458
30
0
11
1320.24507321256
21
-577.132340597654
31
0
0
LINE
8
layer0
10
1824.66416306052
20
-734.292594635498
30
0
11
1834.66416306052
21
-725.632340597654
31
0
0
LINE
8
layer0
10
1834.66416306052
20
-725.632340597654
30
0
11
1834.66416306052
21
-236.327987459446
31
0
0
LINE
8
layer0
10
1834.66416306052
20
-236.327987459446
30
0
11
1824.66416306052
21
-244.98824149729
31
0
0
LINE
8
layer0
10
1824.66416306052
20
-244.98824149729
30
0
11
1824.66416306052
21
-734.292594635498
31
0
0
LINE
8
layer0
10
1834.66416306052
20
-236.327987459446
30
0
11
1320.24507321256
21
-87.8279874594458
31
0
0
LINE
8
layer0
10
1320.24507321256
20
-87.8279874594458
30
0
11
1310.24507321256
21
-96.4882414972901
31
0
0
LINE
8
layer0
10
1310.24507321256
20
-96.4882414972901
30
0
11
1824.66416306052
21
-244.98824149729
31
0
0
LINE
8
layer0
10
1824.66416306052
20
-244.98824149729
30
0
11
1834.66416306052
21
-236.327987459446
31
0
0
LINE
8
layer0
10
1320.24507321256
20
-577.132340597654
30
0
11
1834.66416306052
21
-725.632340597654
31
0
0
LINE
8
layer0
10
1834.66416306052
20
-725.632340597654
30
0
11
1824.66416306052
21
-734.292594635498
31
0
0
LINE
8
layer0
10
1824.66416306052
20
-734.292594635498
30
0
11
1310.24507321256
21
-585.792594635498
31
0
0
LINE
8
layer0
10
1310.24507321256
20
-585.792594635498
30
0
11
1320.24507321256
21
-577.132340597654
31
0
0
ENDBLK
0
BLOCK
8
layer0
2
PF_OBJECT27
70
0
10
0
20
0
30
0
0
LINE
8
layer0
10
1110.47404107115
20
-378.301270189222
30
0
11
1075.83302491977
21
-368.301270189222
31
0
0
LINE
8
layer0
10
1075.83302491977
20
-368.301270189222
30
0
11
1075.83302491977
21
-238.397459621556
31
0
0
LINE
8
layer0
10
1075.83302491977
20
-238.397459621556
30
0
11
1110.47404107115
21
-248.397459621556
31
0
0
LINE
8
layer0
10
1110.47404107115
20
-248.397459621556
30
0
11
1110.47404107115
21
-378.301270189222
31
0
0
LINE
8
layer0
10
1055.83302491977
20
-385.621778264911
30
0
11
1090.47404107115
21
-395.621778264911
31
0
0
LINE
8
layer0
10
1090.47404107115
20
-395.621778264911
30
0
11
1090.47404107115
21
-265.717967697245
31
0
0
LINE
8
layer0
10
1090.47404107115
20
-265.717967697245
30
0
11
1055.83302491977
21
-255.717967697245
31
0
0
LINE
8
layer0
10
1055.83302491977
20
-255.717967697245
30
0
11
1055.83302491977
21
-385.621778264911
31
0
0
LINE
8
layer0
10
1075.83302491977
20
-368.301270189222
30
0
11
1055.83302491977
21
-385.621778264911
31
0
0
LINE
8
layer0
10
1055.83302491977
20
-385.621778264911
30
0
11
1055.83302491977
21
-255.717967697245
31
0
0
LINE
8
layer0
10
1055.83302491977
20
-255.717967697245
30
0
11
1075.83302491977
21
-238.397459621556
31
0
0
LINE
8
layer0
10
1075.83302491977
20
-238.397459621556
30
0
11
1075.83302491977
21
-368.301270189222
31
0
0
LINE
8
layer0
10
1090.47404107115
20
-395.621778264911
30
0
11
1110.47404107115
21
-378.301270189222
31
0
0
LINE
8
layer0
10
1110.47404107115
20
-378.301270189222
30
0
11
1110.47404107115
21
-248.397459621556
31
0
0
LINE
8
layer0
10
1110.47404107115
20
-248.397459621556
30
0
11
1090.47404107115
21
-265.717967697245
31
0
0
LINE
8
layer0
10
1090.47404107115
20
-265.717967697245
30
0
11
1090.47404107115
21
-395.621778264911
31
0
0
LINE
8
layer0
10
1110.47404107115
20
-248.397459621556
30
0
11
1075.83302491977
21
-238.397459621556
31
0
0
LINE
8
layer0
10
1075.83302491977
20
-238.397459621556
30
0
11
1055.83302491977
21
-255.717967697245
31
0
0
LINE
8
layer0
10
1055.83302491977
20
-255.717967697245
30
0
11
1090.47404107115
21
-265.717967697245
31
0
0
LINE
8
layer0
10
1090.47404107115
20
-265.717967697245
30
0
11
1110.47404107115
21
-248.397459621556
31
0
0
LINE
8
layer0
10
1075.83302491977
20
-368.301270189222
30
0
11
1110.47404107115
21
-378.301270189222
31
0
0
LINE
8
layer0
10
1110.47404107115
20
-378.301270189222
30
0
11
1090.47404107115
21
-395.621778264911
31
0
0
LINE
8
layer0
10
1090.47404107115
20
-395.621778264911
30
0
11
1055.83302491977
21
-385.621778264911
31
0
0
LINE
8
layer0
10
1055.83302491977
20
-385.621778264911
30
0
11
1075.83302491977
21
-368.301270189222
31
0
0
ENDBLK
0
BLOCK
8
layer0
2
PF_OBJECT28
70
0
10
0
20
0
30
0
0
LINE
8
layer0
10
952.474041071148
20
-515.133283987163
30
0
11
917.83302491977
21
-505.133283987163
31
0
0
LINE
8
layer0
10
917.83302491977
20
-505.133283987163
30
0
11
917.83302491977
21
-375.229473419497
31
0
0
LINE
8
layer0
10
917.83302491977
20
-375.229473419497
30
0
11
952.474041071148
21
-385.229473419497
31
0
0
LINE
8
layer0
10
952.474041071148
20
-385.229473419497
30
0
11
952.474041071148
21
-515.133283987163
31
0
0
LINE
8
layer0
10
897.83302491977
20
-522.453792062852
30
0
11
932.474041071148
21
-532.453792062852
31
0
0
LINE
8
layer0
10
932.474041071148
20
-532.453792062852
30
0
11
932.474041071148
21
-402.549981495186
31
0
0
LINE
8
layer0
10
932.474041071148
20
-402.549981495186
30
0
11
897.83302491977
21
-392.549981495186
31
0
0
LINE
8
layer0
10
897.83302491977
20
-392.549981495186
30
0
11
897.83302491977
21
-522.453792062852
31
0
0
LINE
8
layer0
10
917.83302491977
20
-505.133283987163
30
0
11
897.83302491977
21
-522.453792062852
31
0
0
LINE
8
layer0
10
897.83302491977
20
-522.453792062852
30
0
11
897.83302491977
21
-392.549981495186
31
0
0
LINE
8
layer0
10
897.83302491977
20
-392.549981495186
30
0
11
917.83302491977
21
-375.229473419497
31
0
0
LINE
8
layer0
10
917.83302491977
20
-375.229473419497
30
0
11
917.83302491977
21
-505.133283987163
31
0
0
LINE
8
layer0
10
932.474041071148
20
-532.453792062852
30
0
11
952.474041071148
21
-515.133283987163
31
0
0
LINE
8
layer0
10
952.474041071148
20
-515.133283987163
30
0
11
952.474041071148
21
-385.229473419497
31
0
0
LINE
8
layer0
10
952.474041071148
20
-385.229473419497
30
0
11
932.474041071148
21
-402.549981495186
31
0
0
LINE
8
layer0
10
932.474041071148
20
-402.549981495186
30
0
11
932.474041071148
21
-532.453792062852
31
0
0
LINE
8
layer0
10
952.474041071148
20
-385.229473419497
30
0
11
917.83302491977
21
-375.229473419497
31
0
0
LINE
8
layer0
10
917.83302491977
20
-375.229473419497
30
0
11
897.83302491977
21
-392.549981495186
31
0
0
LINE
8
layer0
10
897.83302491977
20
-392.549981495186
30
0
11
932.474041071148
21
-402.549981495186
31
0
0
LINE
8
layer0
10
932.474041071148
20
-402.549981495186
30
0
11
952.474041071148
21
-385.229473419497
31
0
0
LINE
8
layer0
10
917.83302491977
20
-505.133283987163
30
0
11
952.474041071148
21
-515.133283987163
31
0
0
LINE
8
layer0
10
952.474041071148
20
-515.133283987163
30
0
11
932.474041071148
21
-532.453792062852
31
0
0
LINE
8
layer0
10
932.474041071148
20
-532.453792062852
30
0
11
897.83302491977
21
-522.453792062852
31
0
0
LINE
8
layer0
10
897.83302491977
20
-522.453792062852
30
0
11
917.83302491977
21
-505.133283987163
31
0
0
ENDBLK
0
BLOCK
8
layer0
2
PF_OBJECT29
70
0
10
0
20
0
30
0
0
LINE
8
layer0
10
1411.4675050769
20
-647.633283987163
30
0
11
1376.82648892552
21
-637.633283987163
31
0
0
LINE
8
layer0
10
1376.82648892552
20
-637.633283987163
30
0
11
1376.82648892552
21
-507.729473419497
31
0
0
LINE
8
layer0
10
1376.82648892552
20
-507.729473419497
30
0
11
1411.4675050769
21
-517.729473419497
31
0
0
LINE
8
layer0
10
1411.4675050769
20
-517.729473419497
30
0
11
1411.4675050769
21
-647.633283987163
31
0
0
LINE
8
layer0
10
1356.82648892552
20
-654.953792062852
30
0
11
1391.4675050769
21
-664.953792062852
31
0
0
LINE
8
layer0
10
1391.4675050769
20
-664.953792062852
30
0
11
1391.4675050769
21
-535.049981495186
31
0
0
LINE
8
layer0
10
1391.4675050769
20
-535.049981495186
30
0
11
1356.82648892552
21
-525.049981495186
31
0
0
LINE
8
layer0
10
1356.82648892552
20
-525.049981495186
30
0
11
1356.82648892552
21
-654.953792062852
31
0
0
LINE
8
layer0
10
1376.82648892552
20
-637.633283987163
30
0
11
1356.82648892552
21
-654.953792062852
31
0
0
LINE
8
layer0
10
1356.82648892552
20
-654.953792062852
30
0
11
1356.82648892552
21
-525.049981495186
31
0
0
LINE
8
layer0
10
1356.82648892552
20
-525.049981495186
30
0
11
1376.82648892552
21
-507.729473419497
31
0
0
LINE
8
layer0
10
1376.82648892552
20
-507.729473419497
30
0
11
1376.82648892552
21
-637.633283987163
31
0
0
LINE
8
layer0
10
1391.4675050769
20
-664.953792062852
30
0
11
1411.4675050769
21
-647.633283987163
31
0
0
LINE
8
layer0
10
1411.4675050769
20
-647.633283987163
30
0
11
1411.4675050769
21
-517.729473419497
31
0
0
LINE
8
layer0
10
1411.4675050769
20
-517.729473419497
30
0
11
1391.4675050769
21
-535.049981495186
31
0
0
LINE
8
layer0
10
1391.4675050769
20
-535.049981495186
30
0
11
1391.4675050769
21
-664.953792062852
31
0
0
LINE
8
layer0
10
1411.4675050769
20
-517.729473419497
30
0
11
1376.82648892552
21
-507.729473419497
31
0
0
LINE
8
layer0
10
1376.82648892552
20
-507.729473419497
30
0
11
1356.82648892552
21
-525.049981495186
31
0
0
LINE
8
layer0
10
1356.82648892552
20
-525.049981495186
30
0
11
1391.4675050769
21
-535.049981495186
31
0
0
LINE
8
layer0
10
1391.4675050769
20
-535.049981495186
30
0
11
1411.4675050769
21
-517.729473419497
31
0
0
LINE
8
layer0
10
1376.82648892552
20
-637.633283987163
30
0
11
1411.4675050769
21
-647.633283987163
31
0
0
LINE
8
layer0
10
1411.4675050769
20
-647.633283987163
30
0
11
1391.4675050769
21
-664.953792062852
31
0
0
LINE
8
layer0
10
1391.4675050769
20
-664.953792062852
30
0
11
1356.82648892552
21
-654.953792062852
31
0
0
LINE
8
layer0
10
1356.82648892552
20
-654.953792062852
30
0
11
1376.82648892552
21
-637.633283987163
31
0
0
ENDBLK
0
BLOCK
8
layer0
2
PF_OBJECT30
70
0
10
0
20
0
30
0
0
LINE
8
layer0
10
2028.46096908265
20
-643.301270189222
30
0
11
1993.81995293128
21
-633.301270189222
31
0
0
LINE
8
layer0
10
1993.81995293128
20
-633.301270189222
30
0
11
1993.81995293128
21
-503.397459621556
31
0
0
LINE
8
layer0
10
1993.81995293128
20
-503.397459621556
30
0
11
2028.46096908265
21
-513.397459621556
31
0
0
LINE
8
layer0
10
2028.46096908265
20
-513.397459621556
30
0
11
2028.46096908265
21
-643.301270189222
31
0
0
LINE
8
layer0
10
1973.81995293128
20
-650.621778264911
30
0
11
2008.46096908265
21
-660.621778264911
31
0
0
LINE
8
layer0
10
2008.46096908265
20
-660.621778264911
30
0
11
2008.46096908265
21
-530.717967697245
31
0
0
LINE
8
layer0
10
2008.46096908265
20
-530.717967697245
30
0
11
1973.81995293128
21
-520.717967697245
31
0
0
LINE
8
layer0
10
1973.81995293128
20
-520.717967697245
30
0
11
1973.81995293128
21
-650.621778264911
31
0
0
LINE
8
layer0
10
1993.81995293128
20
-633.301270189222
30
0
11
1973.81995293128
21
-650.621778264911
31
0
0
LINE
8
layer0
10
1973.81995293128
20
-650.621778264911
30
0
11
1973.81995293128
21
-520.717967697245
31
0
0
LINE
8
layer0
10
1973.81995293128
20
-520.717967697245
30
0
11
1993.81995293128
21
-503.397459621556
31
0
0
LINE
8
layer0
10
1993.81995293128
20
-503.397459621556
30
0
11
1993.81995293128
21
-633.301270189222
31
0
0
LINE
8
layer0
10
2008.46096908265
20
-660.621778264911
30
0
11
2028.46096908265
21
-643.301270189222
31
0
0
LINE
8
layer0
10
2028.46096908265
20
-643.301270189222
30
0
11
2028.46096908265
21
-513.397459621556
31
0
0
LINE
8
layer0
10
2028.46096908265
20
-513.397459621556
30
0
11
2008.46096908265
21
-530.717967697245
31
0
0
LINE
8
layer0
10
2008.46096908265
20
-530.717967697245
30
0
11
2008.46096908265
21
-660.621778264911
31
0
0
LINE
8
layer0
10
2028.46096908265
20
-513.397459621556
30
0
11
1993.81995293128
21
-503.397459621556
31
0
0
LINE
8
layer0
10
1993.81995293128
20
-503.397459621556
30
0
11
1973.81995293128
21
-520.717967697245
31
0
0
LINE
8
layer0
10
1973.81995293128
20
-520.717967697245
30
0
11
2008.46096908265
21
-530.717967697245
31
0
0
LINE
8
layer0
10
2008.46096908265
20
-530.717967697245
30
0
11
2028.46096908265
21
-513.397459621556
31
0
0
LINE
8
layer0
10
1993.81995293128
20
-633.301270189222
30
0
11
2028.46096908265
21
-643.301270189222
31
0
0
LINE
8
layer0
10
2028.46096908265
20
-643.301270189222
30
0
11
2008.46096908265
21
-660.621778264911
31
0
0
LINE
8
layer0
10
2008.46096908265
20
-660.621778264911
30
0
11
1973.81995293128
21
-650.621778264911
31
0
0
LINE
8
layer0
10
1973.81995293128
20
-650.621778264911
30
0
11
1993.81995293128
21
-633.301270189222
31
0
0
ENDBLK
0
BLOCK
8
layer0
2
PF_OBJECT31
70
0
10
0
20
0
30
0
0
LINE
8
layer0
10
1870.46096908265
20
-780.133283987163
30
0
11
1835.81995293128
21
-770.133283987163
31
0
0
LINE
8
layer0
10
1835.81995293128
20
-770.133283987163
30
0
11
1835.81995293128
21
-640.229473419497
31
0
0
LINE
8
layer0
10
1835.81995293128
20
-640.229473419497
30
0
11
1870.46096908265
21
-650.229473419497
31
0
0
LINE
8
layer0
10
1870.46096908265
20
-650.229473419497
30
0
11
1870.46096908265
21
-780.133283987163
31
0
0
LINE
8
layer0
10
1815.81995293128
20
-787.453792062852
30
0
11
1850.46096908265
21
-797.453792062852
31
0
0
LINE
8
layer0
10
1850.46096908265
20
-797.453792062852
30
0
11
1850.46096908265
21
-667.549981495186
31
0
0
LINE
8
layer0
10
1850.46096908265
20
-667.549981495186
30
0
11
1815.81995293128
21
-657.549981495186
31
0
0
LINE
8
layer0
10
1815.81995293128
20
-657.549981495186
30
0
11
1815.81995293128
21
-787.453792062852
31
0
0
LINE
8
layer0
10
1835.81995293128
20
-770.133283987163
30
0
11
1815.81995293128
21
-787.453792062852
31
0
0
LINE
8
layer0
10
1815.81995293128
20
-787.453792062852
30
0
11
1815.81995293128
21
-657.549981495186
31
0
0
LINE
8
layer0
10
1815.81995293128
20
-657.549981495186
30
0
11
1835.81995293128
21
-640.229473419497
31
0
0
LINE
8
layer0
10
1835.81995293128
20
-640.229473419497
30
0
11
1835.81995293128
21
-770.133283987163
31
0
0
LINE
8
layer0
10
1850.46096908265
20
-797.453792062852
30
0
11
1870.46096908265
21
-780.133283987163
31
0
0
LINE
8
layer0
10
1870.46096908265
20
-780.133283987163
30
0
11
1870.46096908265
21
-650.229473419497
31
0
0
LINE
8
layer0
10
1870.46096908265
20
-650.229473419497
30
0
11
1850.46096908265
21
-667.549981495186
31
0
0
LINE
8
layer0
10
1850.46096908265
20
-667.549981495186
30
0
11
1850.46096908265
21
-797.453792062852
31
0
0
LINE
8
layer0
10
1870.46096908265
20
-650.229473419497
30
0
11
1835.81995293128
21
-640.229473419497
31
0
0
LINE
8
layer0
10
1835.81995293128
20
-640.229473419497
30
0
11
1815.81995293128
21
-657.549981495186
31
0
0
LINE
8
layer0
10
1815.81995293128
20
-657.549981495186
30
0
11
1850.46096908265
21
-667.549981495186
31
0
0
LINE
8
layer0
10
1850.46096908265
20
-667.549981495186
30
0
11
1870.46096908265
21
-650.229473419497
31
0
0
LINE
8
layer0
10
1835.81995293128
20
-770.133283987163
30
0
11
1870.46096908265
21
-780.133283987163
31
0
0
LINE
8
layer0
10
1870.46096908265
20
-780.133283987163
30
0
11
1850.46096908265
21
-797.453792062852
31
0
0
LINE
8
layer0
10
1850.46096908265
20
-797.453792062852
30
0
11
1815.81995293128
21
-787.453792062852
31
0
0
LINE
8
layer0
10
1815.81995293128
20
-787.453792062852
30
0
11
1835.81995293128
21
-770.133283987163
31
0
0
ENDBLK
0
BLOCK
8
layer0
70
0
10
0
20
0
30
0
2
PF_SKETCH32
0
LINE
8
layer0
10
1035.36508806388
20
274.520886198552
30
0
11
988.198421397215
21
233.673354653386
31
0
0
ENDBLK
0
BLOCK
8
layer0
70
0
10
0
20
0
30
0
2
PF_SKETCH33
0
LINE
8
layer0
10
2074.59557260521
20
-25.4791138014479
30
0
11
2027.42890593854
21
-66.3266453466139
31
0
0
ENDBLK
0
BLOCK
8
layer0
70
0
10
0
20
0
30
0
2
PF_SKETCH34
0
LINE
8
layer0
10
941.031754730548
20
192.82582310822
30
0
11
893.865088063882
21
151.978291563054
31
0
0
ENDBLK
0
BLOCK
8
layer0
70
0
10
0
20
0
30
0
2
PF_SKETCH35
0
LINE
8
layer0
10
1980.26223927187
20
-107.17417689178
30
0
11
1933.09557260521
21
-148.021708436946
31
0
0
ENDBLK
0
BLOCK
8
layer0
70
0
10
0
20
0
30
0
2
PF_SKETCH36
0
LINE
8
layer0
10
846.698421397215
20
111.130760017888
30
0
11
799.531754730548
21
70.283228472722
31
0
0
ENDBLK
0
BLOCK
8
layer0
70
0
10
0
20
0
30
0
2
PF_SKETCH37
0
LINE
8
layer0
10
1885.92890593854
20
-188.869239982112
30
0
11
1838.76223927187
21
-229.716771527278
31
0
0
ENDBLK
0
BLOCK
8
layer0
2
PF_OBJECT38
70
0
10
0
20
0
30
0
0
LINE
8
layer0
10
316.772918920436
20
-261.762794416288
30
0
11
316.772918920436
21
-391.666604983954
31
0
0
LINE
8
layer0
10
316.772918920436
20
-391.666604983954
30
0
11
576.772918920436
21
-166.5
31
0
0
LINE
8
layer0
10
576.772918920436
20
-166.5
30
0
11
576.772918920436
21
-36.5961894323342
31
0
0
LINE
8
layer0
10
576.772918920436
20
-36.5961894323342
30
0
11
316.772918920436
21
-261.762794416288
31
0
0
LINE
8
layer0
10
562.925172713923
20
-162.5025
30
0
11
576.772918920436
21
-166.5
31
0
0
LINE
8
layer0
10
576.772918920436
20
-166.5
30
0
11
316.772918920436
21
-391.666604983954
31
0
0
LINE
8
layer0
10
316.772918920436
20
-391.666604983954
30
0
11
302.925172713923
21
-387.669104983954
31
0
0
LINE
8
layer0
10
302.925172713923
20
-387.669104983954
30
0
11
562.925172713923
21
-162.5025
31
0
0
LINE
8
layer0
10
562.925172713923
20
-32.5986894323342
30
0
11
576.772918920436
21
-36.5961894323342
31
0
0
LINE
8
layer0
10
576.772918920436
20
-36.5961894323342
30
0
11
576.772918920436
21
-166.5
31
0
0
LINE
8
layer0
10
576.772918920436
20
-166.5
30
0
11
562.925172713923
21
-162.5025
31
0
0
LINE
8
layer0
10
562.925172713923
20
-162.5025
30
0
11
562.925172713923
21
-32.5986894323342
31
0
0
LINE
8
layer0
10
316.772918920436
20
-261.762794416288
30
0
11
302.925172713923
21
-257.765294416288
31
0
0
LINE
8
layer0
10
302.925172713923
20
-257.765294416288
30
0
11
302.925172713923
21
-387.669104983954
31
0
0
LINE
8
layer0
10
302.925172713923
20
-387.669104983954
30
0
11
316.772918920436
21
-391.666604983954
31
0
0
LINE
8
layer0
10
316.772918920436
20
-391.666604983954
30
0
11
316.772918920436
21
-261.762794416288
31
0
0
LINE
8
layer0
10
302.925172713923
20
-257.765294416288
30
0
11
316.772918920436
21
-261.762794416288
31
0
0
LINE
8
layer0
10
316.772918920436
20
-261.762794416288
30
0
11
576.772918920436
21
-36.5961894323342
31
0
0
LINE
8
layer0
10
576.772918920436
20
-36.5961894323342
30
0
11
562.925172713923
21
-32.5986894323342
31
0
0
LINE
8
layer0
10
562.925172713923
20
-32.5986894323342
30
0
11
302.925172713923
21
-257.765294416288
31
0
0
LINE
8
layer0
10
562.925172713923
20
-32.5986894323342
30
0
11
562.925172713923
21
-162.5025
31
0
0
LINE
8
layer0
10
562.925172713923
20
-162.5025
30
0
11
302.925172713923
21
-387.669104983954
31
0
0
LINE
8
layer0
10
302.925172713923
20
-387.669104983954
30
0
11
302.925172713923
21
-257.765294416288
31
0
0
LINE
8
layer0
10
302.925172713923
20
-257.765294416288
30
0
11
562.925172713923
21
-32.5986894323342
31
0
0
ENDBLK
0
BLOCK
8
layer0
2
PF_OBJECT39
70
0
10
0
20
0
30
0
0
LINE
8
layer0
10
1861.76223927187
20
-707.762794416288
30
0
11
1861.76223927187
21
-837.666604983954
31
0
0
LINE
8
layer0
10
1861.76223927187
20
-837.666604983954
30
0
11
302.916512459885
21
-387.666604983954
31
0
0
LINE
8
layer0
10
302.916512459885
20
-387.666604983954
30
0
11
302.916512459885
21
-257.762794416288
31
0
0
LINE
8
layer0
10
302.916512459885
20
-257.762794416288
30
0
11
1861.76223927187
21
-707.762794416288
31
0
0
LINE
8
layer0
10
294.921512459885
20
-394.590478087211
30
0
11
302.916512459885
21
-387.666604983954
31
0
0
LINE
8
layer0
10
302.916512459885
20
-387.666604983954
30
0
11
1861.76223927187
21
-837.666604983954
31
0
0
LINE
8
layer0
10
1861.76223927187
20
-837.666604983954
30
0
11
1853.76723927187
21
-844.590478087211
31
0
0
LINE
8
layer0
10
1853.76723927187
20
-844.590478087211
30
0
11
294.921512459885
21
-394.590478087211
31
0
0
LINE
8
layer0
10
294.921512459885
20
-264.686667519545
30
0
11
302.916512459885
21
-257.762794416288
31
0
0
LINE
8
layer0
10
302.916512459885
20
-257.762794416288
30
0
11
302.916512459885
21
-387.666604983954
31
0
0
LINE
8
layer0
10
302.916512459885
20
-387.666604983954
30
0
11
294.921512459885
21
-394.590478087211
31
0
0
LINE
8
layer0
10
294.921512459885
20
-394.590478087211
30
0
11
294.921512459885
21
-264.686667519545
31
0
0
LINE
8
layer0
10
1861.76223927187
20
-707.762794416288
30
0
11
1853.76723927188
21
-714.686667519545
31
0
0
LINE
8
layer0
10
1853.76723927188
20
-714.686667519545
30
0
11
1853.76723927188
21
-844.590478087211
31
0
0
LINE
8
layer0
10
1853.76723927188
20
-844.590478087211
30
0
11
1861.76223927187
21
-837.666604983954
31
0
0
LINE
8
layer0
10
1861.76223927187
20
-837.666604983954
30
0
11
1861.76223927187
21
-707.762794416288
31
0
0
LINE
8
layer0
10
1853.76723927188
20
-714.686667519545
30
0
11
1861.76223927187
21
-707.762794416288
31
0
0
LINE
8
layer0
10
1861.76223927187
20
-707.762794416288
30
0
11
302.916512459885
21
-257.762794416288
31
0
0
LINE
8
layer0
10
302.916512459885
20
-257.762794416288
30
0
11
294.921512459885
21
-264.686667519545
31
0
0
LINE
8
layer0
10
294.921512459885
20
-264.686667519545
30
0
11
1853.76723927188
21
-714.686667519545
31
0
0
LINE
8
layer0
10
294.921512459885
20
-264.686667519545
30
0
11
294.921512459885
21
-394.590478087211
31
0
0
LINE
8
layer0
10
294.921512459885
20
-394.590478087211
30
0
11
1853.76723927187
21
-844.59047808721
31
0
0
LINE
8
layer0
10
1853.76723927187
20
-844.59047808721
30
0
11
1853.76723927188
21
-714.686667519545
31
0
0
LINE
8
layer0
10
1853.76723927188
20
-714.686667519545
30
0
11
294.921512459885
21
-264.686667519545
31
0
0
ENDBLK
0
BLOCK
8
layer0
2
PF_OBJECT40
70
0
10
0
20
0
30
0
0
LINE
8
layer0
10
2107.90583281132
20
-478.596189432334
30
0
11
2107.90583281132
21
-608.5
31
0
0
LINE
8
layer0
10
2107.90583281132
20
-608.5
30
0
11
1847.90583281132
21
-833.666604983954
31
0
0
LINE
8
layer0
10
1847.90583281132
20
-833.666604983954
30
0
11
1847.90583281132
21
-703.762794416288
31
0
0
LINE
8
layer0
10
1847.90583281132
20
-703.762794416288
30
0
11
2107.90583281132
21
-478.596189432334
31
0
0
LINE
8
layer0
10
1861.75357901784
20
-837.664104983954
30
0
11
1847.90583281132
21
-833.666604983954
31
0
0
LINE
8
layer0
10
1847.90583281132
20
-833.666604983954
30
0
11
2107.90583281132
21
-608.5
31
0
0
LINE
8
layer0
10
2107.90583281132
20
-608.5
30
0
11
2121.75357901784
21
-612.4975
31
0
0
LINE
8
layer0
10
2121.75357901784
20
-612.4975
30
0
11
1861.75357901784
21
-837.664104983954
31
0
0
LINE
8
layer0
10
1861.75357901784
20
-707.760294416288
30
0
11
1847.90583281132
21
-703.762794416288
31
0
0
LINE
8
layer0
10
1847.90583281132
20
-703.762794416288
30
0
11
1847.90583281132
21
-833.666604983954
31
0
0
LINE
8
layer0
10
1847.90583281132
20
-833.666604983954
30
0
11
1861.75357901784
21
-837.664104983954
31
0
0
LINE
8
layer0
10
1861.75357901784
20
-837.664104983954
30
0
11
1861.75357901784
21
-707.760294416288
31
0
0
LINE
8
layer0
10
2107.90583281132
20
-478.596189432334
30
0
11
2121.75357901784
21
-482.593689432334
31
0
0
LINE
8
layer0
10
2121.75357901784
20
-482.593689432334
30
0
11
2121.75357901784
21
-612.4975
31
0
0
LINE
8
layer0
10
2121.75357901784
20
-612.4975
30
0
11
2107.90583281132
21
-608.5
31
0
0
LINE
8
layer0
10
2107.90583281132
20
-608.5
30
0
11
2107.90583281132
21
-478.596189432334
31
0
0
LINE
8
layer0
10
2121.75357901784
20
-482.593689432334
30
0
11
2107.90583281132
21
-478.596189432334
31
0
0
LINE
8
layer0
10
2107.90583281132
20
-478.596189432334
30
0
11
1847.90583281132
21
-703.762794416288
31
0
0
LINE
8
layer0
10
1847.90583281132
20
-703.762794416288
30
0
11
1861.75357901784
21
-707.760294416288
31
0
0
LINE
8
layer0
10
1861.75357901784
20
-707.760294416288
30
0
11
2121.75357901784
21
-482.593689432334
31
0
0
LINE
8
layer0
10
1861.75357901784
20
-707.760294416288
30
0
11
1861.75357901784
21
-837.664104983954
31
0
0
LINE
8
layer0
10
1861.75357901784
20
-837.664104983954
30
0
11
2121.75357901784
21
-612.4975
31
0
0
LINE
8
layer0
10
2121.75357901784
20
-612.4975
30
0
11
2121.75357901784
21
-482.593689432334
31
0
0
LINE
8
layer0
10
2121.75357901784
20
-482.593689432334
30
0
11
1861.75357901784
21
-707.760294416288
31
0
0
ENDBLK
0
BLOCK
8
layer0
2
PF_OBJECT41
70
0
10
0
20
0
30
0
0
LINE
8
layer0
10
2126.0923662908
20
14.1184177437181
30
0
11
1318.22122446707
21
247.330728344947
31
0
0
LINE
8
layer0
10
1318.22122446707
20
247.330728344947
30
0
11
1318.22122446707
21
271.579439650912
31
0
0
LINE
8
layer0
10
1318.22122446707
20
271.579439650912
30
0
11
2126.0923662908
21
38.3671290496824
31
0
0
LINE
8
layer0
10
2126.0923662908
20
38.3671290496824
30
0
11
2126.0923662908
21
14.1184177437181
31
0
0
LINE
8
layer0
10
1245.04426483591
20
292.703808321676
30
0
11
1245.04426483591
21
268.455097015712
31
0
0
LINE
8
layer0
10
1245.04426483591
20
268.455097015712
30
0
11
554.256258422041
21
467.868417743718
31
0
0
LINE
8
layer0
10
554.256258422041
20
467.868417743718
30
0
11
554.256258422041
21
492.117129049682
31
0
0
LINE
8
layer0
10
554.256258422041
20
492.117129049682
30
0
11
1245.04426483591
21
292.703808321676
31
0
0
LINE
8
layer0
10
1314.97472269719
20
272.516623986294
30
0
11
1314.97472269719
21
248.26791268033
31
0
0
LINE
8
layer0
10
1314.97472269719
20
248.26791268033
30
0
11
1245.04426483591
21
268.455097015712
31
0
0
LINE
8
layer0
10
1245.04426483591
20
268.455097015712
30
0
11
1245.04426483591
21
292.703808321676
31
0
0
LINE
8
layer0
10
1245.04426483591
20
292.703808321676
30
0
11
1314.97472269719
21
272.516623986294
31
0
0
LINE
8
layer0
10
1318.22122446707
20
271.579439650912
30
0
11
1318.22122446707
21
247.330728344947
31
0
0
LINE
8
layer0
10
1318.22122446707
20
247.330728344947
30
0
11
1314.97472269719
21
248.26791268033
31
0
0
LINE
8
layer0
10
1314.97472269719
20
248.26791268033
30
0
11
1314.97472269719
21
272.516623986294
31
0
0
LINE
8
layer0
10
1314.97472269719
20
272.516623986294
30
0
11
1318.22122446707
21
271.579439650912
31
0
0
LINE
8
layer0
10
254.256258422041
20
208.060796608386
30
0
11
1826.0923662908
21
-245.689203391614
31
0
0
LINE
8
layer0
10
1826.0923662908
20
-245.689203391614
30
0
11
1826.0923662908
21
-221.440492085649
31
0
0
LINE
8
layer0
10
1826.0923662908
20
-221.440492085649
30
0
11
254.256258422041
21
232.309507914351
31
0
0
LINE
8
layer0
10
254.256258422041
20
232.309507914351
30
0
11
254.256258422041
21
208.060796608386
31
0
0
LINE
8
layer0
10
554.256258422041
20
467.868417743718
30
0
11
516.756258422041
21
435.392465101802
31
0
0
LINE
8
layer0
10
516.756258422041
20
435.392465101802
30
0
11
516.756258422041
21
459.641176407766
31
0
0
LINE
8
layer0
10
516.756258422041
20
459.641176407766
30
0
11
554.256258422041
21
492.117129049682
31
0
0
LINE
8
layer0
10
554.256258422041
20
492.117129049682
30
0
11
554.256258422041
21
467.868417743718
31
0
0
LINE
8
layer0
10
294.256258422041
20
266.950524065728
30
0
11
294.256258422041
21
242.701812759764
31
0
0
LINE
8
layer0
10
294.256258422041
20
242.701812759764
30
0
11
254.256258422041
21
208.060796608386
31
0
0
LINE
8
layer0
10
254.256258422041
20
208.060796608386
30
0
11
254.256258422041
21
232.309507914351
31
0
0
LINE
8
layer0
10
254.256258422041
20
232.309507914351
30
0
11
294.256258422041
21
266.950524065728
31
0
0
LINE
8
layer0
10
516.756258422041
20
459.641176407766
30
0
11
516.756258422041
21
435.392465101802
31
0
0
LINE
8
layer0
10
516.756258422041
20
435.392465101802
30
0
11
294.256258422041
21
242.701812759764
31
0
0
LINE
8
layer0
10
294.256258422041
20
242.701812759764
30
0
11
294.256258422041
21
266.950524065728
31
0
0
LINE
8
layer0
10
294.256258422041
20
266.950524065728
30
0
11
516.756258422041
21
459.641176407766
31
0
0
LINE
8
layer0
10
2088.5923662908
20
5.8911764077659
30
0
11
2088.5923662908
21
-18.3575348981983
31
0
0
LINE
8
layer0
10
2088.5923662908
20
-18.3575348981983
30
0
11
2126.0923662908
21
14.1184177437181
31
0
0
LINE
8
layer0
10
2126.0923662908
20
14.1184177437181
30
0
11
2126.0923662908
21
38.3671290496824
31
0
0
LINE
8
layer0
10
2126.0923662908
20
38.3671290496824
30
0
11
2088.5923662908
21
5.8911764077659
31
0
0
LINE
8
layer0
10
1826.0923662908
20
-245.689203391614
30
0
11
1866.0923662908
21
-211.048187240236
31
0
0
LINE
8
layer0
10
1866.0923662908
20
-211.048187240236
30
0
11
1866.0923662908
21
-186.799475934272
31
0
0
LINE
8
layer0
10
1866.0923662908
20
-186.799475934272
30
0
11
1826.0923662908
21
-221.440492085649
31
0
0
LINE
8
layer0
10
1826.0923662908
20
-221.440492085649
30
0
11
1826.0923662908
21
-245.689203391614
31
0
0
LINE
8
layer0
10
1866.0923662908
20
-186.799475934272
30
0
11
1866.0923662908
21
-211.048187240236
31
0
0
LINE
8
layer0
10
1866.0923662908
20
-211.048187240236
30
0
11
2088.5923662908
21
-18.3575348981983
31
0
0
LINE
8
layer0
10
2088.5923662908
20
-18.3575348981983
30
0
11
2088.5923662908
21
5.8911764077659
31
0
0
LINE
8
layer0
10
2088.5923662908
20
5.8911764077659
30
0
11
1866.0923662908
21
-186.799475934272
31
0
0
LINE
8
layer0
10
1437.52899510527
20
169.588271408535
30
0
11
1318.22122446707
21
247.330728344947
31
0
0
LINE
8
layer0
10
1318.22122446707
20
247.330728344947
30
0
11
2126.0923662908
21
14.1184177437181
31
0
0
LINE
8
layer0
10
2126.0923662908
20
14.1184177437181
30
0
11
2088.5923662908
21
-18.3575348981983
31
0
0
LINE
8
layer0
10
2088.5923662908
20
-18.3575348981983
30
0
11
1437.52899510527
21
169.588271408535
31
0
0
LINE
8
layer0
10
1334.68957190018
20
199.275455743918
30
0
11
1343.07801431648
21
231.133728735383
31
0
0
LINE
8
layer0
10
1343.07801431648
20
231.133728735383
30
0
11
1437.52899510527
21
169.588271408535
31
0
0
LINE
8
layer0
10
1437.52899510527
20
169.588271408535
30
0
11
1334.68957190018
21
199.275455743918
31
0
0
LINE
8
layer0
10
1300.96994194511
20
209.009474459685
30
0
11
1341.32975692265
21
224.494062090736
31
0
0
LINE
8
layer0
10
1341.32975692265
20
224.494062090736
30
0
11
1334.68957190018
21
199.275455743918
31
0
0
LINE
8
layer0
10
1334.68957190018
20
199.275455743918
30
0
11
1300.96994194511
21
209.009474459685
31
0
0
LINE
8
layer0
10
1240.99658923873
20
226.322290124303
30
0
11
1330.70364564571
21
220.417211110707
31
0
0
LINE
8
layer0
10
1330.70364564571
20
220.417211110707
30
0
11
1300.96994194511
21
209.009474459685
31
0
0
LINE
8
layer0
10
1300.96994194511
20
209.009474459685
30
0
11
1240.99658923873
21
226.322290124303
31
0
0
LINE
8
layer0
10
554.256258422041
20
467.868417743718
30
0
11
1245.04426483591
21
268.455097015712
31
0
0
LINE
8
layer0
10
1245.04426483591
20
268.455097015712
30
0
11
1317.42431235642
21
221.291339807622
31
0
0
LINE
8
layer0
10
1317.42431235642
20
221.291339807622
30
0
11
1240.99658923873
21
226.322290124303
31
0
0
LINE
8
layer0
10
1240.99658923873
20
226.322290124303
30
0
11
516.756258422041
21
435.392465101802
31
0
0
LINE
8
layer0
10
516.756258422041
20
435.392465101802
30
0
11
554.256258422041
21
467.868417743718
31
0
0
LINE
8
layer0
10
1314.97472269719
20
248.26791268033
30
0
11
1309.27061039636
21
226.604395446089
31
0
0
LINE
8
layer0
10
1309.27061039636
20
226.604395446089
30
0
11
1245.04426483591
21
268.455097015712
31
0
0
LINE
8
layer0
10
1245.04426483591
20
268.455097015712
30
0
11
1314.97472269719
21
248.26791268033
31
0
0
LINE
8
layer0
10
1329.15877440869
20
240.203682044631
30
0
11
1311.01886779019
21
233.244062090736
31
0
0
LINE
8
layer0
10
1311.01886779019
20
233.244062090736
30
0
11
1314.97472269719
21
248.26791268033
31
0
0
LINE
8
layer0
10
1314.97472269719
20
248.26791268033
30
0
11
1318.22122446707
21
247.330728344947
31
0
0
LINE
8
layer0
10
1318.22122446707
20
247.330728344947
30
0
11
1329.15877440869
21
240.203682044631
31
0
0
LINE
8
layer0
10
1334.92431235642
20
236.44678437385
30
0
11
1321.64497906713
21
237.320913070765
31
0
0
LINE
8
layer0
10
1321.64497906713
20
237.320913070765
30
0
11
1329.15877440869
21
240.203682044631
31
0
0
LINE
8
layer0
10
1329.15877440869
20
240.203682044631
30
0
11
1334.92431235642
21
236.44678437385
31
0
0
LINE
8
layer0
10
294.256258422041
20
242.701812759764
30
0
11
1866.0923662908
21
-211.048187240236
31
0
0
LINE
8
layer0
10
1866.0923662908
20
-211.048187240236
30
0
11
1826.0923662908
21
-245.689203391614
31
0
0
LINE
8
layer0
10
1826.0923662908
20
-245.689203391614
30
0
11
254.256258422041
21
208.060796608386
31
0
0
LINE
8
layer0
10
254.256258422041
20
208.060796608386
30
0
11
294.256258422041
21
242.701812759764
31
0
0
LINE
8
layer0
10
516.756258422041
20
435.392465101802
30
0
11
1132.93333321467
21
257.517465101802
31
0
0
LINE
8
layer0
10
1132.93333321467
20
257.517465101802
30
0
11
910.433333214669
21
64.826812759764
31
0
0
LINE
8
layer0
10
910.433333214669
20
64.826812759764
30
0
11
294.256258422041
21
242.701812759764
31
0
0
LINE
8
layer0
10
294.256258422041
20
242.701812759764
30
0
11
516.756258422041
21
435.392465101802
31
0
0
LINE
8
layer0
10
1250.78131690195
20
-33.423187240236
30
0
11
1473.28131690195
21
159.267465101802
31
0
0
LINE
8
layer0
10
1473.28131690195
20
159.267465101802
30
0
11
2088.5923662908
21
-18.3575348981983
31
0
0
LINE
8
layer0
10
2088.5923662908
20
-18.3575348981983
30
0
11
1866.0923662908
21
-211.048187240236
31
0
0
LINE
8
layer0
10
1866.0923662908
20
-211.048187240236
30
0
11
1250.78131690195
21
-33.423187240236
31
0
0
LINE
8
layer0
10
1334.92431235642
20
236.44678437385
30
0
11
1343.07801431648
21
231.133728735383
31
0
0
LINE
8
layer0
10
1343.07801431648
20
231.133728735383
30
0
11
1343.07801431648
21
255.382440041347
31
0
0
LINE
8
layer0
10
1343.07801431648
20
255.382440041347
30
0
11
1334.92431235642
21
260.695495679814
31
0
0
LINE
8
layer0
10
1334.92431235642
20
260.695495679814
30
0
11
1334.92431235642
21
236.44678437385
31
0
0
LINE
8
layer0
10
1343.07801431648
20
231.133728735383
30
0
11
1341.32975692265
21
224.494062090736
31
0
0
LINE
8
layer0
10
1341.32975692265
20
224.494062090736
30
0
11
1341.32975692265
21
248.7427733967
31
0
0
LINE
8
layer0
10
1341.32975692265
20
248.7427733967
30
0
11
1343.07801431648
21
255.382440041347
31
0
0
LINE
8
layer0
10
1343.07801431648
20
255.382440041347
30
0
11
1343.07801431648
21
231.133728735383
31
0
0
LINE
8
layer0
10
1341.32975692265
20
224.494062090736
30
0
11
1330.70364564571
21
220.417211110707
31
0
0
LINE
8
layer0
10
1330.70364564571
20
220.417211110707
30
0
11
1330.70364564571
21
244.665922416671
31
0
0
LINE
8
layer0
10
1330.70364564571
20
244.665922416671
30
0
11
1341.32975692265
21
248.7427733967
31
0
0
LINE
8
layer0
10
1341.32975692265
20
248.7427733967
30
0
11
1341.32975692265
21
224.494062090736
31
0
0
LINE
8
layer0
10
1321.64497906713
20
237.320913070765
30
0
11
1334.92431235642
21
236.44678437385
31
0
0
LINE
8
layer0
10
1334.92431235642
20
236.44678437385
30
0
11
1334.92431235642
21
260.695495679814
31
0
0
LINE
8
layer0
10
1334.92431235642
20
260.695495679814
30
0
11
1321.64497906713
21
261.56962437673
31
0
0
LINE
8
layer0
10
1321.64497906713
20
261.56962437673
30
0
11
1321.64497906713
21
237.320913070765
31
0
0
LINE
8
layer0
10
1311.01886779019
20
233.244062090736
30
0
11
1321.64497906713
21
237.320913070765
31
0
0
LINE
8
layer0
10
1321.64497906713
20
237.320913070765
30
0
11
1321.64497906713
21
261.56962437673
31
0
0
LINE
8
layer0
10
1321.64497906713
20
261.56962437673
30
0
11
1311.01886779019
21
257.4927733967
31
0
0
LINE
8
layer0
10
1311.01886779019
20
257.4927733967
30
0
11
1311.01886779019
21
233.244062090736
31
0
0
LINE
8
layer0
10
1309.27061039636
20
226.604395446089
30
0
11
1311.01886779019
21
233.244062090736
31
0
0
LINE
8
layer0
10
1311.01886779019
20
233.244062090736
30
0
11
1311.01886779019
21
257.4927733967
31
0
0
LINE
8
layer0
10
1311.01886779019
20
257.4927733967
30
0
11
1309.27061039636
21
250.853106752053
31
0
0
LINE
8
layer0
10
1309.27061039636
20
250.853106752053
30
0
11
1309.27061039636
21
226.604395446089
31
0
0
LINE
8
layer0
10
1317.42431235642
20
221.291339807622
30
0
11
1309.27061039636
21
226.604395446089
31
0
0
LINE
8
layer0
10
1309.27061039636
20
226.604395446089
30
0
11
1309.27061039636
21
250.853106752053
31
0
0
LINE
8
layer0
10
1309.27061039636
20
250.853106752053
30
0
11
1317.42431235642
21
245.540051113586
31
0
0
LINE
8
layer0
10
1317.42431235642
20
245.540051113586
30
0
11
1317.42431235642
21
221.291339807622
31
0
0
LINE
8
layer0
10
1330.70364564571
20
220.417211110707
30
0
11
1317.42431235642
21
221.291339807622
31
0
0
LINE
8
layer0
10
1317.42431235642
20
221.291339807622
30
0
11
1317.42431235642
21
245.540051113586
31
0
0
LINE
8
layer0
10
1317.42431235642
20
245.540051113586
30
0
11
1330.70364564571
21
244.665922416671
31
0
0
LINE
8
layer0
10
1330.70364564571
20
244.665922416671
30
0
11
1330.70364564571
21
220.417211110707
31
0
0
LINE
8
layer0
10
1437.52899510527
20
193.8369827145
30
0
11
1437.52899510527
21
169.588271408535
31
0
0
LINE
8
layer0
10
1437.52899510527
20
169.588271408535
30
0
11
1473.28131690195
21
159.267465101802
31
0
0
LINE
8
layer0
10
1473.28131690195
20
159.267465101802
30
0
11
1473.28131690195
21
183.516176407766
31
0
0
LINE
8
layer0
10
1473.28131690195
20
183.516176407766
30
0
11
1437.52899510527
21
193.8369827145
31
0
0
LINE
8
layer0
10
1334.68957190018
20
223.524167049882
30
0
11
1334.68957190018
21
199.275455743918
31
0
0
LINE
8
layer0
10
1334.68957190018
20
199.275455743918
30
0
11
1437.52899510527
21
169.588271408535
31
0
0
LINE
8
layer0
10
1437.52899510527
20
169.588271408535
30
0
11
1437.52899510527
21
193.8369827145
31
0
0
LINE
8
layer0
10
1437.52899510527
20
193.8369827145
30
0
11
1334.68957190018
21
223.524167049882
31
0
0
LINE
8
layer0
10
1300.96994194511
20
233.25818576565
30
0
11
1300.96994194511
21
209.009474459685
31
0
0
LINE
8
layer0
10
1300.96994194511
20
209.009474459685
30
0
11
1334.68957190018
21
199.275455743918
31
0
0
LINE
8
layer0
10
1334.68957190018
20
199.275455743918
30
0
11
1334.68957190018
21
223.524167049882
31
0
0
LINE
8
layer0
10
1334.68957190018
20
223.524167049882
30
0
11
1300.96994194511
21
233.25818576565
31
0
0
LINE
8
layer0
10
1240.99658923873
20
250.571001430268
30
0
11
1240.99658923873
21
226.322290124303
31
0
0
LINE
8
layer0
10
1240.99658923873
20
226.322290124303
30
0
11
1300.96994194511
21
209.009474459685
31
0
0
LINE
8
layer0
10
1300.96994194511
20
209.009474459685
30
0
11
1300.96994194511
21
233.25818576565
31
0
0
LINE
8
layer0
10
1300.96994194511
20
233.25818576565
30
0
11
1240.99658923873
21
250.571001430268
31
0
0
LINE
8
layer0
10
1132.93333321467
20
257.517465101802
30
0
11
1240.99658923873
21
226.322290124303
31
0
0
LINE
8
layer0
10
1240.99658923873
20
226.322290124303
30
0
11
1240.99658923873
21
250.571001430268
31
0
0
LINE
8
layer0
10
1240.99658923873
20
250.571001430268
30
0
11
1132.93333321467
21
281.766176407766
31
0
0
LINE
8
layer0
10
1132.93333321467
20
281.766176407766
30
0
11
1132.93333321467
21
257.517465101802
31
0
0
LINE
8
layer0
10
1250.78131690195
20
-33.423187240236
30
0
11
910.433333214669
21
64.826812759764
31
0
0
LINE
8
layer0
10
910.433333214669
20
64.826812759764
30
0
11
910.433333214669
21
89.0755240657283
31
0
0
LINE
8
layer0
10
910.433333214669
20
89.0755240657283
30
0
11
1250.78131690195
21
-9.17447593427164
31
0
0
LINE
8
layer0
10
1250.78131690195
20
-9.17447593427164
30
0
11
1250.78131690195
21
-33.423187240236
31
0
0
LINE
8
layer0
10
1473.28131690195
20
159.267465101802
30
0
11
1250.78131690195
21
-33.423187240236
31
0
0
LINE
8
layer0
10
1250.78131690195
20
-33.423187240236
30
0
11
1250.78131690195
21
-9.17447593427164
31
0
0
LINE
8
layer0
10
1250.78131690195
20
-9.17447593427164
30
0
11
1473.28131690195
21
183.516176407766
31
0
0
LINE
8
layer0
10
1473.28131690195
20
183.516176407766
30
0
11
1473.28131690195
21
159.267465101802
31
0
0
LINE
8
layer0
10
910.433333214669
20
64.826812759764
30
0
11
1132.93333321467
21
257.517465101802
31
0
0
LINE
8
layer0
10
1132.93333321467
20
257.517465101802
30
0
11
1132.93333321467
21
281.766176407766
31
0
0
LINE
8
layer0
10
1132.93333321467
20
281.766176407766
30
0
11
910.433333214669
21
89.0755240657283
31
0
0
LINE
8
layer0
10
910.433333214669
20
89.0755240657283
30
0
11
910.433333214669
21
64.826812759764
31
0
0
LINE
8
layer0
10
2126.0923662908
20
38.3671290496824
30
0
11
1318.22122446707
21
271.579439650912
31
0
0
LINE
8
layer0
10
1318.22122446707
20
271.579439650912
30
0
11
1437.52899510527
21
193.8369827145
31
0
0
LINE
8
layer0
10
1437.52899510527
20
193.8369827145
30
0
11
2088.5923662908
21
5.8911764077659
31
0
0
LINE
8
layer0
10
2088.5923662908
20
5.8911764077659
30
0
11
2126.0923662908
21
38.3671290496824
31
0
0
LINE
8
layer0
10
1437.52899510527
20
193.8369827145
30
0
11
1343.07801431648
21
255.382440041347
31
0
0
LINE
8
layer0
10
1343.07801431648
20
255.382440041347
30
0
11
1334.68957190018
21
223.524167049882
31
0
0
LINE
8
layer0
10
1334.68957190018
20
223.524167049882
30
0
11
1437.52899510527
21
193.8369827145
31
0
0
LINE
8
layer0
10
1334.68957190018
20
223.524167049882
30
0
11
1341.32975692265
21
248.7427733967
31
0
0
LINE
8
layer0
10
1341.32975692265
20
248.7427733967
30
0
11
1300.96994194511
21
233.25818576565
31
0
0
LINE
8
layer0
10
1300.96994194511
20
233.25818576565
30
0
11
1334.68957190018
21
223.524167049882
31
0
0
LINE
8
layer0
10
1300.96994194511
20
233.25818576565
30
0
11
1330.70364564571
21
244.665922416671
31
0
0
LINE
8
layer0
10
1330.70364564571
20
244.665922416671
30
0
11
1240.99658923873
21
250.571001430268
31
0
0
LINE
8
layer0
10
1240.99658923873
20
250.571001430268
30
0
11
1300.96994194511
21
233.25818576565
31
0
0
LINE
8
layer0
10
1240.99658923873
20
250.571001430268
30
0
11
1317.42431235642
21
245.540051113586
31
0
0
LINE
8
layer0
10
1317.42431235642
20
245.540051113586
30
0
11
1245.04426483591
21
292.703808321676
31
0
0
LINE
8
layer0
10
1245.04426483591
20
292.703808321676
30
0
11
554.256258422041
21
492.117129049682
31
0
0
LINE
8
layer0
10
554.256258422041
20
492.117129049682
30
0
11
516.756258422041
21
459.641176407766
31
0
0
LINE
8
layer0
10
516.756258422041
20
459.641176407766
30
0
11
1240.99658923873
21
250.571001430268
31
0
0
LINE
8
layer0
10
1245.04426483591
20
292.703808321676
30
0
11
1309.27061039636
21
250.853106752053
31
0
0
LINE
8
layer0
10
1309.27061039636
20
250.853106752053
30
0
11
1314.97472269719
21
272.516623986294
31
0
0
LINE
8
layer0
10
1314.97472269719
20
272.516623986294
30
0
11
1245.04426483591
21
292.703808321676
31
0
0
LINE
8
layer0
10
1314.97472269719
20
272.516623986294
30
0
11
1311.01886779019
21
257.4927733967
31
0
0
LINE
8
layer0
10
1311.01886779019
20
257.4927733967
30
0
11
1329.15877440869
21
264.452393350595
31
0
0
LINE
8
layer0
10
1329.15877440869
20
264.452393350595
30
0
11
1318.22122446707
21
271.579439650912
31
0
0
LINE
8
layer0
10
1318.22122446707
20
271.579439650912
30
0
11
1314.97472269719
21
272.516623986294
31
0
0
LINE
8
layer0
10
1329.15877440869
20
264.452393350595
30
0
11
1321.64497906713
21
261.56962437673
31
0
0
LINE
8
layer0
10
1321.64497906713
20
261.56962437673
30
0
11
1334.92431235642
21
260.695495679814
31
0
0
LINE
8
layer0
10
1334.92431235642
20
260.695495679814
30
0
11
1329.15877440869
21
264.452393350595
31
0
0
LINE
8
layer0
10
1866.0923662908
20
-186.799475934272
30
0
11
294.256258422041
21
266.950524065728
31
0
0
LINE
8
layer0
10
294.256258422041
20
266.950524065728
30
0
11
254.256258422041
21
232.309507914351
31
0
0
LINE
8
layer0
10
254.256258422041
20
232.309507914351
30
0
11
1826.0923662908
21
-221.440492085649
31
0
0
LINE
8
layer0
10
1826.0923662908
20
-221.440492085649
30
0
11
1866.0923662908
21
-186.799475934272
31
0
0
LINE
8
layer0
10
910.433333214669
20
89.0755240657283
30
0
11
1132.93333321467
21
281.766176407766
31
0
0
LINE
8
layer0
10
1132.93333321467
20
281.766176407766
30
0
11
516.756258422041
21
459.641176407766
31
0
0
LINE
8
layer0
10
516.756258422041
20
459.641176407766
30
0
11
294.256258422041
21
266.950524065728
31
0
0
LINE
8
layer0
10
294.256258422041
20
266.950524065728
30
0
11
910.433333214669
21
89.0755240657283
31
0
0
LINE
8
layer0
10
2088.5923662908
20
5.8911764077659
30
0
11
1473.28131690195
21
183.516176407766
31
0
0
LINE
8
layer0
10
1473.28131690195
20
183.516176407766
30
0
11
1250.78131690195
21
-9.17447593427164
31
0
0
LINE
8
layer0
10
1250.78131690195
20
-9.17447593427164
30
0
11
1866.0923662908
21
-186.799475934272
31
0
0
LINE
8
layer0
10
1866.0923662908
20
-186.799475934272
30
0
11
2088.5923662908
21
5.8911764077659
31
0
0
ENDBLK
0
BLOCK
8
layer0
2
PF_OBJECT42
70
0
10
0
20
0
30
0
0
LINE
8
layer0
10
1158.48108262631
20
274.391176407766
30
0
11
1446.86754208653
21
191.141176407766
31
0
0
LINE
8
layer0
10
1446.86754208653
20
191.141176407766
30
0
11
1454.16188685085
21
188.187754446382
31
0
0
LINE
8
layer0
10
1454.16188685085
20
188.187754446382
30
0
11
1459.27390581581
21
184.251844997136
31
0
0
LINE
8
layer0
10
1459.27390581581
20
184.251844997136
30
0
11
1461.70319894758
21
179.718722300014
31
0
0
LINE
8
layer0
10
1461.70319894758
20
179.718722300014
30
0
11
1461.21197010854
21
175.032119988733
31
0
0
LINE
8
layer0
10
1461.21197010854
20
175.032119988733
30
0
11
1457.84830420006
21
170.650795350999
31
0
0
LINE
8
layer0
10
1457.84830420006
20
170.650795350999
30
0
11
1457.84830420006
21
170.650795350999
31
0
0
LINE
8
layer0
10
1457.84830420006
20
170.650795350999
30
0
11
1117.50032051278
21
268.900795350999
31
0
0
LINE
8
layer0
10
1117.50032051278
20
268.900795350999
30
0
11
1123.40716443554
21
272.54796773316
31
0
0
LINE
8
layer0
10
1123.40716443554
20
272.54796773316
30
0
11
1131.27898333404
21
275.103977215638
31
0
0
LINE
8
layer0
10
1131.27898333404
20
275.103977215638
30
0
11
1140.34522872828
21
276.318623781523
31
0
0
LINE
8
layer0
10
1140.34522872828
20
276.318623781523
30
0
11
1149.71843335084
21
276.073009362006
31
0
0
LINE
8
layer0
10
1149.71843335084
20
276.073009362006
30
0
11
1158.48108262631
21
274.391176407766
31
0
0
LINE
8
layer0
10
1117.50032051278
20
268.900795350999
30
0
11
1169.46184473984
21
253.900795350999
31
0
0
LINE
8
layer0
10
1169.46184473984
20
253.900795350999
30
0
11
1112.74878730304
21
264.785846884442
31
0
0
LINE
8
layer0
10
1112.74878730304
20
264.785846884442
30
0
11
1117.50032051278
21
268.900795350999
31
0
0
LINE
8
layer0
10
1117.50032051278
20
268.900795350999
30
0
11
1117.50032051278
21
268.900795350999
31
0
0
LINE
8
layer0
10
1112.74878730304
20
264.785846884442
30
0
11
1160.69919546438
21
255.58262830524
31
0
0
LINE
8
layer0
10
1160.69919546438
20
255.58262830524
30
0
11
1103.84218511678
21
257.072503129735
31
0
0
LINE
8
layer0
10
1103.84218511678
20
257.072503129735
30
0
11
1112.74878730304
21
264.785846884442
31
0
0
LINE
8
layer0
10
1103.84218511678
20
257.072503129735
30
0
11
1151.32599084181
21
255.828242724757
31
0
0
LINE
8
layer0
10
1151.32599084181
20
255.828242724757
30
0
11
1093.45235421279
21
248.074645625857
31
0
0
LINE
8
layer0
10
1093.45235421279
20
248.074645625857
30
0
11
1103.84218511678
21
257.072503129735
31
0
0
LINE
8
layer0
10
1093.45235421279
20
248.074645625857
30
0
11
1142.25974544757
21
254.613596158872
31
0
0
LINE
8
layer0
10
1142.25974544757
20
254.613596158872
30
0
11
1076.2555629164
21
233.181787499603
31
0
0
LINE
8
layer0
10
1076.2555629164
20
233.181787499603
30
0
11
1093.45235421279
21
248.074645625857
31
0
0
LINE
8
layer0
10
1076.2555629164
20
233.181787499603
30
0
11
1134.38792654908
21
252.057586676394
31
0
0
LINE
8
layer0
10
1134.38792654908
20
252.057586676394
30
0
11
1007.79404779265
21
173.892376220867
31
0
0
LINE
8
layer0
10
1007.79404779265
20
173.892376220867
30
0
11
1076.2555629164
21
233.181787499603
31
0
0
LINE
8
layer0
10
1007.79404779265
20
173.892376220867
30
0
11
1128.48108262631
21
248.410414294233
31
0
0
LINE
8
layer0
10
1128.48108262631
20
248.410414294233
30
0
11
935.98108262631
21
81.7005240657284
31
0
0
LINE
8
layer0
10
935.98108262631
20
81.7005240657284
30
0
11
928.686737861988
21
84.6539460271121
31
0
0
LINE
8
layer0
10
928.686737861988
20
84.6539460271121
30
0
11
923.574718897032
21
88.5898554763579
31
0
0
LINE
8
layer0
10
923.574718897032
20
88.5898554763579
30
0
11
921.145425765262
21
93.1229781734801
31
0
0
LINE
8
layer0
10
921.145425765262
20
93.1229781734801
30
0
11
921.636654604296
21
97.8095804847613
31
0
0
LINE
8
layer0
10
921.636654604296
20
97.8095804847613
30
0
11
925.000320512777
21
102.190905122495
31
0
0
LINE
8
layer0
10
925.000320512777
20
102.190905122495
30
0
11
1007.79404779265
21
173.892376220867
31
0
0
LINE
8
layer0
10
935.98108262631
20
81.7005240657284
30
0
11
965.98108262631
21
107.681286179261
31
0
0
LINE
8
layer0
10
965.98108262631
20
107.681286179261
30
0
11
944.210979559424
21
79.3247574608603
31
0
0
LINE
8
layer0
10
944.210979559424
20
79.3247574608603
30
0
11
935.98108262631
21
81.7005240657284
31
0
0
LINE
8
layer0
10
935.98108262631
20
81.7005240657284
30
0
11
935.98108262631
21
81.7005240657284
31
0
0
LINE
8
layer0
10
944.210979559424
20
79.3247574608603
30
0
11
962.617416717829
21
103.299961541528
31
0
0
LINE
8
layer0
10
962.617416717829
20
103.299961541528
30
0
11
959.637667068838
21
74.8714563677279
31
0
0
LINE
8
layer0
10
959.637667068838
20
74.8714563677279
30
0
11
944.210979559424
21
79.3247574608603
31
0
0
LINE
8
layer0
10
959.637667068838
20
74.8714563677279
30
0
11
962.126187878795
21
98.6133592302467
31
0
0
LINE
8
layer0
10
962.126187878795
20
98.6133592302467
30
0
11
977.633382076594
21
69.6765409157341
31
0
0
LINE
8
layer0
10
977.633382076594
20
69.6765409157341
30
0
11
959.637667068838
21
74.8714563677279
31
0
0
LINE
8
layer0
10
977.633382076594
20
69.6765409157341
30
0
11
964.555481010565
21
94.0802365331247
31
0
0
LINE
8
layer0
10
964.555481010565
20
94.0802365331247
30
0
11
1007.4190983291
21
61.0781452675383
31
0
0
LINE
8
layer0
10
1007.4190983291
20
61.0781452675383
30
0
11
977.633382076594
21
69.6765409157341
31
0
0
LINE
8
layer0
10
1007.4190983291
20
61.0781452675383
30
0
11
969.667499975521
21
90.1443270838786
31
0
0
LINE
8
layer0
10
969.667499975521
20
90.1443270838786
30
0
11
1125.99792088658
21
26.8473877056636
31
0
0
LINE
8
layer0
10
1125.99792088658
20
26.8473877056636
30
0
11
1007.4190983291
21
61.0781452675383
31
0
0
LINE
8
layer0
10
1125.99792088658
20
26.8473877056636
30
0
11
976.961844739843
21
87.1909051224948
31
0
0
LINE
8
layer0
10
976.961844739843
20
87.1909051224948
30
0
11
1265.34830420006
21
3.94090512249494
31
0
0
LINE
8
layer0
10
1265.34830420006
20
3.94090512249494
30
0
11
1259.44146027729
21
0.293732740334008
31
0
0
LINE
8
layer0
10
1259.44146027729
20
0.293732740334008
30
0
11
1251.5696413788
21
-2.26227674214408
31
0
0
LINE
8
layer0
10
1251.5696413788
20
-2.26227674214408
30
0
11
1242.50339598456
21
-3.4769233080292
31
0
0
LINE
8
layer0
10
1242.50339598456
20
-3.4769233080292
30
0
11
1233.130191362
21
-3.23130888851222
31
0
0
LINE
8
layer0
10
1233.130191362
20
-3.23130888851222
30
0
11
1224.36754208653
21
-1.54947593427164
31
0
0
LINE
8
layer0
10
1224.36754208653
20
-1.54947593427164
30
0
11
1125.99792088658
21
26.8473877056636
31
0
0
LINE
8
layer0
10
1265.34830420006
20
3.94090512249494
30
0
11
1213.38677997299
21
18.9409051224949
31
0
0
LINE
8
layer0
10
1213.38677997299
20
18.9409051224949
30
0
11
1270.0998374098
21
8.05585358905148
31
0
0
LINE
8
layer0
10
1270.0998374098
20
8.05585358905148
30
0
11
1265.34830420006
21
3.94090512249494
31
0
0
LINE
8
layer0
10
1265.34830420006
20
3.94090512249494
30
0
11
1265.34830420006
21
3.94090512249494
31
0
0
LINE
8
layer0
10
1270.0998374098
20
8.05585358905148
30
0
11
1222.14942924846
21
17.2590721682544
31
0
0
LINE
8
layer0
10
1222.14942924846
20
17.2590721682544
30
0
11
1279.00643959606
21
15.7691973437589
31
0
0
LINE
8
layer0
10
1279.00643959606
20
15.7691973437589
30
0
11
1270.0998374098
21
8.05585358905148
31
0
0
LINE
8
layer0
10
1279.00643959606
20
15.7691973437589
30
0
11
1231.52263387102
21
17.0134577487373
31
0
0
LINE
8
layer0
10
1231.52263387102
20
17.0134577487373
30
0
11
1289.39627050005
21
24.7670548476373
31
0
0
LINE
8
layer0
10
1289.39627050005
20
24.7670548476373
30
0
11
1279.00643959606
21
15.7691973437589
31
0
0
LINE
8
layer0
10
1289.39627050005
20
24.7670548476373
30
0
11
1240.58887926527
21
18.2281043146224
31
0
0
LINE
8
layer0
10
1240.58887926527
20
18.2281043146224
30
0
11
1306.59306179644
21
39.6599129738914
31
0
0
LINE
8
layer0
10
1306.59306179644
20
39.6599129738914
30
0
11
1289.39627050005
21
24.7670548476373
31
0
0
LINE
8
layer0
10
1306.59306179644
20
39.6599129738914
30
0
11
1248.46069816376
21
20.7841137971006
31
0
0
LINE
8
layer0
10
1248.46069816376
20
20.7841137971006
30
0
11
1375.05457692019
21
98.9493242526277
31
0
0
LINE
8
layer0
10
1375.05457692019
20
98.9493242526277
30
0
11
1306.59306179644
21
39.6599129738914
31
0
0
LINE
8
layer0
10
1375.05457692019
20
98.9493242526277
30
0
11
1254.36754208653
21
24.4312861792617
31
0
0
LINE
8
layer0
10
1254.36754208653
20
24.4312861792617
30
0
11
1431.86754208653
21
178.150795350999
31
0
0
LINE
8
layer0
10
1431.86754208653
20
178.150795350999
30
0
11
1457.84830420006
21
170.650795350999
31
0
0
LINE
8
layer0
10
1457.84830420006
20
170.650795350999
30
0
11
1375.05457692019
21
98.9493242526277
31
0
0
LINE
8
layer0
10
1431.86754208653
20
178.150795350999
30
0
11
1416.86754208653
21
165.160414294233
31
0
0
LINE
8
layer0
10
1416.86754208653
20
165.160414294233
30
0
11
1427.75259361997
21
179.338678653433
31
0
0
LINE
8
layer0
10
1427.75259361997
20
179.338678653433
30
0
11
1431.86754208653
21
178.150795350999
31
0
0
LINE
8
layer0
10
1427.75259361997
20
179.338678653433
30
0
11
1420.23120799501
21
169.541738931966
31
0
0
LINE
8
layer0
10
1420.23120799501
20
169.541738931966
30
0
11
1421.44881713811
21
181.158422177792
31
0
0
LINE
8
layer0
10
1421.44881713811
20
181.158422177792
30
0
11
1427.75259361997
21
179.338678653433
31
0
0
LINE
8
layer0
10
1421.44881713811
20
181.158422177792
30
0
11
1420.72243683404
21
174.228341243248
31
0
0
LINE
8
layer0
10
1420.72243683404
20
174.228341243248
30
0
11
1416.19600474978
21
182.674778500994
31
0
0
LINE
8
layer0
10
1416.19600474978
20
182.674778500994
30
0
11
1421.44881713811
21
181.158422177792
31
0
0
LINE
8
layer0
10
1416.19600474978
20
182.674778500994
30
0
11
1418.29314370227
21
178.76146394037
31
0
0
LINE
8
layer0
10
1418.29314370227
20
178.76146394037
30
0
11
1411.41964304879
21
184.053595357901
31
0
0
LINE
8
layer0
10
1411.41964304879
20
184.053595357901
30
0
11
1416.19600474978
21
182.674778500994
31
0
0
LINE
8
layer0
10
1411.41964304879
20
184.053595357901
30
0
11
1413.18112473732
21
182.697373389616
31
0
0
LINE
8
layer0
10
1413.18112473732
20
182.697373389616
30
0
11
1405.88677997299
21
185.650795350999
31
0
0
LINE
8
layer0
10
1405.88677997299
20
185.650795350999
30
0
11
1411.41964304879
21
184.053595357901
31
0
0
LINE
8
layer0
10
1446.86754208653
20
194.605278022904
30
0
11
1446.86754208653
21
191.141176407766
31
0
0
LINE
8
layer0
10
1446.86754208653
20
191.141176407766
30
0
11
1158.48108262631
21
274.391176407766
31
0
0
LINE
8
layer0
10
1158.48108262631
20
274.391176407766
30
0
11
1158.48108262631
21
277.855278022904
31
0
0
LINE
8
layer0
10
1158.48108262631
20
277.855278022904
30
0
11
1446.86754208653
21
194.605278022904
31
0
0
LINE
8
layer0
10
1158.48108262631
20
277.855278022904
30
0
11
1158.48108262631
21
274.391176407766
31
0
0
LINE
8
layer0
10
1158.48108262631
20
274.391176407766
30
0
11
1149.71843335084
21
276.073009362006
31
0
0
LINE
8
layer0
10
1149.71843335084
20
276.073009362006
30
0
11
1149.71843335084
21
279.537110977144
31
0
0
LINE
8
layer0
10
1149.71843335084
20
279.537110977144
30
0
11
1158.48108262631
21
277.855278022904
31
0
0
LINE
8
layer0
10
1149.71843335084
20
279.537110977144
30
0
11
1149.71843335084
21
276.073009362006
31
0
0
LINE
8
layer0
10
1149.71843335084
20
276.073009362006
30
0
11
1140.34522872828
21
276.318623781523
31
0
0
LINE
8
layer0
10
1140.34522872828
20
276.318623781523
30
0
11
1140.34522872828
21
279.782725396661
31
0
0
LINE
8
layer0
10
1140.34522872828
20
279.782725396661
30
0
11
1149.71843335084
21
279.537110977144
31
0
0
LINE
8
layer0
10
1140.34522872828
20
279.782725396661
30
0
11
1140.34522872828
21
276.318623781523
31
0
0
LINE
8
layer0
10
1140.34522872828
20
276.318623781523
30
0
11
1131.27898333404
21
275.103977215638
31
0
0
LINE
8
layer0
10
1131.27898333404
20
275.103977215638
30
0
11
1131.27898333404
21
278.568078830776
31
0
0
LINE
8
layer0
10
1131.27898333404
20
278.568078830776
30
0
11
1140.34522872828
21
279.782725396661
31
0
0
LINE
8
layer0
10
1131.27898333404
20
278.568078830776
30
0
11
1131.27898333404
21
275.103977215638
31
0
0
LINE
8
layer0
10
1131.27898333404
20
275.103977215638
30
0
11
1123.40716443554
21
272.54796773316
31
0
0
LINE
8
layer0
10
1123.40716443554
20
272.54796773316
30
0
11
1123.40716443554
21
276.012069348298
31
0
0
LINE
8
layer0
10
1123.40716443554
20
276.012069348298
30
0
11
1131.27898333404
21
278.568078830776
31
0
0
LINE
8
layer0
10
1123.40716443554
20
276.012069348298
30
0
11
1123.40716443554
21
272.54796773316
31
0
0
LINE
8
layer0
10
1123.40716443554
20
272.54796773316
30
0
11
1117.50032051278
21
268.900795350999
31
0
0
LINE
8
layer0
10
1117.50032051278
20
268.900795350999
30
0
11
1117.50032051278
21
272.364896966137
31
0
0
LINE
8
layer0
10
1117.50032051278
20
272.364896966137
30
0
11
1123.40716443554
21
276.012069348298
31
0
0
LINE
8
layer0
10
1117.50032051278
20
272.364896966137
30
0
11
1117.50032051278
21
268.900795350999
31
0
0
LINE
8
layer0
10
1117.50032051278
20
268.900795350999
30
0
11
1112.74878730304
21
264.785846884442
31
0
0
LINE
8
layer0
10
1112.74878730304
20
264.785846884442
30
0
11
1112.74878730304
21
268.24994849958
31
0
0
LINE
8
layer0
10
1112.74878730304
20
268.24994849958
30
0
11
1117.50032051278
21
272.364896966137
31
0
0
LINE
8
layer0
10
1112.74878730304
20
268.24994849958
30
0
11
1112.74878730304
21
264.785846884442
31
0
0
LINE
8
layer0
10
1112.74878730304
20
264.785846884442
30
0
11
1103.84218511678
21
257.072503129735
31
0
0
LINE
8
layer0
10
1103.84218511678
20
257.072503129735
30
0
11
1103.84218511678
21
260.536604744873
31
0
0
LINE
8
layer0
10
1103.84218511678
20
260.536604744873
30
0
11
1112.74878730304
21
268.24994849958
31
0
0
LINE
8
layer0
10
1103.84218511678
20
260.536604744873
30
0
11
1103.84218511678
21
257.072503129735
31
0
0
LINE
8
layer0
10
1103.84218511678
20
257.072503129735
30
0
11
1093.45235421279
21
248.074645625857
31
0
0
LINE
8
layer0
10
1093.45235421279
20
248.074645625857
30
0
11
1093.45235421279
21
251.538747240995
31
0
0
LINE
8
layer0
10
1093.45235421279
20
251.538747240995
30
0
11
1103.84218511678
21
260.536604744873
31
0
0
LINE
8
layer0
10
1093.45235421279
20
251.538747240995
30
0
11
1093.45235421279
21
248.074645625857
31
0
0
LINE
8
layer0
10
1093.45235421279
20
248.074645625857
30
0
11
1076.2555629164
21
233.181787499603
31
0
0
LINE
8
layer0
10
1076.2555629164
20
233.181787499603
30
0
11
1076.2555629164
21
236.645889114741
31
0
0
LINE
8
layer0
10
1076.2555629164
20
236.645889114741
30
0
11
1093.45235421279
21
251.538747240995
31
0
0
LINE
8
layer0
10
1076.2555629164
20
236.645889114741
30
0
11
1076.2555629164
21
233.181787499603
31
0
0
LINE
8
layer0
10
1076.2555629164
20
233.181787499603
30
0
11
1007.79404779265
21
173.892376220867
31
0
0
LINE
8
layer0
10
1007.79404779265
20
173.892376220867
30
0
11
1007.79404779265
21
177.356477836005
31
0
0
LINE
8
layer0
10
1007.79404779265
20
177.356477836005
30
0
11
1076.2555629164
21
236.645889114741
31
0
0
LINE
8
layer0
10
1007.79404779265
20
177.356477836005
30
0
11
1007.79404779265
21
173.892376220867
31
0
0
LINE
8
layer0
10
1007.79404779265
20
173.892376220867
30
0
11
925.000320512777
21
102.190905122495
31
0
0
LINE
8
layer0
10
925.000320512777
20
102.190905122495
30
0
11
925.000320512777
21
105.655006737633
31
0
0
LINE
8
layer0
10
925.000320512777
20
105.655006737633
30
0
11
1007.79404779265
21
177.356477836005
31
0
0
LINE
8
layer0
10
925.000320512777
20
105.655006737633
30
0
11
925.000320512777
21
102.190905122495
31
0
0
LINE
8
layer0
10
925.000320512777
20
102.190905122495
30
0
11
921.636654604296
21
97.8095804847613
31
0
0
LINE
8
layer0
10
921.636654604296
20
97.8095804847613
30
0
11
921.636654604296
21
101.273682099899
31
0
0
LINE
8
layer0
10
921.636654604296
20
101.273682099899
30
0
11
925.000320512777
21
105.655006737633
31
0
0
LINE
8
layer0
10
921.636654604296
20
101.273682099899
30
0
11
921.636654604296
21
97.8095804847613
31
0
0
LINE
8
layer0
10
921.636654604296
20
97.8095804847613
30
0
11
921.145425765262
21
93.1229781734801
31
0
0
LINE
8
layer0
10
921.145425765262
20
93.1229781734801
30
0
11
921.145425765262
21
96.5870797886179
31
0
0
LINE
8
layer0
10
921.145425765262
20
96.5870797886179
30
0
11
921.636654604296
21
101.273682099899
31
0
0
LINE
8
layer0
10
921.145425765262
20
96.5870797886179
30
0
11
921.145425765262
21
93.1229781734801
31
0
0
LINE
8
layer0
10
921.145425765262
20
93.1229781734801
30
0
11
923.574718897032
21
88.5898554763579
31
0
0
LINE
8
layer0
10
923.574718897032
20
88.5898554763579
30
0
11
923.574718897032
21
92.0539570914956
31
0
0
LINE
8
layer0
10
923.574718897032
20
92.0539570914956
30
0
11
921.145425765262
21
96.5870797886179
31
0
0
LINE
8
layer0
10
923.574718897032
20
92.0539570914956
30
0
11
923.574718897032
21
88.5898554763579
31
0
0
LINE
8
layer0
10
923.574718897032
20
88.5898554763579
30
0
11
928.686737861988
21
84.6539460271121
31
0
0
LINE
8
layer0
10
928.686737861988
20
84.6539460271121
30
0
11
928.686737861988
21
88.1180476422497
31
0
0
LINE
8
layer0
10
928.686737861988
20
88.1180476422497
30
0
11
923.574718897032
21
92.0539570914956
31
0
0
LINE
8
layer0
10
928.686737861988
20
88.1180476422497
30
0
11
928.686737861988
21
84.6539460271121
31
0
0
LINE
8
layer0
10
928.686737861988
20
84.6539460271121
30
0
11
935.98108262631
21
81.7005240657284
31
0
0
LINE
8
layer0
10
935.98108262631
20
81.7005240657284
30
0
11
935.98108262631
21
85.164625680866
31
0
0
LINE
8
layer0
10
935.98108262631
20
85.164625680866
30
0
11
928.686737861988
21
88.1180476422497
31
0
0
LINE
8
layer0
10
935.98108262631
20
85.164625680866
30
0
11
935.98108262631
21
81.7005240657284
31
0
0
LINE
8
layer0
10
935.98108262631
20
81.7005240657284
30
0
11
944.210979559424
21
79.3247574608603
31
0
0
LINE
8
layer0
10
944.210979559424
20
79.3247574608603
30
0
11
944.210979559424
21
82.7888590759981
31
0
0
LINE
8
layer0
10
944.210979559424
20
82.7888590759981
30
0
11
935.98108262631
21
85.164625680866
31
0
0
LINE
8
layer0
10
944.210979559424
20
82.7888590759981
30
0
11
944.210979559424
21
79.3247574608603
31
0
0
LINE
8
layer0
10
944.210979559424
20
79.3247574608603
30
0
11
959.637667068838
21
74.8714563677279
31
0
0
LINE
8
layer0
10
959.637667068838
20
74.8714563677279
30
0
11
959.637667068838
21
78.3355579828656
31
0
0
LINE
8
layer0
10
959.637667068838
20
78.3355579828656
30
0
11
944.210979559424
21
82.7888590759981
31
0
0
LINE
8
layer0
10
959.637667068838
20
78.3355579828656
30
0
11
959.637667068838
21
74.8714563677279
31
0
0
LINE
8
layer0
10
959.637667068838
20
74.8714563677279
30
0
11
977.633382076594
21
69.6765409157341
31
0
0
LINE
8
layer0
10
977.633382076594
20
69.6765409157341
30
0
11
977.633382076594
21
73.1406425308719
31
0
0
LINE
8
layer0
10
977.633382076594
20
73.1406425308719
30
0
11
959.637667068838
21
78.3355579828656
31
0
0
LINE
8
layer0
10
977.633382076594
20
73.1406425308719
30
0
11
977.633382076594
21
69.6765409157341
31
0
0
LINE
8
layer0
10
977.633382076594
20
69.6765409157341
30
0
11
1007.4190983291
21
61.0781452675384
31
0
0
LINE
8
layer0
10
1007.4190983291
20
61.0781452675384
30
0
11
1007.4190983291
21
64.5422468826761
31
0
0
LINE
8
layer0
10
1007.4190983291
20
64.5422468826761
30
0
11
977.633382076594
21
73.1406425308719
31
0
0
LINE
8
layer0
10
1007.4190983291
20
64.5422468826761
30
0
11
1007.4190983291
21
61.0781452675384
31
0
0
LINE
8
layer0
10
1007.4190983291
20
61.0781452675384
30
0
11
1125.99792088658
21
26.8473877056636
31
0
0
LINE
8
layer0
10
1125.99792088658
20
26.8473877056636
30
0
11
1125.99792088658
21
30.3114893208012
31
0
0
LINE
8
layer0
10
1125.99792088658
20
30.3114893208012
30
0
11
1007.4190983291
21
64.5422468826761
31
0
0
LINE
8
layer0
10
1125.99792088658
20
30.3114893208012
30
0
11
1125.99792088658
21
26.8473877056636
31
0
0
LINE
8
layer0
10
1125.99792088658
20
26.8473877056636
30
0
11
1224.36754208653
21
-1.54947593427164
31
0
0
LINE
8
layer0
10
1224.36754208653
20
-1.54947593427164
30
0
11
1224.36754208653
21
1.9146256808661
31
0
0
LINE
8
layer0
10
1224.36754208653
20
1.9146256808661
30
0
11
1125.99792088658
21
30.3114893208012
31
0
0
LINE
8
layer0
10
1224.36754208653
20
1.9146256808661
30
0
11
1224.36754208653
21
-1.54947593427164
31
0
0
LINE
8
layer0
10
1224.36754208653
20
-1.54947593427164
30
0
11
1233.130191362
21
-3.23130888851222
31
0
0
LINE
8
layer0
10
1233.130191362
20
-3.23130888851222
30
0
11
1233.130191362
21
0.232792726625576
31
0
0
LINE
8
layer0
10
1233.130191362
20
0.232792726625576
30
0
11
1224.36754208653
21
1.9146256808661
31
0
0
LINE
8
layer0
10
1233.130191362
20
0.232792726625576
30
0
11
1233.130191362
21
-3.23130888851222
31
0
0
LINE
8
layer0
10
1233.130191362
20
-3.23130888851222
30
0
11
1242.50339598456
21
-3.4769233080292
31
0
0
LINE
8
layer0
10
1242.50339598456
20
-3.4769233080292
30
0
11
1242.50339598456
21
-0.0128216928914071
31
0
0
LINE
8
layer0
10
1242.50339598456
20
-0.0128216928914071
30
0
11
1233.130191362
21
0.232792726625576
31
0
0
LINE
8
layer0
10
1242.50339598456
20
-0.0128216928914071
30
0
11
1242.50339598456
21
-3.4769233080292
31
0
0
LINE
8
layer0
10
1242.50339598456
20
-3.4769233080292
30
0
11
1251.5696413788
21
-2.26227674214408
31
0
0
LINE
8
layer0
10
1251.5696413788
20
-2.26227674214408
30
0
11
1251.5696413788
21
1.2018248729936
31
0
0
LINE
8
layer0
10
1251.5696413788
20
1.2018248729936
30
0
11
1242.50339598456
21
-0.0128216928914071
31
0
0
LINE
8
layer0
10
1251.5696413788
20
1.2018248729936
30
0
11
1251.5696413788
21
-2.26227674214408
31
0
0
LINE
8
layer0
10
1251.5696413788
20
-2.26227674214408
30
0
11
1259.44146027729
21
0.293732740334008
31
0
0
LINE
8
layer0
10
1259.44146027729
20
0.293732740334008
30
0
11
1259.44146027729
21
3.75783435547174
31
0
0
LINE
8
layer0
10
1259.44146027729
20
3.75783435547174
30
0
11
1251.5696413788
21
1.2018248729936
31
0
0
LINE
8
layer0
10
1259.44146027729
20
3.75783435547174
30
0
11
1259.44146027729
21
0.293732740334008
31
0
0
LINE
8
layer0
10
1259.44146027729
20
0.293732740334008
30
0
11
1265.34830420006
21
3.94090512249494
31
0
0
LINE
8
layer0
10
1265.34830420006
20
3.94090512249494
30
0
11
1265.34830420006
21
7.40500673763268
31
0
0
LINE
8
layer0
10
1265.34830420006
20
7.40500673763268
30
0
11
1259.44146027729
21
3.75783435547174
31
0
0
LINE
8
layer0
10
1265.34830420006
20
7.40500673763268
30
0
11
1265.34830420006
21
3.94090512249494
31
0
0
LINE
8
layer0
10
1265.34830420006
20
3.94090512249494
30
0
11
1270.0998374098
21
8.05585358905148
31
0
0
LINE
8
layer0
10
1270.0998374098
20
8.05585358905148
30
0
11
1270.0998374098
21
11.5199552041892
31
0
0
LINE
8
layer0
10
1270.0998374098
20
11.5199552041892
30
0
11
1265.34830420006
21
7.40500673763268
31
0
0
LINE
8
layer0
10
1270.0998374098
20
11.5199552041892
30
0
11
1270.0998374098
21
8.05585358905148
31
0
0
LINE
8
layer0
10
1270.0998374098
20
8.05585358905148
30
0
11
1279.00643959606
21
15.7691973437589
31
0
0
LINE
8
layer0
10
1279.00643959606
20
15.7691973437589
30
0
11
1279.00643959606
21
19.2332989588966
31
0
0
LINE
8
layer0
10
1279.00643959606
20
19.2332989588966
30
0
11
1270.0998374098
21
11.5199552041892
31
0
0
LINE
8
layer0
10
1279.00643959606
20
19.2332989588966
30
0
11
1279.00643959606
21
15.7691973437589
31
0
0
LINE
8
layer0
10
1279.00643959606
20
15.7691973437589
30
0
11
1289.39627050005
21
24.7670548476373
31
0
0
LINE
8
layer0
10
1289.39627050005
20
24.7670548476373
30
0
11
1289.39627050005
21
28.2311564627751
31
0
0
LINE
8
layer0
10
1289.39627050005
20
28.2311564627751
30
0
11
1279.00643959606
21
19.2332989588966
31
0
0
LINE
8
layer0
10
1289.39627050005
20
28.2311564627751
30
0
11
1289.39627050005
21
24.7670548476373
31
0
0
LINE
8
layer0
10
1289.39627050005
20
24.7670548476373
30
0
11
1306.59306179644
21
39.6599129738914
31
0
0
LINE
8
layer0
10
1306.59306179644
20
39.6599129738914
30
0
11
1306.59306179644
21
43.1240145890292
31
0
0
LINE
8
layer0
10
1306.59306179644
20
43.1240145890292
30
0
11
1289.39627050005
21
28.2311564627751
31
0
0
LINE
8
layer0
10
1306.59306179644
20
43.1240145890292
30
0
11
1306.59306179644
21
39.6599129738914
31
0
0
LINE
8
layer0
10
1306.59306179644
20
39.6599129738914
30
0
11
1375.05457692019
21
98.9493242526277
31
0
0
LINE
8
layer0
10
1375.05457692019
20
98.9493242526277
30
0
11
1375.05457692019
21
102.413425867766
31
0
0
LINE
8
layer0
10
1375.05457692019
20
102.413425867766
30
0
11
1306.59306179644
21
43.1240145890292
31
0
0
LINE
8
layer0
10
1375.05457692019
20
102.413425867766
30
0
11
1375.05457692019
21
98.9493242526277
31
0
0
LINE
8
layer0
10
1375.05457692019
20
98.9493242526277
30
0
11
1457.84830420006
21
170.650795350999
31
0
0
LINE
8
layer0
10
1457.84830420006
20
170.650795350999
30
0
11
1457.84830420006
21
174.114896966137
31
0
0
LINE
8
layer0
10
1457.84830420006
20
174.114896966137
30
0
11
1375.05457692019
21
102.413425867766
31
0
0
LINE
8
layer0
10
1457.84830420006
20
174.114896966137
30
0
11
1457.84830420006
21
170.650795350999
31
0
0
LINE
8
layer0
10
1457.84830420006
20
170.650795350999
30
0
11
1461.21197010854
21
175.032119988733
31
0
0
LINE
8
layer0
10
1461.21197010854
20
175.032119988733
30
0
11
1461.21197010854
21
178.496221603871
31
0
0
LINE
8
layer0
10
1461.21197010854
20
178.496221603871
30
0
11
1457.84830420006
21
174.114896966137
31
0
0
LINE
8
layer0
10
1461.21197010854
20
178.496221603871
30
0
11
1461.21197010854
21
175.032119988733
31
0
0
LINE
8
layer0
10
1461.21197010854
20
175.032119988733
30
0
11
1461.70319894758
21
179.718722300014
31
0
0
LINE
8
layer0
10
1461.70319894758
20
179.718722300014
30
0
11
1461.70319894758
21
183.182823915152
31
0
0
LINE
8
layer0
10
1461.70319894758
20
183.182823915152
30
0
11
1461.21197010854
21
178.496221603871
31
0
0
LINE
8
layer0
10
1461.70319894758
20
183.182823915152
30
0
11
1461.70319894758
21
179.718722300014
31
0
0
LINE
8
layer0
10
1461.70319894758
20
179.718722300014
30
0
11
1459.27390581581
21
184.251844997136
31
0
0
LINE
8
layer0
10
1459.27390581581
20
184.251844997136
30
0
11
1459.27390581581
21
187.715946612274
31
0
0
LINE
8
layer0
10
1459.27390581581
20
187.715946612274
30
0
11
1461.70319894758
21
183.182823915152
31
0
0
LINE
8
layer0
10
1459.27390581581
20
187.715946612274
30
0
11
1459.27390581581
21
184.251844997136
31
0
0
LINE
8
layer0
10
1459.27390581581
20
184.251844997136
30
0
11
1454.16188685085
21
188.187754446382
31
0
0
LINE
8
layer0
10
1454.16188685085
20
188.187754446382
30
0
11
1454.16188685085
21
191.65185606152
31
0
0
LINE
8
layer0
10
1454.16188685085
20
191.65185606152
30
0
11
1459.27390581581
21
187.715946612274
31
0
0
LINE
8
layer0
10
1454.16188685085
20
191.65185606152
30
0
11
1454.16188685085
21
188.187754446382
31
0
0
LINE
8
layer0
10
1454.16188685085
20
188.187754446382
30
0
11
1446.86754208653
21
191.141176407766
31
0
0
LINE
8
layer0
10
1446.86754208653
20
191.141176407766
30
0
11
1446.86754208653
21
194.605278022904
31
0
0
LINE
8
layer0
10
1446.86754208653
20
194.605278022904
30
0
11
1454.16188685085
21
191.65185606152
31
0
0
LINE
8
layer0
10
1405.88677997299
20
185.650795350999
30
0
11
1405.88677997299
21
189.114896966137
31
0
0
LINE
8
layer0
10
1405.88677997299
20
189.114896966137
30
0
11
1169.46184473984
21
257.364896966137
31
0
0
LINE
8
layer0
10
1169.46184473984
20
257.364896966137
30
0
11
1169.46184473984
21
253.900795350999
31
0
0
LINE
8
layer0
10
1169.46184473984
20
253.900795350999
30
0
11
1405.88677997299
21
185.650795350999
31
0
0
LINE
8
layer0
10
1169.46184473984
20
253.900795350999
30
0
11
1169.46184473984
21
257.364896966137
31
0
0
LINE
8
layer0
10
1169.46184473984
20
257.364896966137
30
0
11
1160.69919546438
21
259.046729920378
31
0
0
LINE
8
layer0
10
1160.69919546438
20
259.046729920378
30
0
11
1160.69919546438
21
255.58262830524
31
0
0
LINE
8
layer0
10
1160.69919546438
20
255.58262830524
30
0
11
1169.46184473984
21
253.900795350999
31
0
0
LINE
8
layer0
10
1160.69919546438
20
255.58262830524
30
0
11
1160.69919546438
21
259.046729920378
31
0
0
LINE
8
layer0
10
1160.69919546438
20
259.046729920378
30
0
11
1151.32599084181
21
259.292344339895
31
0
0
LINE
8
layer0
10
1151.32599084181
20
259.292344339895
30
0
11
1151.32599084181
21
255.828242724757
31
0
0
LINE
8
layer0
10
1151.32599084181
20
255.828242724757
30
0
11
1160.69919546438
21
255.58262830524
31
0
0
LINE
8
layer0
10
1151.32599084181
20
255.828242724757
30
0
11
1151.32599084181
21
259.292344339895
31
0
0
LINE
8
layer0
10
1151.32599084181
20
259.292344339895
30
0
11
1142.25974544757
21
258.077697774009
31
0
0
LINE
8
layer0
10
1142.25974544757
20
258.077697774009
30
0
11
1142.25974544757
21
254.613596158872
31
0
0
LINE
8
layer0
10
1142.25974544757
20
254.613596158872
30
0
11
1151.32599084181
21
255.828242724757
31
0
0
LINE
8
layer0
10
1142.25974544757
20
254.613596158872
30
0
11
1142.25974544757
21
258.077697774009
31
0
0
LINE
8
layer0
10
1142.25974544757
20
258.077697774009
30
0
11
1134.38792654908
21
255.521688291531
31
0
0
LINE
8
layer0
10
1134.38792654908
20
255.521688291531
30
0
11
1134.38792654908
21
252.057586676394
31
0
0
LINE
8
layer0
10
1134.38792654908
20
252.057586676394
30
0
11
1142.25974544757
21
254.613596158872
31
0
0
LINE
8
layer0
10
1134.38792654908
20
252.057586676394
30
0
11
1134.38792654908
21
255.521688291531
31
0
0
LINE
8
layer0
10
1134.38792654908
20
255.521688291531
30
0
11
1128.48108262631
21
251.874515909371
31
0
0
LINE
8
layer0
10
1128.48108262631
20
251.874515909371
30
0
11
1128.48108262631
21
248.410414294233
31
0
0
LINE
8
layer0
10
1128.48108262631
20
248.410414294233
30
0
11
1134.38792654908
21
252.057586676394
31
0
0
LINE
8
layer0
10
1128.48108262631
20
248.410414294233
30
0
11
1128.48108262631
21
251.874515909371
31
0
0
LINE
8
layer0
10
1128.48108262631
20
251.874515909371
30
0
11
965.98108262631
21
111.145387794399
31
0
0
LINE
8
layer0
10
965.98108262631
20
111.145387794399
30
0
11
965.98108262631
21
107.681286179261
31
0
0
LINE
8
layer0
10
965.98108262631
20
107.681286179261
30
0
11
1128.48108262631
21
248.410414294233
31
0
0
LINE
8
layer0
10
965.98108262631
20
107.681286179261
30
0
11
965.98108262631
21
111.145387794399
31
0
0
LINE
8
layer0
10
965.98108262631
20
111.145387794399
30
0
11
962.617416717829
21
106.764063156666
31
0
0
LINE
8
layer0
10
962.617416717829
20
106.764063156666
30
0
11
962.617416717829
21
103.299961541528
31
0
0
LINE
8
layer0
10
962.617416717829
20
103.299961541528
30
0
11
965.98108262631
21
107.681286179261
31
0
0
LINE
8
layer0
10
962.617416717829
20
103.299961541528
30
0
11
962.617416717829
21
106.764063156666
31
0
0
LINE
8
layer0
10
962.617416717829
20
106.764063156666
30
0
11
962.126187878795
21
102.077460845384
31
0
0
LINE
8
layer0
10
962.126187878795
20
102.077460845384
30
0
11
962.126187878795
21
98.6133592302467
31
0
0
LINE
8
layer0
10
962.126187878795
20
98.6133592302467
30
0
11
962.617416717829
21
103.299961541528
31
0
0
LINE
8
layer0
10
962.126187878795
20
98.6133592302467
30
0
11
962.126187878795
21
102.077460845384
31
0
0
LINE
8
layer0
10
962.126187878795
20
102.077460845384
30
0
11
964.555481010565
21
97.5443381482622
31
0
0
LINE
8
layer0
10
964.555481010565
20
97.5443381482622
30
0
11
964.555481010565
21
94.0802365331244
31
0
0
LINE
8
layer0
10
964.555481010565
20
94.0802365331244
30
0
11
962.126187878795
21
98.6133592302467
31
0
0
LINE
8
layer0
10
964.555481010565
20
94.0802365331244
30
0
11
964.555481010565
21
97.5443381482622
31
0
0
LINE
8
layer0
10
964.555481010565
20
97.5443381482622
30
0
11
969.667499975521
21
93.6084286990164
31
0
0
LINE
8
layer0
10
969.667499975521
20
93.6084286990164
30
0
11
969.667499975521
21
90.1443270838786
31
0
0
LINE
8
layer0
10
969.667499975521
20
90.1443270838786
30
0
11
964.555481010565
21
94.0802365331244
31
0
0
LINE
8
layer0
10
969.667499975521
20
90.1443270838786
30
0
11
969.667499975521
21
93.6084286990164
31
0
0
LINE
8
layer0
10
969.667499975521
20
93.6084286990164
30
0
11
976.961844739843
21
90.6550067376327
31
0
0
LINE
8
layer0
10
976.961844739843
20
90.6550067376327
30
0
11
976.961844739843
21
87.1909051224949
31
0
0
LINE
8
layer0
10
976.961844739843
20
87.1909051224949
30
0
11
969.667499975521
21
90.1443270838786
31
0
0
LINE
8
layer0
10
976.961844739843
20
87.1909051224949
30
0
11
976.961844739843
21
90.6550067376327
31
0
0
LINE
8
layer0
10
976.961844739843
20
90.6550067376327
30
0
11
1213.38677997299
21
22.4050067376327
31
0
0
LINE
8
layer0
10
1213.38677997299
20
22.4050067376327
30
0
11
1213.38677997299
21
18.9409051224949
31
0
0
LINE
8
layer0
10
1213.38677997299
20
18.9409051224949
30
0
11
976.961844739843
21
87.1909051224949
31
0
0
LINE
8
layer0
10
1213.38677997299
20
18.9409051224949
30
0
11
1213.38677997299
21
22.4050067376327
31
0
0
LINE
8
layer0
10
1213.38677997299
20
22.4050067376327
30
0
11
1222.14942924846
21
20.7231737833922
31
0
0
LINE
8
layer0
10
1222.14942924846
20
20.7231737833922
30
0
11
1222.14942924846
21
17.2590721682544
31
0
0
LINE
8
layer0
10
1222.14942924846
20
17.2590721682544
30
0
11
1213.38677997299
21
18.9409051224949
31
0
0
LINE
8
layer0
10
1222.14942924846
20
17.2590721682544
30
0
11
1222.14942924846
21
20.7231737833922
31
0
0
LINE
8
layer0
10
1222.14942924846
20
20.7231737833922
30
0
11
1231.52263387102
21
20.4775593638751
31
0
0
LINE
8
layer0
10
1231.52263387102
20
20.4775593638751
30
0
11
1231.52263387102
21
17.0134577487374
31
0
0
LINE
8
layer0
10
1231.52263387102
20
17.0134577487374
30
0
11
1222.14942924846
21
17.2590721682544
31
0
0
LINE
8
layer0
10
1231.52263387102
20
17.0134577487374
30
0
11
1231.52263387102
21
20.4775593638751
31
0
0
LINE
8
layer0
10
1231.52263387102
20
20.4775593638751
30
0
11
1240.58887926527
21
21.6922059297602
31
0
0
LINE
8
layer0
10
1240.58887926527
20
21.6922059297602
30
0
11
1240.58887926527
21
18.2281043146224
31
0
0
LINE
8
layer0
10
1240.58887926527
20
18.2281043146224
30
0
11
1231.52263387102
21
17.0134577487374
31
0
0
LINE
8
layer0
10
1240.58887926527
20
18.2281043146224
30
0
11
1240.58887926527
21
21.6922059297602
31
0
0
LINE
8
layer0
10
1240.58887926527
20
21.6922059297602
30
0
11
1248.46069816376
21
24.2482154122383
31
0
0
LINE
8
layer0
10
1248.46069816376
20
24.2482154122383
30
0
11
1248.46069816376
21
20.7841137971005
31
0
0
LINE
8
layer0
10
1248.46069816376
20
20.7841137971005
30
0
11
1240.58887926527
21
18.2281043146224
31
0
0
LINE
8
layer0
10
1248.46069816376
20
20.7841137971005
30
0
11
1248.46069816376
21
24.2482154122383
31
0
0
LINE
8
layer0
10
1248.46069816376
20
24.2482154122383
30
0
11
1254.36754208653
21
27.8953877943993
31
0
0
LINE
8
layer0
10
1254.36754208653
20
27.8953877943993
30
0
11
1254.36754208653
21
24.4312861792615
31
0
0
LINE
8
layer0
10
1254.36754208653
20
24.4312861792615
30
0
11
1248.46069816376
21
20.7841137971005
31
0
0
LINE
8
layer0
10
1254.36754208653
20
24.4312861792615
30
0
11
1254.36754208653
21
27.8953877943993
31
0
0
LINE
8
layer0
10
1254.36754208653
20
27.8953877943993
30
0
11
1416.86754208653
21
168.624515909371
31
0
0
LINE
8
layer0
10
1416.86754208653
20
168.624515909371
30
0
11
1416.86754208653
21
165.160414294233
31
0
0
LINE
8
layer0
10
1416.86754208653
20
165.160414294233
30
0
11
1254.36754208653
21
24.4312861792615
31
0
0
LINE
8
layer0
10
1416.86754208653
20
165.160414294233
30
0
11
1416.86754208653
21
168.624515909371
31
0
0
LINE
8
layer0
10
1416.86754208653
20
168.624515909371
30
0
11
1420.23120799501
21
173.005840547104
31
0
0
LINE
8
layer0
10
1420.23120799501
20
173.005840547104
30
0
11
1420.23120799501
21
169.541738931966
31
0
0
LINE
8
layer0
10
1420.23120799501
20
169.541738931966
30
0
11
1416.86754208653
21
165.160414294233
31
0
0
LINE
8
layer0
10
1420.23120799501
20
169.541738931966
30
0
11
1420.23120799501
21
173.005840547104
31
0
0
LINE
8
layer0
10
1420.23120799501
20
173.005840547104
30
0
11
1420.72243683404
21
177.692442858385
31
0
0
LINE
8
layer0
10
1420.72243683404
20
177.692442858385
30
0
11
1420.72243683404
21
174.228341243248
31
0
0
LINE
8
layer0
10
1420.72243683404
20
174.228341243248
30
0
11
1420.23120799501
21
169.541738931966
31
0
0
LINE
8
layer0
10
1420.72243683404
20
174.228341243248
30
0
11
1420.72243683404
21
177.692442858385
31
0
0
LINE
8
layer0
10
1420.72243683404
20
177.692442858385
30
0
11
1418.29314370227
21
182.225565555508
31
0
0
LINE
8
layer0
10
1418.29314370227
20
182.225565555508
30
0
11
1418.29314370227
21
178.76146394037
31
0
0
LINE
8
layer0
10
1418.29314370227
20
178.76146394037
30
0
11
1420.72243683404
21
174.228341243248
31
0
0
LINE
8
layer0
10
1418.29314370227
20
178.76146394037
30
0
11
1418.29314370227
21
182.225565555508
31
0
0
LINE
8
layer0
10
1418.29314370227
20
182.225565555508
30
0
11
1413.18112473732
21
186.161475004753
31
0
0
LINE
8
layer0
10
1413.18112473732
20
186.161475004753
30
0
11
1413.18112473732
21
182.697373389616
31
0
0
LINE
8
layer0
10
1413.18112473732
20
182.697373389616
30
0
11
1418.29314370227
21
178.76146394037
31
0
0
LINE
8
layer0
10
1413.18112473732
20
182.697373389616
30
0
11
1413.18112473732
21
186.161475004753
31
0
0
LINE
8
layer0
10
1413.18112473732
20
186.161475004753
30
0
11
1405.88677997299
21
189.114896966137
31
0
0
LINE
8
layer0
10
1405.88677997299
20
189.114896966137
30
0
11
1405.88677997299
21
185.650795350999
31
0
0
LINE
8
layer0
10
1405.88677997299
20
185.650795350999
30
0
11
1413.18112473732
21
182.697373389616
31
0
0
LINE
8
layer0
10
1446.86754208653
20
194.605278022904
30
0
11
1158.48108262631
21
277.855278022904
31
0
0
LINE
8
layer0
10
1158.48108262631
20
277.855278022904
30
0
11
1149.71843335084
21
279.537110977144
31
0
0
LINE
8
layer0
10
1149.71843335084
20
279.537110977144
30
0
11
1140.34522872828
21
279.782725396661
31
0
0
LINE
8
layer0
10
1140.34522872828
20
279.782725396661
30
0
11
1131.27898333404
21
278.568078830776
31
0
0
LINE
8
layer0
10
1131.27898333404
20
278.568078830776
30
0
11
1123.40716443554
21
276.012069348298
31
0
0
LINE
8
layer0
10
1123.40716443554
20
276.012069348298
30
0
11
1117.50032051278
21
272.364896966137
31
0
0
LINE
8
layer0
10
1117.50032051278
20
272.364896966137
30
0
11
1117.50032051278
21
272.364896966137
31
0
0
LINE
8
layer0
10
1117.50032051278
20
272.364896966137
30
0
11
1457.84830420006
21
174.114896966137
31
0
0
LINE
8
layer0
10
1457.84830420006
20
174.114896966137
30
0
11
1461.21197010854
21
178.496221603871
31
0
0
LINE
8
layer0
10
1461.21197010854
20
178.496221603871
30
0
11
1461.70319894758
21
183.182823915152
31
0
0
LINE
8
layer0
10
1461.70319894758
20
183.182823915152
30
0
11
1459.27390581581
21
187.715946612274
31
0
0
LINE
8
layer0
10
1459.27390581581
20
187.715946612274
30
0
11
1454.16188685085
21
191.65185606152
31
0
0
LINE
8
layer0
10
1454.16188685085
20
191.65185606152
30
0
11
1446.86754208653
21
194.605278022904
31
0
0
LINE
8
layer0
10
1112.74878730304
20
268.24994849958
30
0
11
1169.46184473984
21
257.364896966137
31
0
0
LINE
8
layer0
10
1169.46184473984
20
257.364896966137
30
0
11
1117.50032051278
21
272.364896966137
31
0
0
LINE
8
layer0
10
1117.50032051278
20
272.364896966137
30
0
11
1112.74878730304
21
268.24994849958
31
0
0
LINE
8
layer0
10
1103.84218511678
20
260.536604744873
30
0
11
1160.69919546438
21
259.046729920378
31
0
0
LINE
8
layer0
10
1160.69919546438
20
259.046729920378
30
0
11
1112.74878730304
21
268.24994849958
31
0
0
LINE
8
layer0
10
1112.74878730304
20
268.24994849958
30
0
11
1103.84218511678
21
260.536604744873
31
0
0
LINE
8
layer0
10
1093.45235421279
20
251.538747240995
30
0
11
1151.32599084181
21
259.292344339895
31
0
0
LINE
8
layer0
10
1151.32599084181
20
259.292344339895
30
0
11
1103.84218511678
21
260.536604744873
31
0
0
LINE
8
layer0
10
1103.84218511678
20
260.536604744873
30
0
11
1093.45235421279
21
251.538747240995
31
0
0
LINE
8
layer0
10
1076.2555629164
20
236.645889114741
30
0
11
1142.25974544757
21
258.077697774009
31
0
0
LINE
8
layer0
10
1142.25974544757
20
258.077697774009
30
0
11
1093.45235421279
21
251.538747240995
31
0
0
LINE
8
layer0
10
1093.45235421279
20
251.538747240995
30
0
11
1076.2555629164
21
236.645889114741
31
0
0
LINE
8
layer0
10
1007.79404779265
20
177.356477836005
30
0
11
1134.38792654908
21
255.521688291531
31
0
0
LINE
8
layer0
10
1134.38792654908
20
255.521688291531
30
0
11
1076.2555629164
21
236.645889114741
31
0
0
LINE
8
layer0
10
1076.2555629164
20
236.645889114741
30
0
11
1007.79404779265
21
177.356477836005
31
0
0
LINE
8
layer0
10
935.98108262631
20
85.164625680866
30
0
11
1128.48108262631
21
251.874515909371
31
0
0
LINE
8
layer0
10
1128.48108262631
20
251.874515909371
30
0
11
1007.79404779265
21
177.356477836005
31
0
0
LINE
8
layer0
10
1007.79404779265
20
177.356477836005
30
0
11
925.000320512777
21
105.655006737633
31
0
0
LINE
8
layer0
10
925.000320512777
20
105.655006737633
30
0
11
921.636654604296
21
101.273682099899
31
0
0
LINE
8
layer0
10
921.636654604296
20
101.273682099899
30
0
11
921.145425765262
21
96.5870797886179
31
0
0
LINE
8
layer0
10
921.145425765262
20
96.5870797886179
30
0
11
923.574718897032
21
92.0539570914956
31
0
0
LINE
8
layer0
10
923.574718897032
20
92.0539570914956
30
0
11
928.686737861988
21
88.1180476422497
31
0
0
LINE
8
layer0
10
928.686737861988
20
88.1180476422497
30
0
11
935.98108262631
21
85.164625680866
31
0
0
LINE
8
layer0
10
935.98108262631
20
85.164625680866
30
0
11
935.98108262631
21
85.164625680866
31
0
0
LINE
8
layer0
10
944.210979559424
20
82.7888590759981
30
0
11
965.98108262631
21
111.145387794399
31
0
0
LINE
8
layer0
10
965.98108262631
20
111.145387794399
30
0
11
935.98108262631
21
85.164625680866
31
0
0
LINE
8
layer0
10
935.98108262631
20
85.164625680866
30
0
11
944.210979559424
21
82.7888590759981
31
0
0
LINE
8
layer0
10
959.637667068838
20
78.3355579828656
30
0
11
962.617416717829
21
106.764063156666
31
0
0
LINE
8
layer0
10
962.617416717829
20
106.764063156666
30
0
11
944.210979559424
21
82.7888590759981
31
0
0
LINE
8
layer0
10
944.210979559424
20
82.7888590759981
30
0
11
959.637667068838
21
78.3355579828656
31
0
0
LINE
8
layer0
10
977.633382076594
20
73.1406425308719
30
0
11
962.126187878795
21
102.077460845384
31
0
0
LINE
8
layer0
10
962.126187878795
20
102.077460845384
30
0
11
959.637667068838
21
78.3355579828656
31
0
0
LINE
8
layer0
10
959.637667068838
20
78.3355579828656
30
0
11
977.633382076594
21
73.1406425308719
31
0
0
LINE
8
layer0
10
1007.4190983291
20
64.5422468826761
30
0
11
964.555481010565
21
97.5443381482623
31
0
0
LINE
8
layer0
10
964.555481010565
20
97.5443381482623
30
0
11
977.633382076594
21
73.1406425308719
31
0
0
LINE
8
layer0
10
977.633382076594
20
73.1406425308719
30
0
11
1007.4190983291
21
64.5422468826761
31
0
0
LINE
8
layer0
10
1125.99792088658
20
30.3114893208012
30
0
11
969.667499975521
21
93.6084286990164
31
0
0
LINE
8
layer0
10
969.667499975521
20
93.6084286990164
30
0
11
1007.4190983291
21
64.5422468826761
31
0
0
LINE
8
layer0
10
1007.4190983291
20
64.5422468826761
30
0
11
1125.99792088658
21
30.3114893208012
31
0
0
LINE
8
layer0
10
1265.34830420006
20
7.40500673763268
30
0
11
976.961844739843
21
90.6550067376327
31
0
0
LINE
8
layer0
10
976.961844739843
20
90.6550067376327
30
0
11
1125.99792088658
21
30.3114893208012
31
0
0
LINE
8
layer0
10
1125.99792088658
20
30.3114893208012
30
0
11
1224.36754208653
21
1.9146256808661
31
0
0
LINE
8
layer0
10
1224.36754208653
20
1.9146256808661
30
0
11
1233.130191362
21
0.232792726625576
31
0
0
LINE
8
layer0
10
1233.130191362
20
0.232792726625576
30
0
11
1242.50339598456
21
-0.0128216928914071
31
0
0
LINE
8
layer0
10
1242.50339598456
20
-0.0128216928914071
30
0
11
1251.5696413788
21
1.2018248729936
31
0
0
LINE
8
layer0
10
1251.5696413788
20
1.2018248729936
30
0
11
1259.44146027729
21
3.75783435547174
31
0
0
LINE
8
layer0
10
1259.44146027729
20
3.75783435547174
30
0
11
1265.34830420006
21
7.40500673763268
31
0
0
LINE
8
layer0
10
1265.34830420006
20
7.40500673763268
30
0
11
1265.34830420006
21
7.40500673763268
31
0
0
LINE
8
layer0
10
1270.0998374098
20
11.5199552041892
30
0
11
1213.38677997299
21
22.4050067376327
31
0
0
LINE
8
layer0
10
1213.38677997299
20
22.4050067376327
30
0
11
1265.34830420006
21
7.40500673763268
31
0
0
LINE
8
layer0
10
1265.34830420006
20
7.40500673763268
30
0
11
1270.0998374098
21
11.5199552041892
31
0
0
LINE
8
layer0
10
1279.00643959606
20
19.2332989588966
30
0
11
1222.14942924846
21
20.7231737833922
31
0
0
LINE
8
layer0
10
1222.14942924846
20
20.7231737833922
30
0
11
1270.0998374098
21
11.5199552041892
31
0
0
LINE
8
layer0
10
1270.0998374098
20
11.5199552041892
30
0
11
1279.00643959606
21
19.2332989588966
31
0
0
LINE
8
layer0
10
1289.39627050005
20
28.2311564627751
30
0
11
1231.52263387102
21
20.4775593638751
31
0
0
LINE
8
layer0
10
1231.52263387102
20
20.4775593638751
30
0
11
1279.00643959606
21
19.2332989588966
31
0
0
LINE
8
layer0
10
1279.00643959606
20
19.2332989588966
30
0
11
1289.39627050005
21
28.2311564627751
31
0
0
LINE
8
layer0
10
1306.59306179644
20
43.1240145890292
30
0
11
1240.58887926527
21
21.6922059297601
31
0
0
LINE
8
layer0
10
1240.58887926527
20
21.6922059297601
30
0
11
1289.39627050005
21
28.2311564627751
31
0
0
LINE
8
layer0
10
1289.39627050005
20
28.2311564627751
30
0
11
1306.59306179644
21
43.1240145890292
31
0
0
LINE
8
layer0
10
1375.05457692019
20
102.413425867766
30
0
11
1248.46069816376
21
24.2482154122383
31
0
0
LINE
8
layer0
10
1248.46069816376
20
24.2482154122383
30
0
11
1306.59306179644
21
43.1240145890292
31
0
0
LINE
8
layer0
10
1306.59306179644
20
43.1240145890292
30
0
11
1375.05457692019
21
102.413425867766
31
0
0
LINE
8
layer0
10
1457.84830420006
20
174.114896966137
30
0
11
1431.86754208653
21
181.614896966137
31
0
0
LINE
8
layer0
10
1431.86754208653
20
181.614896966137
30
0
11
1254.36754208653
21
27.8953877943994
31
0
0
LINE
8
layer0
10
1254.36754208653
20
27.8953877943994
30
0
11
1375.05457692019
21
102.413425867766
31
0
0
LINE
8
layer0
10
1375.05457692019
20
102.413425867766
30
0
11
1457.84830420006
21
174.114896966137
31
0
0
LINE
8
layer0
10
1457.84830420006
20
174.114896966137
30
0
11
1457.84830420006
21
174.114896966137
31
0
0
LINE
8
layer0
10
1427.75259361997
20
182.802780268571
30
0
11
1416.86754208653
21
168.62451590937
31
0
0
LINE
8
layer0
10
1416.86754208653
20
168.62451590937
30
0
11
1431.86754208653
21
181.614896966137
31
0
0
LINE
8
layer0
10
1431.86754208653
20
181.614896966137
30
0
11
1427.75259361997
21
182.802780268571
31
0
0
LINE
8
layer0
10
1421.44881713811
20
184.622523792929
30
0
11
1420.23120799501
21
173.005840547104
31
0
0
LINE
8
layer0
10
1420.23120799501
20
173.005840547104
30
0
11
1427.75259361997
21
182.802780268571
31
0
0
LINE
8
layer0
10
1427.75259361997
20
182.802780268571
30
0
11
1421.44881713811
21
184.622523792929
31
0
0
LINE
8
layer0
10
1416.19600474978
20
186.138880116131
30
0
11
1420.72243683404
21
177.692442858385
31
0
0
LINE
8
layer0
10
1420.72243683404
20
177.692442858385
30
0
11
1421.44881713811
21
184.622523792929
31
0
0
LINE
8
layer0
10
1421.44881713811
20
184.622523792929
30
0
11
1416.19600474978
21
186.138880116131
31
0
0
LINE
8
layer0
10
1411.41964304879
20
187.517696973039
30
0
11
1418.29314370227
21
182.225565555508
31
0
0
LINE
8
layer0
10
1418.29314370227
20
182.225565555508
30
0
11
1416.19600474978
21
186.138880116131
31
0
0
LINE
8
layer0
10
1416.19600474978
20
186.138880116131
30
0
11
1411.41964304879
21
187.517696973039
31
0
0
LINE
8
layer0
10
1405.88677997299
20
189.114896966137
30
0
11
1413.18112473732
21
186.161475004753
31
0
0
LINE
8
layer0
10
1413.18112473732
20
186.161475004753
30
0
11
1411.41964304879
21
187.517696973039
31
0
0
LINE
8
layer0
10
1411.41964304879
20
187.517696973039
30
0
11
1405.88677997299
21
189.114896966137
31
0
0
ENDBLK
0
BLOCK
8
layer0
2
PF_OBJECT43
70
0
10
0
20
0
30
0
0
LINE
8
layer0
10
1168.54678123038
20
125.704516538064
30
0
11
1413.63197050138
21
54.9545165380641
31
0
0
LINE
8
layer0
10
1413.63197050138
20
54.9545165380641
30
0
11
1420.9263152657
21
52.0010945766804
31
0
0
LINE
8
layer0
10
1420.9263152657
20
52.0010945766804
30
0
11
1426.03833423066
21
48.0651851274345
31
0
0
LINE
8
layer0
10
1426.03833423066
20
48.0651851274345
30
0
11
1428.46762736243
21
43.5320624303123
31
0
0
LINE
8
layer0
10
1428.46762736243
20
43.5320624303123
30
0
11
1427.97639852339
21
38.8454601190311
31
0
0
LINE
8
layer0
10
1427.97639852339
20
38.8454601190311
30
0
11
1424.61273261491
21
34.4641354812975
31
0
0
LINE
8
layer0
10
1424.61273261491
20
34.4641354812975
30
0
11
1257.11273261491
21
-110.595119652596
31
0
0
LINE
8
layer0
10
1257.11273261491
20
-110.595119652596
30
0
11
1251.20588869214
21
-114.242292034757
31
0
0
LINE
8
layer0
10
1251.20588869214
20
-114.242292034757
30
0
11
1243.33406979365
21
-116.798301517235
31
0
0
LINE
8
layer0
10
1243.33406979365
20
-116.798301517235
30
0
11
1234.26782439941
21
-118.01294808312
31
0
0
LINE
8
layer0
10
1234.26782439941
20
-118.01294808312
30
0
11
1224.89461977685
21
-117.767333663603
31
0
0
LINE
8
layer0
10
1224.89461977685
20
-117.767333663603
30
0
11
1216.13197050138
21
-116.085500709362
31
0
0
LINE
8
layer0
10
1216.13197050138
20
-116.085500709362
30
0
11
971.046781230382
21
-45.3355007093626
31
0
0
LINE
8
layer0
10
971.046781230382
20
-45.3355007093626
30
0
11
963.75243646606
21
-42.3820787479788
31
0
0
LINE
8
layer0
10
963.75243646606
20
-42.3820787479788
30
0
11
958.640417501104
21
-38.446169298733
31
0
0
LINE
8
layer0
10
958.640417501104
20
-38.446169298733
30
0
11
956.211124369334
21
-33.9130466016107
31
0
0
LINE
8
layer0
10
956.211124369334
20
-33.9130466016107
30
0
11
956.702353208368
21
-29.2264442903296
31
0
0
LINE
8
layer0
10
956.702353208368
20
-29.2264442903296
30
0
11
960.066019116849
21
-24.8451196525959
31
0
0
LINE
8
layer0
10
960.066019116849
20
-24.8451196525959
30
0
11
1127.56601911685
21
120.214135481297
31
0
0
LINE
8
layer0
10
1127.56601911685
20
120.214135481297
30
0
11
1133.47286303962
21
123.861307863458
31
0
0
LINE
8
layer0
10
1133.47286303962
20
123.861307863458
30
0
11
1141.34468193811
21
126.417317345937
31
0
0
LINE
8
layer0
10
1141.34468193811
20
126.417317345937
30
0
11
1150.41092733235
21
127.631963911822
31
0
0
LINE
8
layer0
10
1150.41092733235
20
127.631963911822
30
0
11
1159.78413195491
21
127.386349492305
31
0
0
LINE
8
layer0
10
1159.78413195491
20
127.386349492305
30
0
11
1168.54678123038
21
125.704516538064
31
0
0
LINE
8
layer0
10
1168.54678123038
20
130.034643556986
30
0
11
1413.63197050138
21
59.2846435569863
31
0
0
LINE
8
layer0
10
1413.63197050138
20
59.2846435569863
30
0
11
1413.63197050138
21
54.9545165380641
31
0
0
LINE
8
layer0
10
1413.63197050138
20
54.9545165380641
30
0
11
1168.54678123038
21
125.704516538064
31
0
0
LINE
8
layer0
10
1168.54678123038
20
125.704516538064
30
0
11
1168.54678123038
21
130.034643556986
31
0
0
LINE
8
layer0
10
1413.63197050138
20
184.85832710573
30
0
11
1413.63197050138
21
59.2846435569863
31
0
0
LINE
8
layer0
10
1413.63197050138
20
59.2846435569863
30
0
11
1168.54678123038
21
130.034643556986
31
0
0
LINE
8
layer0
10
1168.54678123038
20
130.034643556986
30
0
11
1168.54678123038
21
255.60832710573
31
0
0
LINE
8
layer0
10
1168.54678123038
20
255.60832710573
30
0
11
1413.63197050138
21
184.85832710573
31
0
0
LINE
8
layer0
10
1159.78413195491
20
131.716476511227
30
0
11
1168.54678123038
21
130.034643556986
31
0
0
LINE
8
layer0
10
1168.54678123038
20
130.034643556986
30
0
11
1168.54678123038
21
125.704516538064
31
0
0
LINE
8
layer0
10
1168.54678123038
20
125.704516538064
30
0
11
1159.78413195491
21
127.386349492305
31
0
0
LINE
8
layer0
10
1159.78413195491
20
127.386349492305
30
0
11
1159.78413195491
21
131.716476511227
31
0
0
LINE
8
layer0
10
1168.54678123038
20
255.60832710573
30
0
11
1168.54678123038
21
130.034643556986
31
0
0
LINE
8
layer0
10
1168.54678123038
20
130.034643556986
30
0
11
1159.78413195491
21
131.716476511227
31
0
0
LINE
8
layer0
10
1159.78413195491
20
131.716476511227
30
0
11
1159.78413195491
21
257.29016005997
31
0
0
LINE
8
layer0
10
1159.78413195491
20
257.29016005997
30
0
11
1168.54678123038
21
255.60832710573
31
0
0
LINE
8
layer0
10
1150.41092733235
20
131.962090930744
30
0
11
1159.78413195491
21
131.716476511227
31
0
0
LINE
8
layer0
10
1159.78413195491
20
131.716476511227
30
0
11
1159.78413195491
21
127.386349492305
31
0
0
LINE
8
layer0
10
1159.78413195491
20
127.386349492305
30
0
11
1150.41092733235
21
127.631963911822
31
0
0
LINE
8
layer0
10
1150.41092733235
20
127.631963911822
30
0
11
1150.41092733235
21
131.962090930744
31
0
0
LINE
8
layer0
10
1159.78413195491
20
257.29016005997
30
0
11
1159.78413195491
21
131.716476511227
31
0
0
LINE
8
layer0
10
1159.78413195491
20
131.716476511227
30
0
11
1157.51474176584
21
131.775943361295
31
0
0
LINE
8
layer0
10
1157.51474176584
20
131.775943361295
30
0
11
1157.51474176584
21
257.349626910039
31
0
0
LINE
8
layer0
10
1157.51474176584
20
257.349626910039
30
0
11
1159.78413195491
21
257.29016005997
31
0
0
LINE
8
layer0
10
1157.51474176584
20
257.349626910039
30
0
11
1157.51474176584
21
131.775943361295
31
0
0
LINE
8
layer0
10
1157.51474176584
20
131.775943361295
30
0
11
1150.54066924986
21
131.958691187856
31
0
0
LINE
8
layer0
10
1150.54066924986
20
131.958691187856
30
0
11
1150.54066924986
21
257.532374736599
31
0
0
LINE
8
layer0
10
1150.54066924986
20
257.532374736599
30
0
11
1157.51474176584
21
257.349626910039
31
0
0
LINE
8
layer0
10
1150.54066924986
20
257.532374736599
30
0
11
1150.54066924986
21
131.958691187856
31
0
0
LINE
8
layer0
10
1150.54066924986
20
131.958691187856
30
0
11
1150.41092733235
21
131.962090930744
31
0
0
LINE
8
layer0
10
1150.41092733235
20
131.962090930744
30
0
11
1150.41092733235
21
257.535774479487
31
0
0
LINE
8
layer0
10
1150.41092733235
20
257.535774479487
30
0
11
1150.54066924986
21
257.532374736599
31
0
0
LINE
8
layer0
10
1141.34468193811
20
130.747444364859
30
0
11
1150.41092733235
21
131.962090930744
31
0
0
LINE
8
layer0
10
1150.41092733235
20
131.962090930744
30
0
11
1150.41092733235
21
127.631963911822
31
0
0
LINE
8
layer0
10
1150.41092733235
20
127.631963911822
30
0
11
1141.34468193811
21
126.417317345937
31
0
0
LINE
8
layer0
10
1141.34468193811
20
126.417317345937
30
0
11
1141.34468193811
21
130.747444364859
31
0
0
LINE
8
layer0
10
1150.41092733235
20
257.535774479487
30
0
11
1150.41092733235
21
131.962090930744
31
0
0
LINE
8
layer0
10
1150.41092733235
20
131.962090930744
30
0
11
1141.34468193811
21
130.747444364859
31
0
0
LINE
8
layer0
10
1141.34468193811
20
130.747444364859
30
0
11
1141.34468193811
21
256.321127913602
31
0
0
LINE
8
layer0
10
1141.34468193811
20
256.321127913602
30
0
11
1150.41092733235
21
257.535774479487
31
0
0
LINE
8
layer0
10
1133.47286303962
20
128.191434882381
30
0
11
1141.34468193811
21
130.747444364859
31
0
0
LINE
8
layer0
10
1141.34468193811
20
130.747444364859
30
0
11
1141.34468193811
21
126.417317345937
31
0
0
LINE
8
layer0
10
1141.34468193811
20
126.417317345937
30
0
11
1133.47286303962
21
123.861307863458
31
0
0
LINE
8
layer0
10
1133.47286303962
20
123.861307863458
30
0
11
1133.47286303962
21
128.191434882381
31
0
0
LINE
8
layer0
10
1141.34468193811
20
256.321127913602
30
0
11
1141.34468193811
21
130.747444364859
31
0
0
LINE
8
layer0
10
1141.34468193811
20
130.747444364859
30
0
11
1140.685431426
21
130.533383220669
31
0
0
LINE
8
layer0
10
1140.685431426
20
130.533383220669
30
0
11
1140.685431426
21
256.107066769413
31
0
0
LINE
8
layer0
10
1140.685431426
20
256.107066769413
30
0
11
1141.34468193811
21
256.321127913602
31
0
0
LINE
8
layer0
10
1140.685431426
20
256.107066769413
30
0
11
1140.685431426
21
130.533383220669
31
0
0
LINE
8
layer0
10
1140.685431426
20
130.533383220669
30
0
11
1133.47286303962
21
128.191434882381
31
0
0
LINE
8
layer0
10
1133.47286303962
20
128.191434882381
30
0
11
1133.47286303962
21
253.765118431124
31
0
0
LINE
8
layer0
10
1133.47286303962
20
253.765118431124
30
0
11
1140.685431426
21
256.107066769413
31
0
0
LINE
8
layer0
10
1127.56601911685
20
124.54426250022
30
0
11
1133.47286303962
21
128.191434882381
31
0
0
LINE
8
layer0
10
1133.47286303962
20
128.191434882381
30
0
11
1133.47286303962
21
123.861307863458
31
0
0
LINE
8
layer0
10
1133.47286303962
20
123.861307863458
30
0
11
1127.56601911685
21
120.214135481297
31
0
0
LINE
8
layer0
10
1127.56601911685
20
120.214135481297
30
0
11
1127.56601911685
21
124.54426250022
31
0
0
LINE
8
layer0
10
1133.47286303962
20
253.765118431124
30
0
11
1133.47286303962
21
128.191434882381
31
0
0
LINE
8
layer0
10
1133.47286303962
20
128.191434882381
30
0
11
1132.79290650202
21
127.771596684961
31
0
0
LINE
8
layer0
10
1132.79290650202
20
127.771596684961
30
0
11
1132.79290650202
21
253.345280233705
31
0
0
LINE
8
layer0
10
1132.79290650202
20
253.345280233705
30
0
11
1133.47286303962
21
253.765118431124
31
0
0
LINE
8
layer0
10
1132.79290650202
20
253.345280233705
30
0
11
1132.79290650202
21
127.771596684961
31
0
0
LINE
8
layer0
10
1132.79290650202
20
127.771596684961
30
0
11
1127.56601911685
21
124.54426250022
31
0
0
LINE
8
layer0
10
1127.56601911685
20
124.54426250022
30
0
11
1127.56601911685
21
250.117946048963
31
0
0
LINE
8
layer0
10
1127.56601911685
20
250.117946048963
30
0
11
1132.79290650202
21
253.345280233705
31
0
0
LINE
8
layer0
10
960.066019116849
20
-20.5149926336737
30
0
11
1127.56601911685
21
124.54426250022
31
0
0
LINE
8
layer0
10
1127.56601911685
20
124.54426250022
30
0
11
1127.56601911685
21
120.214135481297
31
0
0
LINE
8
layer0
10
1127.56601911685
20
120.214135481297
30
0
11
960.066019116849
21
-24.8451196525959
31
0
0
LINE
8
layer0
10
960.066019116849
20
-24.8451196525959
30
0
11
960.066019116849
21
-20.5149926336737
31
0
0
LINE
8
layer0
10
1127.56601911685
20
250.117946048963
30
0
11
1127.56601911685
21
124.54426250022
31
0
0
LINE
8
layer0
10
1127.56601911685
20
124.54426250022
30
0
11
1127.05715597116
21
124.103574089007
31
0
0
LINE
8
layer0
10
1127.05715597116
20
124.103574089007
30
0
11
1127.05715597116
21
249.677257637751
31
0
0
LINE
8
layer0
10
1127.05715597116
20
249.677257637751
30
0
11
1127.56601911685
21
250.117946048963
31
0
0
LINE
8
layer0
10
1127.05715597116
20
249.677257637751
30
0
11
1127.05715597116
21
124.103574089007
31
0
0
LINE
8
layer0
10
1127.05715597116
20
124.103574089007
30
0
11
1118.42382972351
21
116.626894239375
31
0
0
LINE
8
layer0
10
1118.42382972351
20
116.626894239375
30
0
11
1118.42382972351
21
242.200577788119
31
0
0
LINE
8
layer0
10
1118.42382972351
20
242.200577788119
30
0
11
1127.05715597116
21
249.677257637751
31
0
0
LINE
8
layer0
10
1118.42382972351
20
242.200577788119
30
0
11
1118.42382972351
21
116.626894239375
31
0
0
LINE
8
layer0
10
1118.42382972351
20
116.626894239375
30
0
11
960.066019116849
21
-20.5149926336737
31
0
0
LINE
8
layer0
10
960.066019116849
20
-20.5149926336737
30
0
11
960.066019116849
21
105.05869091507
31
0
0
LINE
8
layer0
10
960.066019116849
20
105.05869091507
30
0
11
1118.42382972351
21
242.200577788119
31
0
0
LINE
8
layer0
10
956.702353208368
20
-24.8963172714074
30
0
11
960.066019116849
21
-20.5149926336737
31
0
0
LINE
8
layer0
10
960.066019116849
20
-20.5149926336737
30
0
11
960.066019116849
21
-24.8451196525959
31
0
0
LINE
8
layer0
10
960.066019116849
20
-24.8451196525959
30
0
11
956.702353208368
21
-29.2264442903296
31
0
0
LINE
8
layer0
10
956.702353208368
20
-29.2264442903296
30
0
11
956.702353208368
21
-24.8963172714074
31
0
0
LINE
8
layer0
10
960.066019116849
20
105.05869091507
30
0
11
960.066019116849
21
-20.5149926336737
31
0
0
LINE
8
layer0
10
960.066019116849
20
-20.5149926336737
30
0
11
956.702353208368
21
-24.8963172714074
31
0
0
LINE
8
layer0
10
956.702353208368
20
-24.8963172714074
30
0
11
956.702353208368
21
100.677366277336
31
0
0
LINE
8
layer0
10
956.702353208368
20
100.677366277336
30
0
11
960.066019116849
21
105.05869091507
31
0
0
LINE
8
layer0
10
956.211124369334
20
-29.5829195826886
30
0
11
956.702353208368
21
-24.8963172714074
31
0
0
LINE
8
layer0
10
956.702353208368
20
-24.8963172714074
30
0
11
956.702353208368
21
-29.2264442903296
31
0
0
LINE
8
layer0
10
956.702353208368
20
-29.2264442903296
30
0
11
956.211124369334
21
-33.9130466016107
31
0
0
LINE
8
layer0
10
956.211124369334
20
-33.9130466016107
30
0
11
956.211124369334
21
-29.5829195826886
31
0
0
LINE
8
layer0
10
956.702353208368
20
100.677366277336
30
0
11
956.702353208368
21
-24.8963172714074
31
0
0
LINE
8
layer0
10
956.702353208368
20
-24.8963172714074
30
0
11
956.583419508232
21
-26.0310123659461
31
0
0
LINE
8
layer0
10
956.583419508232
20
-26.0310123659461
30
0
11
956.583419508232
21
99.5426711827976
31
0
0
LINE
8
layer0
10
956.583419508232
20
99.5426711827976
30
0
11
956.702353208368
21
100.677366277336
31
0
0
LINE
8
layer0
10
956.583419508232
20
99.5426711827976
30
0
11
956.583419508232
21
-26.0310123659461
31
0
0
LINE
8
layer0
10
956.583419508232
20
-26.0310123659461
30
0
11
956.211124369334
21
-29.5829195826886
31
0
0
LINE
8
layer0
10
956.211124369334
20
-29.5829195826886
30
0
11
956.211124369334
21
95.9907639660551
31
0
0
LINE
8
layer0
10
956.211124369334
20
95.9907639660551
30
0
11
956.583419508232
21
99.5426711827976
31
0
0
LINE
8
layer0
10
958.640417501104
20
-34.1160422798108
30
0
11
956.211124369334
21
-29.5829195826886
31
0
0
LINE
8
layer0
10
956.211124369334
20
-29.5829195826886
30
0
11
956.211124369334
21
-33.9130466016107
31
0
0
LINE
8
layer0
10
956.211124369334
20
-33.9130466016107
30
0
11
958.640417501104
21
-38.446169298733
31
0
0
LINE
8
layer0
10
958.640417501104
20
-38.446169298733
30
0
11
958.640417501104
21
-34.1160422798108
31
0
0
LINE
8
layer0
10
956.211124369334
20
95.9907639660551
30
0
11
956.211124369334
21
-29.5829195826886
31
0
0
LINE
8
layer0
10
956.211124369334
20
-29.5829195826886
30
0
11
956.537859621054
21
-30.1926158627106
31
0
0
LINE
8
layer0
10
956.537859621054
20
-30.1926158627106
30
0
11
956.537859621054
21
95.381067686033
31
0
0
LINE
8
layer0
10
956.537859621054
20
95.381067686033
30
0
11
956.211124369334
21
95.9907639660551
31
0
0
LINE
8
layer0
10
956.537859621054
20
95.381067686033
30
0
11
956.537859621054
21
-30.1926158627106
31
0
0
LINE
8
layer0
10
956.537859621054
20
-30.1926158627106
30
0
11
958.640417501104
21
-34.1160422798108
31
0
0
LINE
8
layer0
10
958.640417501104
20
-34.1160422798108
30
0
11
958.640417501104
21
91.4576412689329
31
0
0
LINE
8
layer0
10
958.640417501104
20
91.4576412689329
30
0
11
956.537859621054
21
95.381067686033
31
0
0
LINE
8
layer0
10
963.75243646606
20
-38.0519517290567
30
0
11
958.640417501104
21
-34.1160422798108
31
0
0
LINE
8
layer0
10
958.640417501104
20
-34.1160422798108
30
0
11
958.640417501104
21
-38.446169298733
31
0
0
LINE
8
layer0
10
958.640417501104
20
-38.446169298733
30
0
11
963.75243646606
21
-42.3820787479788
31
0
0
LINE
8
layer0
10
963.75243646606
20
-42.3820787479788
30
0
11
963.75243646606
21
-38.0519517290567
31
0
0
LINE
8
layer0
10
958.640417501104
20
91.4576412689329
30
0
11
958.640417501104
21
-34.1160422798108
31
0
0
LINE
8
layer0
10
958.640417501104
20
-34.1160422798108
30
0
11
961.171867039697
21
-36.0650875058828
31
0
0
LINE
8
layer0
10
961.171867039697
20
-36.0650875058828
30
0
11
961.171867039697
21
89.5085960428607
31
0
0
LINE
8
layer0
10
961.171867039697
20
89.5085960428607
30
0
11
958.640417501104
21
91.4576412689329
31
0
0
LINE
8
layer0
10
961.171867039697
20
89.5085960428607
30
0
11
961.171867039697
21
-36.0650875058828
31
0
0
LINE
8
layer0
10
961.171867039697
20
-36.0650875058828
30
0
11
963.75243646606
21
-38.0519517290567
31
0
0
LINE
8
layer0
10
963.75243646606
20
-38.0519517290567
30
0
11
963.75243646606
21
87.521731819687
31
0
0
LINE
8
layer0
10
963.75243646606
20
87.521731819687
30
0
11
961.171867039697
21
89.5085960428607
31
0
0
LINE
8
layer0
10
971.046781230382
20
-41.0053736904404
30
0
11
963.75243646606
21
-38.0519517290567
31
0
0
LINE
8
layer0
10
963.75243646606
20
-38.0519517290567
30
0
11
963.75243646606
21
-42.3820787479788
31
0
0
LINE
8
layer0
10
963.75243646606
20
-42.3820787479788
30
0
11
971.046781230382
21
-45.3355007093626
31
0
0
LINE
8
layer0
10
971.046781230382
20
-45.3355007093626
30
0
11
971.046781230382
21
-41.0053736904404
31
0
0
LINE
8
layer0
10
963.75243646606
20
87.521731819687
30
0
11
963.75243646606
21
-38.0519517290567
31
0
0
LINE
8
layer0
10
963.75243646606
20
-38.0519517290567
30
0
11
969.266653240865
21
-40.2846140789634
31
0
0
LINE
8
layer0
10
969.266653240865
20
-40.2846140789634
30
0
11
969.266653240865
21
85.2890694697803
31
0
0
LINE
8
layer0
10
969.266653240865
20
85.2890694697803
30
0
11
963.75243646606
21
87.521731819687
31
0
0
LINE
8
layer0
10
969.266653240865
20
85.2890694697803
30
0
11
969.266653240865
21
-40.2846140789634
31
0
0
LINE
8
layer0
10
969.266653240865
20
-40.2846140789634
30
0
11
971.046781230382
21
-41.0053736904404
31
0
0
LINE
8
layer0
10
971.046781230382
20
-41.0053736904404
30
0
11
971.046781230382
21
84.5683098583033
31
0
0
LINE
8
layer0
10
971.046781230382
20
84.5683098583033
30
0
11
969.266653240865
21
85.2890694697803
31
0
0
LINE
8
layer0
10
1216.13197050138
20
-111.75537369044
30
0
11
971.046781230382
21
-41.0053736904404
31
0
0
LINE
8
layer0
10
971.046781230382
20
-41.0053736904404
30
0
11
971.046781230382
21
-45.3355007093626
31
0
0
LINE
8
layer0
10
971.046781230382
20
-45.3355007093626
30
0
11
1216.13197050138
21
-116.085500709362
31
0
0
LINE
8
layer0
10
1216.13197050138
20
-116.085500709362
30
0
11
1216.13197050138
21
-111.75537369044
31
0
0
LINE
8
layer0
10
971.046781230382
20
84.5683098583033
30
0
11
971.046781230382
21
-41.0053736904404
31
0
0
LINE
8
layer0
10
971.046781230382
20
-41.0053736904404
30
0
11
980.426510830315
21
-43.7130683951641
31
0
0
LINE
8
layer0
10
980.426510830315
20
-43.7130683951641
30
0
11
980.426510830315
21
81.8606151535796
31
0
0
LINE
8
layer0
10
980.426510830315
20
81.8606151535796
30
0
11
971.046781230382
21
84.5683098583033
31
0
0
LINE
8
layer0
10
980.426510830315
20
81.8606151535796
30
0
11
980.426510830315
21
-43.7130683951641
31
0
0
LINE
8
layer0
10
980.426510830315
20
-43.7130683951641
30
0
11
1014.22086377653
21
-53.4686577804558
31
0
0
LINE
8
layer0
10
1014.22086377653
20
-53.4686577804558
30
0
11
1014.22086377653
21
72.1050257682878
31
0
0
LINE
8
layer0
10
1014.22086377653
20
72.1050257682878
30
0
11
980.426510830315
21
81.8606151535796
31
0
0
LINE
8
layer0
10
1014.22086377653
20
72.1050257682878
30
0
11
1014.22086377653
21
-53.4686577804558
31
0
0
LINE
8
layer0
10
1014.22086377653
20
-53.4686577804558
30
0
11
1216.13197050138
21
-111.75537369044
31
0
0
LINE
8
layer0
10
1216.13197050138
20
-111.75537369044
30
0
11
1216.13197050138
21
13.8183098583033
31
0
0
LINE
8
layer0
10
1216.13197050138
20
13.8183098583033
30
0
11
1014.22086377653
21
72.1050257682878
31
0
0
LINE
8
layer0
10
1224.89461977685
20
-113.437206644681
30
0
11
1216.13197050138
21
-111.75537369044
31
0
0
LINE
8
layer0
10
1216.13197050138
20
-111.75537369044
30
0
11
1216.13197050138
21
-116.085500709362
31
0
0
LINE
8
layer0
10
1216.13197050138
20
-116.085500709362
30
0
11
1224.89461977685
21
-117.767333663603
31
0
0
LINE
8
layer0
10
1224.89461977685
20
-117.767333663603
30
0
11
1224.89461977685
21
-113.437206644681
31
0
0
LINE
8
layer0
10
1216.13197050138
20
13.8183098583033
30
0
11
1216.13197050138
21
-111.75537369044
31
0
0
LINE
8
layer0
10
1216.13197050138
20
-111.75537369044
30
0
11
1224.89461977685
21
-113.437206644681
31
0
0
LINE
8
layer0
10
1224.89461977685
20
-113.437206644681
30
0
11
1224.89461977685
21
12.1364769040628
31
0
0
LINE
8
layer0
10
1224.89461977685
20
12.1364769040628
30
0
11
1216.13197050138
21
13.8183098583033
31
0
0
LINE
8
layer0
10
1234.26782439941
20
-113.682821064198
30
0
11
1224.89461977685
21
-113.437206644681
31
0
0
LINE
8
layer0
10
1224.89461977685
20
-113.437206644681
30
0
11
1224.89461977685
21
-117.767333663603
31
0
0
LINE
8
layer0
10
1224.89461977685
20
-117.767333663603
30
0
11
1234.26782439941
21
-118.01294808312
31
0
0
LINE
8
layer0
10
1234.26782439941
20
-118.01294808312
30
0
11
1234.26782439941
21
-113.682821064198
31
0
0
LINE
8
layer0
10
1224.89461977685
20
12.1364769040628
30
0
11
1224.89461977685
21
-113.437206644681
31
0
0
LINE
8
layer0
10
1224.89461977685
20
-113.437206644681
30
0
11
1234.26782439941
21
-113.682821064198
31
0
0
LINE
8
layer0
10
1234.26782439941
20
-113.682821064198
30
0
11
1234.26782439941
21
11.8908624845458
31
0
0
LINE
8
layer0
10
1234.26782439941
20
11.8908624845458
30
0
11
1224.89461977685
21
12.1364769040628
31
0
0
LINE
8
layer0
10
1243.33406979365
20
-112.468174498313
30
0
11
1234.26782439941
21
-113.682821064198
31
0
0
LINE
8
layer0
10
1234.26782439941
20
-113.682821064198
30
0
11
1234.26782439941
21
-118.01294808312
31
0
0
LINE
8
layer0
10
1234.26782439941
20
-118.01294808312
30
0
11
1243.33406979365
21
-116.798301517235
31
0
0
LINE
8
layer0
10
1243.33406979365
20
-116.798301517235
30
0
11
1243.33406979365
21
-112.468174498313
31
0
0
LINE
8
layer0
10
1234.26782439941
20
11.8908624845458
30
0
11
1234.26782439941
21
-113.682821064198
31
0
0
LINE
8
layer0
10
1234.26782439941
20
-113.682821064198
30
0
11
1236.68638580654
21
-113.358795276254
31
0
0
LINE
8
layer0
10
1236.68638580654
20
-113.358795276254
30
0
11
1236.68638580654
21
12.2148882724893
31
0
0
LINE
8
layer0
10
1236.68638580654
20
12.2148882724893
30
0
11
1234.26782439941
21
11.8908624845458
31
0
0
LINE
8
layer0
10
1236.68638580654
20
12.2148882724893
30
0
11
1236.68638580654
21
-113.358795276254
31
0
0
LINE
8
layer0
10
1236.68638580654
20
-113.358795276254
30
0
11
1243.33406979365
21
-112.468174498313
31
0
0
LINE
8
layer0
10
1243.33406979365
20
-112.468174498313
30
0
11
1243.33406979365
21
13.1055090504308
31
0
0
LINE
8
layer0
10
1243.33406979365
20
13.1055090504308
30
0
11
1236.68638580654
21
12.2148882724893
31
0
0
LINE
8
layer0
10
1251.20588869214
20
-109.912165015835
30
0
11
1243.33406979365
21
-112.468174498313
31
0
0
LINE
8
layer0
10
1243.33406979365
20
-112.468174498313
30
0
11
1243.33406979365
21
-116.798301517235
31
0
0
LINE
8
layer0
10
1243.33406979365
20
-116.798301517235
30
0
11
1251.20588869214
21
-114.242292034757
31
0
0
LINE
8
layer0
10
1251.20588869214
20
-114.242292034757
30
0
11
1251.20588869214
21
-109.912165015835
31
0
0
LINE
8
layer0
10
1243.33406979365
20
13.1055090504308
30
0
11
1243.33406979365
21
-112.468174498313
31
0
0
LINE
8
layer0
10
1243.33406979365
20
-112.468174498313
30
0
11
1243.50353601184
21
-112.413148173873
31
0
0
LINE
8
layer0
10
1243.50353601184
20
-112.413148173873
30
0
11
1243.50353601184
21
13.1605353748711
31
0
0
LINE
8
layer0
10
1243.50353601184
20
13.1605353748711
30
0
11
1243.33406979365
21
13.1055090504308
31
0
0
LINE
8
layer0
10
1243.50353601184
20
13.1605353748711
30
0
11
1243.50353601184
21
-112.413148173873
31
0
0
LINE
8
layer0
10
1243.50353601184
20
-112.413148173873
30
0
11
1251.20588869214
21
-109.912165015835
31
0
0
LINE
8
layer0
10
1251.20588869214
20
-109.912165015835
30
0
11
1251.20588869214
21
15.661518532909
31
0
0
LINE
8
layer0
10
1251.20588869214
20
15.661518532909
30
0
11
1243.50353601184
21
13.1605353748711
31
0
0
LINE
8
layer0
10
1257.11273261491
20
-106.264992633674
30
0
11
1251.20588869214
21
-109.912165015835
31
0
0
LINE
8
layer0
10
1251.20588869214
20
-109.912165015835
30
0
11
1251.20588869214
21
-114.242292034757
31
0
0
LINE
8
layer0
10
1251.20588869214
20
-114.242292034757
30
0
11
1257.11273261491
21
-110.595119652596
31
0
0
LINE
8
layer0
10
1257.11273261491
20
-110.595119652596
30
0
11
1257.11273261491
21
-106.264992633674
31
0
0
LINE
8
layer0
10
1251.20588869214
20
15.661518532909
30
0
11
1251.20588869214
21
-109.912165015835
31
0
0
LINE
8
layer0
10
1251.20588869214
20
-109.912165015835
30
0
11
1252.5049769741
21
-109.1100448031
31
0
0
LINE
8
layer0
10
1252.5049769741
20
-109.1100448031
30
0
11
1252.5049769741
21
16.4636387456441
31
0
0
LINE
8
layer0
10
1252.5049769741
20
16.4636387456441
30
0
11
1251.20588869214
21
15.661518532909
31
0
0
LINE
8
layer0
10
1252.5049769741
20
16.4636387456441
30
0
11
1252.5049769741
21
-109.1100448031
31
0
0
LINE
8
layer0
10
1252.5049769741
20
-109.1100448031
30
0
11
1257.11273261491
21
-106.264992633674
31
0
0
LINE
8
layer0
10
1257.11273261491
20
-106.264992633674
30
0
11
1257.11273261491
21
19.3086909150699
31
0
0
LINE
8
layer0
10
1257.11273261491
20
19.3086909150699
30
0
11
1252.5049769741
21
16.4636387456441
31
0
0
LINE
8
layer0
10
1424.61273261491
20
38.7942625002197
30
0
11
1257.11273261491
21
-106.264992633674
31
0
0
LINE
8
layer0
10
1257.11273261491
20
-106.264992633674
30
0
11
1257.11273261491
21
-110.595119652596
31
0
0
LINE
8
layer0
10
1257.11273261491
20
-110.595119652596
30
0
11
1424.61273261491
21
34.4641354812975
31
0
0
LINE
8
layer0
10
1424.61273261491
20
34.4641354812975
30
0
11
1424.61273261491
21
38.7942625002197
31
0
0
LINE
8
layer0
10
1257.11273261491
20
19.3086909150699
30
0
11
1257.11273261491
21
-106.264992633674
31
0
0
LINE
8
layer0
10
1257.11273261491
20
-106.264992633674
30
0
11
1258.6606989149
21
-104.924414493681
31
0
0
LINE
8
layer0
10
1258.6606989149
20
-104.924414493681
30
0
11
1258.6606989149
21
20.6492690550622
31
0
0
LINE
8
layer0
10
1258.6606989149
20
20.6492690550622
30
0
11
1257.11273261491
21
19.3086909150699
31
0
0
LINE
8
layer0
10
1258.6606989149
20
20.6492690550622
30
0
11
1258.6606989149
21
-104.924414493681
31
0
0
LINE
8
layer0
10
1258.6606989149
20
-104.924414493681
30
0
11
1265.02812202436
21
-99.4100643242459
31
0
0
LINE
8
layer0
10
1265.02812202436
20
-99.4100643242459
30
0
11
1265.02812202436
21
26.1636192244977
31
0
0
LINE
8
layer0
10
1265.02812202436
20
26.1636192244977
30
0
11
1258.6606989149
21
20.6492690550622
31
0
0
LINE
8
layer0
10
1265.02812202436
20
26.1636192244977
30
0
11
1265.02812202436
21
-99.4100643242459
31
0
0
LINE
8
layer0
10
1265.02812202436
20
-99.4100643242459
30
0
11
1284.53930079494
21
-82.5128878511405
31
0
0
LINE
8
layer0
10
1284.53930079494
20
-82.5128878511405
30
0
11
1284.53930079494
21
43.0607956976031
31
0
0
LINE
8
layer0
10
1284.53930079494
20
43.0607956976031
30
0
11
1265.02812202436
21
26.1636192244977
31
0
0
LINE
8
layer0
10
1284.53930079494
20
43.0607956976031
30
0
11
1284.53930079494
21
-82.5128878511405
31
0
0
LINE
8
layer0
10
1284.53930079494
20
-82.5128878511405
30
0
11
1424.61273261491
21
38.7942625002197
31
0
0
LINE
8
layer0
10
1424.61273261491
20
38.7942625002197
30
0
11
1424.61273261491
21
164.367946048963
31
0
0
LINE
8
layer0
10
1424.61273261491
20
164.367946048963
30
0
11
1284.53930079494
21
43.0607956976031
31
0
0
LINE
8
layer0
10
1427.97639852339
20
43.1755871379533
30
0
11
1424.61273261491
21
38.7942625002197
31
0
0
LINE
8
layer0
10
1424.61273261491
20
38.7942625002197
30
0
11
1424.61273261491
21
34.4641354812975
31
0
0
LINE
8
layer0
10
1424.61273261491
20
34.4641354812975
30
0
11
1427.97639852339
21
38.8454601190311
31
0
0
LINE
8
layer0
10
1427.97639852339
20
38.8454601190311
30
0
11
1427.97639852339
21
43.1755871379533
31
0
0
LINE
8
layer0
10
1424.61273261491
20
164.367946048963
30
0
11
1424.61273261491
21
38.7942625002197
31
0
0
LINE
8
layer0
10
1424.61273261491
20
38.7942625002197
30
0
11
1427.97639852339
21
43.1755871379533
31
0
0
LINE
8
layer0
10
1427.97639852339
20
43.1755871379533
30
0
11
1427.97639852339
21
168.749270686697
31
0
0
LINE
8
layer0
10
1427.97639852339
20
168.749270686697
30
0
11
1424.61273261491
21
164.367946048963
31
0
0
LINE
8
layer0
10
1428.46762736243
20
47.8621894492345
30
0
11
1427.97639852339
21
43.1755871379533
31
0
0
LINE
8
layer0
10
1427.97639852339
20
43.1755871379533
30
0
11
1427.97639852339
21
38.8454601190311
31
0
0
LINE
8
layer0
10
1427.97639852339
20
38.8454601190311
30
0
11
1428.46762736243
21
43.5320624303123
31
0
0
LINE
8
layer0
10
1428.46762736243
20
43.5320624303123
30
0
11
1428.46762736243
21
47.8621894492345
31
0
0
LINE
8
layer0
10
1427.97639852339
20
168.749270686697
30
0
11
1427.97639852339
21
43.1755871379533
31
0
0
LINE
8
layer0
10
1427.97639852339
20
43.1755871379533
30
0
11
1428.46762736243
21
47.8621894492345
31
0
0
LINE
8
layer0
10
1428.46762736243
20
47.8621894492345
30
0
11
1428.46762736243
21
173.435872997978
31
0
0
LINE
8
layer0
10
1428.46762736243
20
173.435872997978
30
0
11
1427.97639852339
21
168.749270686697
31
0
0
LINE
8
layer0
10
1426.03833423066
20
52.3953121463567
30
0
11
1428.46762736243
21
47.8621894492345
31
0
0
LINE
8
layer0
10
1428.46762736243
20
47.8621894492345
30
0
11
1428.46762736243
21
43.5320624303123
31
0
0
LINE
8
layer0
10
1428.46762736243
20
43.5320624303123
30
0
11
1426.03833423066
21
48.0651851274345
31
0
0
LINE
8
layer0
10
1426.03833423066
20
48.0651851274345
30
0
11
1426.03833423066
21
52.3953121463567
31
0
0
LINE
8
layer0
10
1428.46762736243
20
173.435872997978
30
0
11
1428.46762736243
21
47.8621894492345
31
0
0
LINE
8
layer0
10
1428.46762736243
20
47.8621894492345
30
0
11
1427.81957578654
21
49.0714701528022
31
0
0
LINE
8
layer0
10
1427.81957578654
20
49.0714701528022
30
0
11
1427.81957578654
21
174.645153701546
31
0
0
LINE
8
layer0
10
1427.81957578654
20
174.645153701546
30
0
11
1428.46762736243
21
173.435872997978
31
0
0
LINE
8
layer0
10
1427.81957578654
20
174.645153701546
30
0
11
1427.81957578654
21
49.0714701528022
31
0
0
LINE
8
layer0
10
1427.81957578654
20
49.0714701528022
30
0
11
1426.31076509178
21
51.8869492387176
31
0
0
LINE
8
layer0
10
1426.31076509178
20
51.8869492387176
30
0
11
1426.31076509178
21
177.460632787461
31
0
0
LINE
8
layer0
10
1426.31076509178
20
177.460632787461
30
0
11
1427.81957578654
21
174.645153701546
31
0
0
LINE
8
layer0
10
1426.31076509178
20
177.460632787461
30
0
11
1426.31076509178
21
51.8869492387176
31
0
0
LINE
8
layer0
10
1426.31076509178
20
51.8869492387176
30
0
11
1426.03833423066
21
52.3953121463567
31
0
0
LINE
8
layer0
10
1426.03833423066
20
52.3953121463567
30
0
11
1426.03833423066
21
177.9689956951
31
0
0
LINE
8
layer0
10
1426.03833423066
20
177.9689956951
30
0
11
1426.31076509178
21
177.460632787461
31
0
0
LINE
8
layer0
10
1420.9263152657
20
56.3312215956026
30
0
11
1426.03833423066
21
52.3953121463567
31
0
0
LINE
8
layer0
10
1426.03833423066
20
52.3953121463567
30
0
11
1426.03833423066
21
48.0651851274345
31
0
0
LINE
8
layer0
10
1426.03833423066
20
48.0651851274345
30
0
11
1420.9263152657
21
52.0010945766804
31
0
0
LINE
8
layer0
10
1420.9263152657
20
52.0010945766804
30
0
11
1420.9263152657
21
56.3312215956026
31
0
0
LINE
8
layer0
10
1422.16400996592
20
180.95196379196
30
0
11
1422.16400996592
21
55.3782802432165
31
0
0
LINE
8
layer0
10
1422.16400996592
20
55.3782802432165
30
0
11
1420.9263152657
21
56.3312215956026
31
0
0
LINE
8
layer0
10
1420.9263152657
20
56.3312215956026
30
0
11
1420.9263152657
21
181.904905144346
31
0
0
LINE
8
layer0
10
1420.9263152657
20
181.904905144346
30
0
11
1422.16400996592
21
180.95196379196
31
0
0
LINE
8
layer0
10
1426.03833423066
20
177.9689956951
30
0
11
1426.03833423066
21
52.3953121463567
31
0
0
LINE
8
layer0
10
1426.03833423066
20
52.3953121463567
30
0
11
1422.16400996592
21
55.3782802432165
31
0
0
LINE
8
layer0
10
1422.16400996592
20
55.3782802432165
30
0
11
1422.16400996592
21
180.95196379196
31
0
0
LINE
8
layer0
10
1422.16400996592
20
180.95196379196
30
0
11
1426.03833423066
21
177.9689956951
31
0
0
LINE
8
layer0
10
1413.63197050138
20
59.2846435569863
30
0
11
1420.9263152657
21
56.3312215956026
31
0
0
LINE
8
layer0
10
1420.9263152657
20
56.3312215956026
30
0
11
1420.9263152657
21
52.0010945766804
31
0
0
LINE
8
layer0
10
1420.9263152657
20
52.0010945766804
30
0
11
1413.63197050138
21
54.9545165380641
31
0
0
LINE
8
layer0
10
1413.63197050138
20
54.9545165380641
30
0
11
1413.63197050138
21
59.2846435569863
31
0
0
LINE
8
layer0
10
1420.9263152657
20
181.904905144346
30
0
11
1420.9263152657
21
56.3312215956026
31
0
0
LINE
8
layer0
10
1420.9263152657
20
56.3312215956026
30
0
11
1413.63197050138
21
59.2846435569863
31
0
0
LINE
8
layer0
10
1413.63197050138
20
59.2846435569863
30
0
11
1413.63197050138
21
184.85832710573
31
0
0
LINE
8
layer0
10
1413.63197050138
20
184.85832710573
30
0
11
1420.9263152657
21
181.904905144346
31
0
0
LINE
8
layer0
10
1405.88677997299
20
60.0771118022558
30
0
11
1169.46184473984
21
128.327111802256
31
0
0
LINE
8
layer0
10
1169.46184473984
20
128.327111802256
30
0
11
1160.69919546438
21
130.008944756496
31
0
0
LINE
8
layer0
10
1160.69919546438
20
130.008944756496
30
0
11
1151.32599084181
21
130.254559176013
31
0
0
LINE
8
layer0
10
1151.32599084181
20
130.254559176013
30
0
11
1142.25974544757
21
129.039912610128
31
0
0
LINE
8
layer0
10
1142.25974544757
20
129.039912610128
30
0
11
1134.38792654908
21
126.48390312765
31
0
0
LINE
8
layer0
10
1134.38792654908
20
126.48390312765
30
0
11
1128.48108262631
21
122.836730745489
31
0
0
LINE
8
layer0
10
1128.48108262631
20
122.836730745489
30
0
11
965.98108262631
21
-17.8923973694821
31
0
0
LINE
8
layer0
10
965.98108262631
20
-17.8923973694821
30
0
11
962.617416717829
21
-22.2737220072158
31
0
0
LINE
8
layer0
10
962.617416717829
20
-22.2737220072158
30
0
11
962.126187878795
21
-26.960324318497
31
0
0
LINE
8
layer0
10
962.126187878795
20
-26.960324318497
30
0
11
964.555481010565
21
-31.4934470156192
31
0
0
LINE
8
layer0
10
964.555481010565
20
-31.4934470156192
30
0
11
969.667499975521
21
-35.429356464865
31
0
0
LINE
8
layer0
10
969.667499975521
20
-35.429356464865
30
0
11
976.961844739843
21
-38.3827784262487
31
0
0
LINE
8
layer0
10
976.961844739843
20
-38.3827784262487
30
0
11
1213.38677997299
21
-106.632778426249
31
0
0
LINE
8
layer0
10
1213.38677997299
20
-106.632778426249
30
0
11
1222.14942924846
21
-108.314611380489
31
0
0
LINE
8
layer0
10
1222.14942924846
20
-108.314611380489
30
0
11
1231.52263387102
21
-108.560225800006
31
0
0
LINE
8
layer0
10
1231.52263387102
20
-108.560225800006
30
0
11
1240.58887926527
21
-107.345579234121
31
0
0
LINE
8
layer0
10
1240.58887926527
20
-107.345579234121
30
0
11
1248.46069816376
21
-104.789569751643
31
0
0
LINE
8
layer0
10
1248.46069816376
20
-104.789569751643
30
0
11
1254.36754208653
21
-101.142397369482
31
0
0
LINE
8
layer0
10
1254.36754208653
20
-101.142397369482
30
0
11
1416.86754208653
21
39.5867307454891
31
0
0
LINE
8
layer0
10
1416.86754208653
20
39.5867307454891
30
0
11
1420.23120799501
21
43.9680553832228
31
0
0
LINE
8
layer0
10
1420.23120799501
20
43.9680553832228
30
0
11
1420.72243683404
21
48.654657694504
31
0
0
LINE
8
layer0
10
1420.72243683404
20
48.654657694504
30
0
11
1418.29314370227
21
53.1877803916262
31
0
0
LINE
8
layer0
10
1418.29314370227
20
53.1877803916262
30
0
11
1413.18112473732
21
57.123689840872
31
0
0
LINE
8
layer0
10
1413.18112473732
20
57.123689840872
30
0
11
1405.88677997299
21
60.0771118022558
31
0
0
LINE
8
layer0
10
1405.88677997299
20
60.0771118022558
30
0
11
1405.88677997299
21
185.650795350999
31
0
0
LINE
8
layer0
10
1405.88677997299
20
185.650795350999
30
0
11
1169.46184473984
21
253.900795350999
31
0
0
LINE
8
layer0
10
1169.46184473984
20
253.900795350999
30
0
11
1169.46184473984
21
128.327111802256
31
0
0
LINE
8
layer0
10
1169.46184473984
20
128.327111802256
30
0
11
1405.88677997299
21
60.0771118022558
31
0
0
LINE
8
layer0
10
1169.46184473984
20
128.327111802256
30
0
11
1169.46184473984
21
253.900795350999
31
0
0
LINE
8
layer0
10
1169.46184473984
20
253.900795350999
30
0
11
1160.69919546438
21
255.58262830524
31
0
0
LINE
8
layer0
10
1160.69919546438
20
255.58262830524
30
0
11
1160.69919546438
21
130.008944756496
31
0
0
LINE
8
layer0
10
1160.69919546438
20
130.008944756496
30
0
11
1169.46184473984
21
128.327111802256
31
0
0
LINE
8
layer0
10
1160.69919546438
20
130.008944756496
30
0
11
1160.69919546438
21
255.58262830524
31
0
0
LINE
8
layer0
10
1160.69919546438
20
255.58262830524
30
0
11
1151.32599084181
21
255.828242724757
31
0
0
LINE
8
layer0
10
1151.32599084181
20
255.828242724757
30
0
11
1151.32599084181
21
130.254559176013
31
0
0
LINE
8
layer0
10
1151.32599084181
20
130.254559176013
30
0
11
1160.69919546438
21
130.008944756496
31
0
0
LINE
8
layer0
10
1151.32599084181
20
130.254559176013
30
0
11
1151.32599084181
21
255.828242724757
31
0
0
LINE
8
layer0
10
1151.32599084181
20
255.828242724757
30
0
11
1142.25974544757
21
254.613596158872
31
0
0
LINE
8
layer0
10
1142.25974544757
20
254.613596158872
30
0
11
1142.25974544757
21
129.039912610128
31
0
0
LINE
8
layer0
10
1142.25974544757
20
129.039912610128
30
0
11
1151.32599084181
21
130.254559176013
31
0
0
LINE
8
layer0
10
1142.25974544757
20
129.039912610128
30
0
11
1142.25974544757
21
254.613596158872
31
0
0
LINE
8
layer0
10
1142.25974544757
20
254.613596158872
30
0
11
1134.38792654908
21
252.057586676394
31
0
0
LINE
8
layer0
10
1134.38792654908
20
252.057586676394
30
0
11
1134.38792654908
21
126.48390312765
31
0
0
LINE
8
layer0
10
1134.38792654908
20
126.48390312765
30
0
11
1142.25974544757
21
129.039912610128
31
0
0
LINE
8
layer0
10
1134.38792654908
20
126.48390312765
30
0
11
1134.38792654908
21
252.057586676394
31
0
0
LINE
8
layer0
10
1134.38792654908
20
252.057586676394
30
0
11
1128.48108262631
21
248.410414294233
31
0
0
LINE
8
layer0
10
1128.48108262631
20
248.410414294233
30
0
11
1128.48108262631
21
122.836730745489
31
0
0
LINE
8
layer0
10
1128.48108262631
20
122.836730745489
30
0
11
1134.38792654908
21
126.48390312765
31
0
0
LINE
8
layer0
10
1128.48108262631
20
122.836730745489
30
0
11
1128.48108262631
21
248.410414294233
31
0
0
LINE
8
layer0
10
1128.48108262631
20
248.410414294233
30
0
11
965.98108262631
21
107.681286179261
31
0
0
LINE
8
layer0
10
965.98108262631
20
107.681286179261
30
0
11
965.98108262631
21
-17.8923973694821
31
0
0
LINE
8
layer0
10
965.98108262631
20
-17.8923973694821
30
0
11
1128.48108262631
21
122.836730745489
31
0
0
LINE
8
layer0
10
965.98108262631
20
-17.8923973694821
30
0
11
965.98108262631
21
107.681286179262
31
0
0
LINE
8
layer0
10
965.98108262631
20
107.681286179262
30
0
11
962.617416717829
21
103.299961541528
31
0
0
LINE
8
layer0
10
962.617416717829
20
103.299961541528
30
0
11
962.617416717829
21
-22.2737220072158
31
0
0
LINE
8
layer0
10
962.617416717829
20
-22.2737220072158
30
0
11
965.98108262631
21
-17.8923973694821
31
0
0
LINE
8
layer0
10
962.617416717829
20
-22.2737220072158
30
0
11
962.617416717829
21
103.299961541528
31
0
0
LINE
8
layer0
10
962.617416717829
20
103.299961541528
30
0
11
962.126187878795
21
98.6133592302467
31
0
0
LINE
8
layer0
10
962.126187878795
20
98.6133592302467
30
0
11
962.126187878795
21
-26.960324318497
31
0
0
LINE
8
layer0
10
962.126187878795
20
-26.960324318497
30
0
11
962.617416717829
21
-22.2737220072158
31
0
0
LINE
8
layer0
10
962.126187878795
20
-26.960324318497
30
0
11
962.126187878795
21
98.6133592302467
31
0
0
LINE
8
layer0
10
962.126187878795
20
98.6133592302467
30
0
11
964.555481010565
21
94.0802365331245
31
0
0
LINE
8
layer0
10
964.555481010565
20
94.0802365331245
30
0
11
964.555481010565
21
-31.4934470156192
31
0
0
LINE
8
layer0
10
964.555481010565
20
-31.4934470156192
30
0
11
962.126187878795
21
-26.960324318497
31
0
0
LINE
8
layer0
10
964.555481010565
20
-31.4934470156192
30
0
11
964.555481010565
21
94.0802365331245
31
0
0
LINE
8
layer0
10
964.555481010565
20
94.0802365331245
30
0
11
969.667499975521
21
90.1443270838786
31
0
0
LINE
8
layer0
10
969.667499975521
20
90.1443270838786
30
0
11
969.667499975521
21
-35.429356464865
31
0
0
LINE
8
layer0
10
969.667499975521
20
-35.429356464865
30
0
11
964.555481010565
21
-31.4934470156192
31
0
0
LINE
8
layer0
10
969.667499975521
20
-35.429356464865
30
0
11
969.667499975521
21
90.1443270838786
31
0
0
LINE
8
layer0
10
969.667499975521
20
90.1443270838786
30
0
11
976.961844739843
21
87.1909051224949
31
0
0
LINE
8
layer0
10
976.961844739843
20
87.1909051224949
30
0
11
976.961844739843
21
-38.3827784262487
31
0
0
LINE
8
layer0
10
976.961844739843
20
-38.3827784262487
30
0
11
969.667499975521
21
-35.429356464865
31
0
0
LINE
8
layer0
10
976.961844739843
20
-38.3827784262487
30
0
11
976.961844739843
21
87.1909051224949
31
0
0
LINE
8
layer0
10
976.961844739843
20
87.1909051224949
30
0
11
1213.38677997299
21
18.9409051224949
31
0
0
LINE
8
layer0
10
1213.38677997299
20
18.9409051224949
30
0
11
1213.38677997299
21
-106.632778426249
31
0
0
LINE
8
layer0
10
1213.38677997299
20
-106.632778426249
30
0
11
976.961844739843
21
-38.3827784262487
31
0
0
LINE
8
layer0
10
1213.38677997299
20
-106.632778426249
30
0
11
1213.38677997299
21
18.9409051224949
31
0
0
LINE
8
layer0
10
1213.38677997299
20
18.9409051224949
30
0
11
1222.14942924846
21
17.2590721682544
31
0
0
LINE
8
layer0
10
1222.14942924846
20
17.2590721682544
30
0
11
1222.14942924846
21
-108.314611380489
31
0
0
LINE
8
layer0
10
1222.14942924846
20
-108.314611380489
30
0
11
1213.38677997299
21
-106.632778426249
31
0
0
LINE
8
layer0
10
1222.14942924846
20
-108.314611380489
30
0
11
1222.14942924846
21
17.2590721682544
31
0
0
LINE
8
layer0
10
1222.14942924846
20
17.2590721682544
30
0
11
1231.52263387102
21
17.0134577487374
31
0
0
LINE
8
layer0
10
1231.52263387102
20
17.0134577487374
30
0
11
1231.52263387102
21
-108.560225800006
31
0
0
LINE
8
layer0
10
1231.52263387102
20
-108.560225800006
30
0
11
1222.14942924846
21
-108.314611380489
31
0
0
LINE
8
layer0
10
1231.52263387102
20
-108.560225800006
30
0
11
1231.52263387102
21
17.0134577487374
31
0
0
LINE
8
layer0
10
1231.52263387102
20
17.0134577487374
30
0
11
1240.58887926527
21
18.2281043146224
31
0
0
LINE
8
layer0
10
1240.58887926527
20
18.2281043146224
30
0
11
1240.58887926527
21
-107.345579234121
31
0
0
LINE
8
layer0
10
1240.58887926527
20
-107.345579234121
30
0
11
1231.52263387102
21
-108.560225800006
31
0
0
LINE
8
layer0
10
1240.58887926527
20
-107.345579234121
30
0
11
1240.58887926527
21
18.2281043146224
31
0
0
LINE
8
layer0
10
1240.58887926527
20
18.2281043146224
30
0
11
1248.46069816376
21
20.7841137971006
31
0
0
LINE
8
layer0
10
1248.46069816376
20
20.7841137971006
30
0
11
1248.46069816376
21
-104.789569751643
31
0
0
LINE
8
layer0
10
1248.46069816376
20
-104.789569751643
30
0
11
1240.58887926527
21
-107.345579234121
31
0
0
LINE
8
layer0
10
1248.46069816376
20
-104.789569751643
30
0
11
1248.46069816376
21
20.7841137971006
31
0
0
LINE
8
layer0
10
1248.46069816376
20
20.7841137971006
30
0
11
1254.36754208653
21
24.4312861792615
31
0
0
LINE
8
layer0
10
1254.36754208653
20
24.4312861792615
30
0
11
1254.36754208653
21
-101.142397369482
31
0
0
LINE
8
layer0
10
1254.36754208653
20
-101.142397369482
30
0
11
1248.46069816376
21
-104.789569751643
31
0
0
LINE
8
layer0
10
1254.36754208653
20
-101.142397369482
30
0
11
1254.36754208653
21
24.4312861792615
31
0
0
LINE
8
layer0
10
1254.36754208653
20
24.4312861792615
30
0
11
1416.86754208653
21
165.160414294233
31
0
0
LINE
8
layer0
10
1416.86754208653
20
165.160414294233
30
0
11
1416.86754208653
21
39.5867307454891
31
0
0
LINE
8
layer0
10
1416.86754208653
20
39.5867307454891
30
0
11
1254.36754208653
21
-101.142397369482
31
0
0
LINE
8
layer0
10
1416.86754208653
20
39.5867307454891
30
0
11
1416.86754208653
21
165.160414294233
31
0
0
LINE
8
layer0
10
1416.86754208653
20
165.160414294233
30
0
11
1420.23120799501
21
169.541738931966
31
0
0
LINE
8
layer0
10
1420.23120799501
20
169.541738931966
30
0
11
1420.23120799501
21
43.9680553832228
31
0
0
LINE
8
layer0
10
1420.23120799501
20
43.9680553832228
30
0
11
1416.86754208653
21
39.5867307454891
31
0
0
LINE
8
layer0
10
1420.23120799501
20
43.9680553832228
30
0
11
1420.23120799501
21
169.541738931966
31
0
0
LINE
8
layer0
10
1420.23120799501
20
169.541738931966
30
0
11
1420.72243683404
21
174.228341243248
31
0
0
LINE
8
layer0
10
1420.72243683404
20
174.228341243248
30
0
11
1420.72243683404
21
48.654657694504
31
0
0
LINE
8
layer0
10
1420.72243683404
20
48.654657694504
30
0
11
1420.23120799501
21
43.9680553832228
31
0
0
LINE
8
layer0
10
1420.72243683404
20
48.654657694504
30
0
11
1420.72243683404
21
174.228341243248
31
0
0
LINE
8
layer0
10
1420.72243683404
20
174.228341243248
30
0
11
1418.29314370227
21
178.76146394037
31
0
0
LINE
8
layer0
10
1418.29314370227
20
178.76146394037
30
0
11
1418.29314370227
21
53.1877803916262
31
0
0
LINE
8
layer0
10
1418.29314370227
20
53.1877803916262
30
0
11
1420.72243683404
21
48.654657694504
31
0
0
LINE
8
layer0
10
1418.29314370227
20
53.1877803916262
30
0
11
1418.29314370227
21
178.76146394037
31
0
0
LINE
8
layer0
10
1418.29314370227
20
178.76146394037
30
0
11
1413.18112473732
21
182.697373389616
31
0
0
LINE
8
layer0
10
1413.18112473732
20
182.697373389616
30
0
11
1413.18112473732
21
57.123689840872
31
0
0
LINE
8
layer0
10
1413.18112473732
20
57.123689840872
30
0
11
1418.29314370227
21
53.1877803916262
31
0
0
LINE
8
layer0
10
1413.18112473732
20
57.123689840872
30
0
11
1413.18112473732
21
182.697373389616
31
0
0
LINE
8
layer0
10
1413.18112473732
20
182.697373389616
30
0
11
1405.88677997299
21
185.650795350999
31
0
0
LINE
8
layer0
10
1405.88677997299
20
185.650795350999
30
0
11
1405.88677997299
21
60.0771118022558
31
0
0
LINE
8
layer0
10
1405.88677997299
20
60.0771118022558
30
0
11
1413.18112473732
21
57.123689840872
31
0
0
LINE
8
layer0
10
1413.63197050138
20
184.85832710573
30
0
11
1168.54678123038
21
255.60832710573
31
0
0
LINE
8
layer0
10
1168.54678123038
20
255.60832710573
30
0
11
1159.78413195491
21
257.29016005997
31
0
0
LINE
8
layer0
10
1159.78413195491
20
257.29016005997
30
0
11
1157.51474176584
21
257.349626910039
31
0
0
LINE
8
layer0
10
1157.51474176584
20
257.349626910039
30
0
11
1422.16400996592
21
180.95196379196
31
0
0
LINE
8
layer0
10
1422.16400996592
20
180.95196379196
30
0
11
1420.9263152657
21
181.904905144346
31
0
0
LINE
8
layer0
10
1420.9263152657
20
181.904905144346
30
0
11
1413.63197050138
21
184.85832710573
31
0
0
LINE
8
layer0
10
1150.54066924986
20
257.532374736599
30
0
11
1169.46184473984
21
253.900795350999
31
0
0
LINE
8
layer0
10
1169.46184473984
20
253.900795350999
30
0
11
1157.51474176584
21
257.349626910039
31
0
0
LINE
8
layer0
10
1157.51474176584
20
257.349626910039
30
0
11
1150.54066924986
21
257.532374736599
31
0
0
LINE
8
layer0
10
1140.685431426
20
256.107066769413
30
0
11
1160.69919546438
21
255.58262830524
31
0
0
LINE
8
layer0
10
1160.69919546438
20
255.58262830524
30
0
11
1150.54066924986
21
257.532374736599
31
0
0
LINE
8
layer0
10
1150.54066924986
20
257.532374736599
30
0
11
1150.41092733235
21
257.535774479487
31
0
0
LINE
8
layer0
10
1150.41092733235
20
257.535774479487
30
0
11
1141.34468193811
21
256.321127913602
31
0
0
LINE
8
layer0
10
1141.34468193811
20
256.321127913602
30
0
11
1140.685431426
21
256.107066769413
31
0
0
LINE
8
layer0
10
1132.79290650202
20
253.345280233705
30
0
11
1151.32599084181
21
255.828242724757
31
0
0
LINE
8
layer0
10
1151.32599084181
20
255.828242724757
30
0
11
1140.685431426
21
256.107066769413
31
0
0
LINE
8
layer0
10
1140.685431426
20
256.107066769413
30
0
11
1133.47286303962
21
253.765118431124
31
0
0
LINE
8
layer0
10
1133.47286303962
20
253.765118431124
30
0
11
1132.79290650202
21
253.345280233705
31
0
0
LINE
8
layer0
10
1127.05715597116
20
249.677257637751
30
0
11
1142.25974544757
21
254.613596158872
31
0
0
LINE
8
layer0
10
1142.25974544757
20
254.613596158872
30
0
11
1132.79290650202
21
253.345280233705
31
0
0
LINE
8
layer0
10
1132.79290650202
20
253.345280233705
30
0
11
1127.56601911685
21
250.117946048963
31
0
0
LINE
8
layer0
10
1127.56601911685
20
250.117946048963
30
0
11
1127.05715597116
21
249.677257637751
31
0
0
LINE
8
layer0
10
1118.42382972351
20
242.200577788119
30
0
11
1134.38792654908
21
252.057586676394
31
0
0
LINE
8
layer0
10
1134.38792654908
20
252.057586676394
30
0
11
1127.05715597116
21
249.677257637751
31
0
0
LINE
8
layer0
10
1127.05715597116
20
249.677257637751
30
0
11
1118.42382972351
21
242.200577788119
31
0
0
LINE
8
layer0
10
956.583419508232
20
99.5426711827976
30
0
11
1128.48108262631
21
248.410414294233
31
0
0
LINE
8
layer0
10
1128.48108262631
20
248.410414294233
30
0
11
1118.42382972351
21
242.200577788119
31
0
0
LINE
8
layer0
10
1118.42382972351
20
242.200577788119
30
0
11
960.066019116849
21
105.05869091507
31
0
0
LINE
8
layer0
10
960.066019116849
20
105.05869091507
30
0
11
956.702353208368
21
100.677366277336
31
0
0
LINE
8
layer0
10
956.702353208368
20
100.677366277336
30
0
11
956.583419508232
21
99.5426711827976
31
0
0
LINE
8
layer0
10
956.537859621054
20
95.381067686033
30
0
11
965.98108262631
21
107.681286179262
31
0
0
LINE
8
layer0
10
965.98108262631
20
107.681286179262
30
0
11
956.583419508232
21
99.5426711827976
31
0
0
LINE
8
layer0
10
956.583419508232
20
99.5426711827976
30
0
11
956.211124369334
21
95.9907639660551
31
0
0
LINE
8
layer0
10
956.211124369334
20
95.9907639660551
30
0
11
956.537859621054
21
95.381067686033
31
0
0
LINE
8
layer0
10
961.171867039697
20
89.5085960428607
30
0
11
962.617416717829
21
103.299961541528
31
0
0
LINE
8
layer0
10
962.617416717829
20
103.299961541528
30
0
11
956.537859621054
21
95.381067686033
31
0
0
LINE
8
layer0
10
956.537859621054
20
95.381067686033
30
0
11
958.640417501104
21
91.4576412689329
31
0
0
LINE
8
layer0
10
958.640417501104
20
91.4576412689329
30
0
11
961.171867039697
21
89.5085960428607
31
0
0
LINE
8
layer0
10
969.266653240865
20
85.2890694697803
30
0
11
962.126187878795
21
98.6133592302468
31
0
0
LINE
8
layer0
10
962.126187878795
20
98.6133592302468
30
0
11
961.171867039697
21
89.5085960428607
31
0
0
LINE
8
layer0
10
961.171867039697
20
89.5085960428607
30
0
11
963.75243646606
21
87.521731819687
31
0
0
LINE
8
layer0
10
963.75243646606
20
87.521731819687
30
0
11
969.266653240865
21
85.2890694697803
31
0
0
LINE
8
layer0
10
980.426510830315
20
81.8606151535796
30
0
11
964.555481010565
21
94.0802365331245
31
0
0
LINE
8
layer0
10
964.555481010565
20
94.0802365331245
30
0
11
969.266653240865
21
85.2890694697803
31
0
0
LINE
8
layer0
10
969.266653240865
20
85.2890694697803
30
0
11
971.046781230382
21
84.5683098583033
31
0
0
LINE
8
layer0
10
971.046781230382
20
84.5683098583033
30
0
11
980.426510830315
21
81.8606151535796
31
0
0
LINE
8
layer0
10
1014.22086377653
20
72.1050257682878
30
0
11
969.667499975521
21
90.1443270838786
31
0
0
LINE
8
layer0
10
969.667499975521
20
90.1443270838786
30
0
11
980.426510830315
21
81.8606151535796
31
0
0
LINE
8
layer0
10
980.426510830315
20
81.8606151535796
30
0
11
1014.22086377653
21
72.1050257682878
31
0
0
LINE
8
layer0
10
1236.68638580654
20
12.2148882724893
30
0
11
976.961844739843
21
87.190905122495
31
0
0
LINE
8
layer0
10
976.961844739843
20
87.190905122495
30
0
11
1014.22086377653
21
72.1050257682878
31
0
0
LINE
8
layer0
10
1014.22086377653
20
72.1050257682878
30
0
11
1216.13197050138
21
13.8183098583033
31
0
0
LINE
8
layer0
10
1216.13197050138
20
13.8183098583033
30
0
11
1224.89461977685
21
12.1364769040628
31
0
0
LINE
8
layer0
10
1224.89461977685
20
12.1364769040628
30
0
11
1234.26782439941
21
11.8908624845458
31
0
0
LINE
8
layer0
10
1234.26782439941
20
11.8908624845458
30
0
11
1236.68638580654
21
12.2148882724893
31
0
0
LINE
8
layer0
10
1243.50353601184
20
13.1605353748711
30
0
11
1213.38677997299
21
18.9409051224949
31
0
0
LINE
8
layer0
10
1213.38677997299
20
18.9409051224949
30
0
11
1236.68638580654
21
12.2148882724893
31
0
0
LINE
8
layer0
10
1236.68638580654
20
12.2148882724893
30
0
11
1243.33406979365
21
13.1055090504308
31
0
0
LINE
8
layer0
10
1243.33406979365
20
13.1055090504308
30
0
11
1243.50353601184
21
13.1605353748711
31
0
0
LINE
8
layer0
10
1252.5049769741
20
16.4636387456441
30
0
11
1222.14942924846
21
17.2590721682545
31
0
0
LINE
8
layer0
10
1222.14942924846
20
17.2590721682545
30
0
11
1243.50353601184
21
13.1605353748711
31
0
0
LINE
8
layer0
10
1243.50353601184
20
13.1605353748711
30
0
11
1251.20588869214
21
15.661518532909
31
0
0
LINE
8
layer0
10
1251.20588869214
20
15.661518532909
30
0
11
1252.5049769741
21
16.4636387456441
31
0
0
LINE
8
layer0
10
1258.6606989149
20
20.6492690550622
30
0
11
1231.52263387102
21
17.0134577487374
31
0
0
LINE
8
layer0
10
1231.52263387102
20
17.0134577487374
30
0
11
1252.5049769741
21
16.4636387456441
31
0
0
LINE
8
layer0
10
1252.5049769741
20
16.4636387456441
30
0
11
1257.11273261491
21
19.3086909150699
31
0
0
LINE
8
layer0
10
1257.11273261491
20
19.3086909150699
30
0
11
1258.6606989149
21
20.6492690550622
31
0
0
LINE
8
layer0
10
1265.02812202436
20
26.1636192244977
30
0
11
1240.58887926527
21
18.2281043146224
31
0
0
LINE
8
layer0
10
1240.58887926527
20
18.2281043146224
30
0
11
1258.6606989149
21
20.6492690550622
31
0
0
LINE
8
layer0
10
1258.6606989149
20
20.6492690550622
30
0
11
1265.02812202436
21
26.1636192244977
31
0
0
LINE
8
layer0
10
1284.53930079494
20
43.0607956976031
30
0
11
1248.46069816376
21
20.7841137971006
31
0
0
LINE
8
layer0
10
1248.46069816376
20
20.7841137971006
30
0
11
1265.02812202436
21
26.1636192244977
31
0
0
LINE
8
layer0
10
1265.02812202436
20
26.1636192244977
30
0
11
1284.53930079494
21
43.0607956976031
31
0
0
LINE
8
layer0
10
1427.81957578654
20
174.645153701546
30
0
11
1254.36754208653
21
24.4312861792616
31
0
0
LINE
8
layer0
10
1254.36754208653
20
24.4312861792616
30
0
11
1284.53930079494
21
43.0607956976031
31
0
0
LINE
8
layer0
10
1284.53930079494
20
43.0607956976031
30
0
11
1424.61273261491
21
164.367946048963
31
0
0
LINE
8
layer0
10
1424.61273261491
20
164.367946048963
30
0
11
1427.97639852339
21
168.749270686697
31
0
0
LINE
8
layer0
10
1427.97639852339
20
168.749270686697
30
0
11
1428.46762736243
21
173.435872997978
31
0
0
LINE
8
layer0
10
1428.46762736243
20
173.435872997978
30
0
11
1427.81957578654
21
174.645153701546
31
0
0
LINE
8
layer0
10
1426.31076509178
20
177.460632787461
30
0
11
1416.86754208653
21
165.160414294233
31
0
0
LINE
8
layer0
10
1416.86754208653
20
165.160414294233
30
0
11
1427.81957578654
21
174.645153701546
31
0
0
LINE
8
layer0
10
1427.81957578654
20
174.645153701546
30
0
11
1426.31076509178
21
177.460632787461
31
0
0
LINE
8
layer0
10
1422.16400996592
20
180.95196379196
30
0
11
1421.44881713811
21
181.158422177792
31
0
0
LINE
8
layer0
10
1421.44881713811
20
181.158422177792
30
0
11
1420.23120799501
21
169.541738931966
31
0
0
LINE
8
layer0
10
1420.23120799501
20
169.541738931966
30
0
11
1426.31076509178
21
177.460632787461
31
0
0
LINE
8
layer0
10
1426.31076509178
20
177.460632787461
30
0
11
1426.03833423066
21
177.9689956951
31
0
0
LINE
8
layer0
10
1426.03833423066
20
177.9689956951
30
0
11
1422.16400996592
21
180.95196379196
31
0
0
LINE
8
layer0
10
1416.19600474978
20
182.674778500994
30
0
11
1420.72243683404
21
174.228341243248
31
0
0
LINE
8
layer0
10
1420.72243683404
20
174.228341243248
30
0
11
1421.44881713811
21
181.158422177792
31
0
0
LINE
8
layer0
10
1421.44881713811
20
181.158422177792
30
0
11
1416.19600474978
21
182.674778500994
31
0
0
LINE
8
layer0
10
1411.41964304879
20
184.053595357901
30
0
11
1418.29314370227
21
178.76146394037
31
0
0
LINE
8
layer0
10
1418.29314370227
20
178.76146394037
30
0
11
1416.19600474978
21
182.674778500994
31
0
0
LINE
8
layer0
10
1416.19600474978
20
182.674778500994
30
0
11
1411.41964304879
21
184.053595357901
31
0
0
LINE
8
layer0
10
1405.88677997299
20
185.650795350999
30
0
11
1413.18112473732
21
182.697373389616
31
0
0
LINE
8
layer0
10
1413.18112473732
20
182.697373389616
30
0
11
1411.41964304879
21
184.053595357901
31
0
0
LINE
8
layer0
10
1411.41964304879
20
184.053595357901
30
0
11
1405.88677997299
21
185.650795350999
31
0
0
ENDBLK
0
BLOCK
8
layer0
2
PF_OBJECT44
70
0
10
0
20
0
30
0
0
LINE
8
layer0
10
1351.82245801365
20
257.652049566159
30
0
11
1340.17431235642
21
265.242129049682
31
0
0
LINE
8
layer0
10
1340.17431235642
20
265.242129049682
30
0
11
1332.67431235642
21
293.387954672677
31
0
0
LINE
8
layer0
10
1332.67431235642
20
293.387954672677
30
0
11
1337.33357061931
21
290.351922879267
31
0
0
LINE
8
layer0
10
1337.33357061931
20
290.351922879267
30
0
11
1351.82245801365
21
257.652049566159
31
0
0
LINE
8
layer0
10
1349.32494745103
20
248.166811502377
30
0
11
1351.82245801365
21
257.652049566159
31
0
0
LINE
8
layer0
10
1351.82245801365
20
257.652049566159
30
0
11
1337.33357061931
21
290.351922879267
31
0
0
LINE
8
layer0
10
1337.33357061931
20
290.351922879267
30
0
11
1336.33456639426
21
286.557827653754
31
0
0
LINE
8
layer0
10
1336.33456639426
20
286.557827653754
30
0
11
1349.32494745103
21
248.166811502377
31
0
0
LINE
8
layer0
10
1334.14478848398
20
242.342738673764
30
0
11
1349.32494745103
21
248.166811502377
31
0
0
LINE
8
layer0
10
1349.32494745103
20
248.166811502377
30
0
11
1336.33456639426
21
286.557827653754
31
0
0
LINE
8
layer0
10
1336.33456639426
20
286.557827653754
30
0
11
1330.26250280744
21
284.228198522309
31
0
0
LINE
8
layer0
10
1330.26250280744
20
284.228198522309
30
0
11
1334.14478848398
21
242.342738673764
31
0
0
LINE
8
layer0
10
1315.17431235642
20
243.591493955071
30
0
11
1334.14478848398
21
242.342738673764
31
0
0
LINE
8
layer0
10
1334.14478848398
20
242.342738673764
30
0
11
1330.26250280744
21
284.228198522309
31
0
0
LINE
8
layer0
10
1330.26250280744
20
284.228198522309
30
0
11
1322.67431235642
21
284.727700634832
31
0
0
LINE
8
layer0
10
1322.67431235642
20
284.727700634832
30
0
11
1315.17431235642
21
243.591493955071
31
0
0
LINE
8
layer0
10
1303.52616669919
20
251.181573438595
30
0
11
1315.17431235642
21
243.591493955071
31
0
0
LINE
8
layer0
10
1315.17431235642
20
243.591493955071
30
0
11
1322.67431235642
21
284.727700634832
31
0
0
LINE
8
layer0
10
1322.67431235642
20
284.727700634832
30
0
11
1318.01505409353
21
287.763732428242
31
0
0
LINE
8
layer0
10
1318.01505409353
20
287.763732428242
30
0
11
1303.52616669919
21
251.181573438595
31
0
0
LINE
8
layer0
10
1306.02367726181
20
260.666811502377
30
0
11
1303.52616669919
21
251.181573438595
31
0
0
LINE
8
layer0
10
1303.52616669919
20
251.181573438595
30
0
11
1318.01505409353
21
287.763732428242
31
0
0
LINE
8
layer0
10
1318.01505409353
20
287.763732428242
30
0
11
1319.01405831857
21
291.557827653754
31
0
0
LINE
8
layer0
10
1319.01405831857
20
291.557827653754
30
0
11
1306.02367726181
21
260.666811502377
31
0
0
LINE
8
layer0
10
1321.20383622886
20
266.49088433099
30
0
11
1306.02367726181
21
260.666811502377
31
0
0
LINE
8
layer0
10
1306.02367726181
20
260.666811502377
30
0
11
1319.01405831857
21
291.557827653754
31
0
0
LINE
8
layer0
10
1319.01405831857
20
291.557827653754
30
0
11
1325.08612190539
21
293.8874567852
31
0
0
LINE
8
layer0
10
1325.08612190539
20
293.8874567852
30
0
11
1321.20383622886
21
266.49088433099
31
0
0
LINE
8
layer0
10
1340.17431235642
20
265.242129049682
30
0
11
1321.20383622886
21
266.49088433099
31
0
0
LINE
8
layer0
10
1321.20383622886
20
266.49088433099
30
0
11
1325.08612190539
21
293.8874567852
31
0
0
LINE
8
layer0
10
1325.08612190539
20
293.8874567852
30
0
11
1332.67431235642
21
293.387954672677
31
0
0
LINE
8
layer0
10
1332.67431235642
20
293.387954672677
30
0
11
1340.17431235642
21
265.242129049682
31
0
0
LINE
8
layer0
10
1332.67431235642
20
293.387954672677
30
0
11
1325.08612190539
21
293.8874567852
31
0
0
LINE
8
layer0
10
1325.08612190539
20
293.8874567852
30
0
11
1319.01405831857
21
291.557827653754
31
0
0
LINE
8
layer0
10
1319.01405831857
20
291.557827653754
30
0
11
1318.01505409353
21
287.763732428242
31
0
0
LINE
8
layer0
10
1318.01505409353
20
287.763732428242
30
0
11
1322.67431235642
21
284.727700634832
31
0
0
LINE
8
layer0
10
1322.67431235642
20
284.727700634832
30
0
11
1330.26250280744
21
284.228198522309
31
0
0
LINE
8
layer0
10
1330.26250280744
20
284.228198522309
30
0
11
1336.33456639426
21
286.557827653754
31
0
0
LINE
8
layer0
10
1336.33456639426
20
286.557827653754
30
0
11
1337.33357061931
21
290.351922879267
31
0
0
LINE
8
layer0
10
1337.33357061931
20
290.351922879267
30
0
11
1332.67431235642
21
293.387954672677
31
0
0
LINE
8
layer0
10
1321.20383622886
20
266.49088433099
30
0
11
1340.17431235642
21
265.242129049682
31
0
0
LINE
8
layer0
10
1340.17431235642
20
265.242129049682
30
0
11
1351.82245801365
21
257.652049566159
31
0
0
LINE
8
layer0
10
1351.82245801365
20
257.652049566159
30
0
11
1349.32494745103
21
248.166811502377
31
0
0
LINE
8
layer0
10
1349.32494745103
20
248.166811502377
30
0
11
1334.14478848398
21
242.342738673764
31
0
0
LINE
8
layer0
10
1334.14478848398
20
242.342738673764
30
0
11
1315.17431235642
21
243.591493955071
31
0
0
LINE
8
layer0
10
1315.17431235642
20
243.591493955071
30
0
11
1303.52616669919
21
251.181573438595
31
0
0
LINE
8
layer0
10
1303.52616669919
20
251.181573438595
30
0
11
1306.02367726181
21
260.666811502377
31
0
0
LINE
8
layer0
10
1306.02367726181
20
260.666811502377
30
0
11
1321.20383622886
21
266.49088433099
31
0
0
ENDBLK
0
BLOCK
8
layer0
2
PF_OBJECT45
70
0
10
0
20
0
30
0
0
LINE
8
layer0
10
1334.91875605359
20
290.028399072889
30
0
11
1331.42431235642
21
292.305422917946
31
0
0
LINE
8
layer0
10
1331.42431235642
20
292.305422917946
30
0
11
1331.42431235642
21
387.568217334234
31
0
0
LINE
8
layer0
10
1331.42431235642
20
387.568217334234
30
0
11
1334.91875605359
21
385.291193489177
31
0
0
LINE
8
layer0
10
1334.91875605359
20
385.291193489177
30
0
11
1334.91875605359
21
290.028399072889
31
0
0
LINE
8
layer0
10
1334.1695028848
20
287.182827653754
30
0
11
1334.91875605359
21
290.028399072889
31
0
0
LINE
8
layer0
10
1334.91875605359
20
290.028399072889
30
0
11
1334.91875605359
21
385.291193489177
31
0
0
LINE
8
layer0
10
1334.91875605359
20
385.291193489177
30
0
11
1334.1695028848
21
382.445622070043
31
0
0
LINE
8
layer0
10
1334.1695028848
20
382.445622070043
30
0
11
1334.1695028848
21
287.182827653754
31
0
0
LINE
8
layer0
10
1329.61545519469
20
285.435605805171
30
0
11
1334.1695028848
21
287.182827653754
31
0
0
LINE
8
layer0
10
1334.1695028848
20
287.182827653754
30
0
11
1334.1695028848
21
382.445622070043
31
0
0
LINE
8
layer0
10
1334.1695028848
20
382.445622070043
30
0
11
1329.61545519469
21
380.698400221459
31
0
0
LINE
8
layer0
10
1329.61545519469
20
380.698400221459
30
0
11
1329.61545519469
21
285.435605805171
31
0
0
LINE
8
layer0
10
1323.92431235642
20
285.810232389563
30
0
11
1329.61545519469
21
285.435605805171
31
0
0
LINE
8
layer0
10
1329.61545519469
20
285.435605805171
30
0
11
1329.61545519469
21
380.698400221459
31
0
0
LINE
8
layer0
10
1329.61545519469
20
380.698400221459
30
0
11
1323.92431235642
21
381.073026805851
31
0
0
LINE
8
layer0
10
1323.92431235642
20
381.073026805851
30
0
11
1323.92431235642
21
285.810232389563
31
0
0
LINE
8
layer0
10
1320.42986865925
20
288.08725623462
30
0
11
1323.92431235642
21
285.810232389563
31
0
0
LINE
8
layer0
10
1323.92431235642
20
285.810232389563
30
0
11
1323.92431235642
21
381.073026805851
31
0
0
LINE
8
layer0
10
1323.92431235642
20
381.073026805851
30
0
11
1320.42986865925
21
383.350050650908
31
0
0
LINE
8
layer0
10
1320.42986865925
20
383.350050650908
30
0
11
1320.42986865925
21
288.08725623462
31
0
0
LINE
8
layer0
10
1321.17912182804
20
290.932827653754
30
0
11
1320.42986865925
21
288.08725623462
31
0
0
LINE
8
layer0
10
1320.42986865925
20
288.08725623462
30
0
11
1320.42986865925
21
383.350050650908
31
0
0
LINE
8
layer0
10
1320.42986865925
20
383.350050650908
30
0
11
1321.17912182804
21
386.195622070043
31
0
0
LINE
8
layer0
10
1321.17912182804
20
386.195622070043
30
0
11
1321.17912182804
21
290.932827653754
31
0
0
LINE
8
layer0
10
1325.73316951815
20
292.680049502339
30
0
11
1321.17912182804
21
290.932827653754
31
0
0
LINE
8
layer0
10
1321.17912182804
20
290.932827653754
30
0
11
1321.17912182804
21
386.195622070043
31
0
0
LINE
8
layer0
10
1321.17912182804
20
386.195622070043
30
0
11
1325.73316951815
21
387.942843918627
31
0
0
LINE
8
layer0
10
1325.73316951815
20
387.942843918627
30
0
11
1325.73316951815
21
292.680049502339
31
0
0
LINE
8
layer0
10
1331.42431235642
20
292.305422917946
30
0
11
1325.73316951815
21
292.680049502339
31
0
0
LINE
8
layer0
10
1325.73316951815
20
292.680049502339
30
0
11
1325.73316951815
21
387.942843918627
31
0
0
LINE
8
layer0
10
1325.73316951815
20
387.942843918627
30
0
11
1331.42431235642
21
387.568217334234
31
0
0
LINE
8
layer0
10
1331.42431235642
20
387.568217334234
30
0
11
1331.42431235642
21
292.305422917946
31
0
0
LINE
8
layer0
10
1331.42431235642
20
387.568217334234
30
0
11
1325.73316951815
21
387.942843918627
31
0
0
LINE
8
layer0
10
1325.73316951815
20
387.942843918627
30
0
11
1321.17912182804
21
386.195622070043
31
0
0
LINE
8
layer0
10
1321.17912182804
20
386.195622070043
30
0
11
1320.42986865925
21
383.350050650908
31
0
0
LINE
8
layer0
10
1320.42986865925
20
383.350050650908
30
0
11
1323.92431235642
21
381.073026805851
31
0
0
LINE
8
layer0
10
1323.92431235642
20
381.073026805851
30
0
11
1329.61545519469
21
380.698400221459
31
0
0
LINE
8
layer0
10
1329.61545519469
20
380.698400221459
30
0
11
1334.1695028848
21
382.445622070043
31
0
0
LINE
8
layer0
10
1334.1695028848
20
382.445622070043
30
0
11
1334.91875605359
21
385.291193489177
31
0
0
LINE
8
layer0
10
1334.91875605359
20
385.291193489177
30
0
11
1331.42431235642
21
387.568217334234
31
0
0
LINE
8
layer0
10
1325.73316951815
20
292.680049502339
30
0
11
1331.42431235642
21
292.305422917946
31
0
0
LINE
8
layer0
10
1331.42431235642
20
292.305422917946
30
0
11
1334.91875605359
21
290.028399072889
31
0
0
LINE
8
layer0
10
1334.91875605359
20
290.028399072889
30
0
11
1334.1695028848
21
287.182827653754
31
0
0
LINE
8
layer0
10
1334.1695028848
20
287.182827653754
30
0
11
1329.61545519469
21
285.435605805171
31
0
0
LINE
8
layer0
10
1329.61545519469
20
285.435605805171
30
0
11
1323.92431235642
21
285.810232389563
31
0
0
LINE
8
layer0
10
1323.92431235642
20
285.810232389563
30
0
11
1320.42986865925
21
288.08725623462
31
0
0
LINE
8
layer0
10
1320.42986865925
20
288.08725623462
30
0
11
1321.17912182804
21
290.932827653754
31
0
0
LINE
8
layer0
10
1321.17912182804
20
290.932827653754
30
0
11
1325.73316951815
21
292.680049502339
31
0
0
ENDBLK
0
BLOCK
8
layer0
2
PF_OBJECT46
70
0
10
0
20
0
30
0
0
LINE
8
layer0
10
1270.06476247409
20
340.32928837136
30
0
11
1269.97815993371
21
340.35428837136
31
0
0
LINE
8
layer0
10
1269.97815993371
20
340.35428837136
30
0
11
1265.58805653093
21
338.331249403104
31
0
0
LINE
8
layer0
10
1265.58805653093
20
338.331249403104
30
0
11
1265.33862137996
21
335.348736341066
31
0
0
LINE
8
layer0
10
1265.33862137996
20
335.348736341066
30
0
11
1269.37560538735
21
333.149502685929
31
0
0
LINE
8
layer0
10
1269.37560538735
20
333.149502685929
30
0
11
1275.340102535
21
333.018613103493
31
0
0
LINE
8
layer0
10
1275.340102535
20
333.018613103493
30
0
11
1279.74691491508
21
335.03254949786
31
0
0
LINE
8
layer0
10
1279.74691491508
20
335.03254949786
30
0
11
1280.02103697271
21
338.014520811143
31
0
0
LINE
8
layer0
10
1280.02103697271
20
338.014520811143
30
0
11
1276.00229265314
21
340.222090099374
31
0
0
LINE
8
layer0
10
1276.00229265314
20
340.222090099374
30
0
11
1270.06476247409
21
340.32928837136
31
0
0
LINE
8
layer0
10
1320.06476247409
20
383.630558560582
30
0
11
1319.97815993371
21
383.655558560582
31
0
0
LINE
8
layer0
10
1319.97815993371
20
383.655558560582
30
0
11
1321.28711451103
21
386.568048580735
31
0
0
LINE
8
layer0
10
1321.28711451103
20
386.568048580735
30
0
11
1326.32826109324
21
388.167313700421
31
0
0
LINE
8
layer0
10
1326.32826109324
20
388.167313700421
30
0
11
1332.15593752534
21
387.518865175455
31
0
0
LINE
8
layer0
10
1332.15593752534
20
387.518865175455
30
0
11
1335.36489350613
21
385.001606941342
31
0
0
LINE
8
layer0
10
1335.36489350613
20
385.001606941342
30
0
11
1334.08005953791
21
382.086433008727
31
0
0
LINE
8
layer0
10
1334.08005953791
20
382.086433008727
30
0
11
1329.05219474541
21
380.476749019261
31
0
0
LINE
8
layer0
10
1329.05219474541
20
380.476749019261
30
0
11
1323.21920041718
21
381.113131711178
31
0
0
LINE
8
layer0
10
1323.21920041718
20
381.113131711178
30
0
11
1320.06476247409
21
383.630558560582
31
0
0
LINE
8
layer0
10
1269.97815993371
20
340.35428837136
30
0
11
1270.06476247409
21
340.32928837136
31
0
0
LINE
8
layer0
10
1270.06476247409
20
340.32928837136
30
0
11
1276.00229265314
21
340.222090099374
31
0
0
LINE
8
layer0
10
1276.00229265314
20
340.222090099374
30
0
11
1280.02103697271
21
338.014520811143
31
0
0
LINE
8
layer0
10
1280.02103697271
20
338.014520811143
30
0
11
1279.74691491508
21
335.03254949786
31
0
0
LINE
8
layer0
10
1279.74691491508
20
335.03254949786
30
0
11
1275.340102535
21
333.018613103493
31
0
0
LINE
8
layer0
10
1275.340102535
20
333.018613103493
30
0
11
1269.37560538735
21
333.149502685929
31
0
0
LINE
8
layer0
10
1269.37560538735
20
333.149502685929
30
0
11
1265.33862137996
21
335.348736341066
31
0
0
LINE
8
layer0
10
1265.33862137996
20
335.348736341066
30
0
11
1265.58805653093
21
338.331249403104
31
0
0
LINE
8
layer0
10
1265.58805653093
20
338.331249403104
30
0
11
1269.97815993371
21
340.35428837136
31
0
0
LINE
8
layer0
10
1319.97815993371
20
383.655558560582
30
0
11
1320.06476247409
21
383.630558560582
31
0
0
LINE
8
layer0
10
1320.06476247409
20
383.630558560582
30
0
11
1323.21920041718
21
381.113131711178
31
0
0
LINE
8
layer0
10
1323.21920041718
20
381.113131711178
30
0
11
1329.05219474541
21
380.476749019261
31
0
0
LINE
8
layer0
10
1329.05219474541
20
380.476749019261
30
0
11
1334.08005953791
21
382.086433008727
31
0
0
LINE
8
layer0
10
1334.08005953791
20
382.086433008727
30
0
11
1335.36489350613
21
385.001606941342
31
0
0
LINE
8
layer0
10
1335.36489350613
20
385.001606941342
30
0
11
1332.15593752534
21
387.518865175455
31
0
0
LINE
8
layer0
10
1332.15593752534
20
387.518865175455
30
0
11
1326.32826109324
21
388.167313700421
31
0
0
LINE
8
layer0
10
1326.32826109324
20
388.167313700421
30
0
11
1321.28711451103
21
386.568048580735
31
0
0
LINE
8
layer0
10
1321.28711451103
20
386.568048580735
30
0
11
1319.97815993371
21
383.655558560582
31
0
0
LINE
8
layer0
10
1269.97815993371
20
340.35428837136
30
0
11
1265.58805653093
21
338.331249403104
31
0
0
LINE
8
layer0
10
1265.58805653093
20
338.331249403104
30
0
11
1266.19663555779
21
348.887288777239
31
0
0
LINE
8
layer0
10
1266.19663555779
20
348.887288777239
30
0
11
1270.52446991537
21
349.830246993412
31
0
0
LINE
8
layer0
10
1270.52446991537
20
349.830246993412
30
0
11
1269.97815993371
21
340.35428837136
31
0
0
LINE
8
layer0
10
1265.58805653093
20
338.331249403104
30
0
11
1265.33862137996
21
335.348736341066
31
0
0
LINE
8
layer0
10
1265.33862137996
20
335.348736341066
30
0
11
1266.00500635902
21
346.907442387003
31
0
0
LINE
8
layer0
10
1266.00500635902
20
346.907442387003
30
0
11
1266.19663555779
21
348.887288777239
31
0
0
LINE
8
layer0
10
1266.19663555779
20
348.887288777239
30
0
11
1265.58805653093
21
338.331249403104
31
0
0
LINE
8
layer0
10
1265.33862137996
20
335.348736341066
30
0
11
1269.37560538735
21
333.149502685929
31
0
0
LINE
8
layer0
10
1269.37560538735
20
333.149502685929
30
0
11
1270.06155582932
21
345.047579278294
31
0
0
LINE
8
layer0
10
1270.06155582932
20
345.047579278294
30
0
11
1266.00500635902
21
346.907442387003
31
0
0
LINE
8
layer0
10
1266.00500635902
20
346.907442387003
30
0
11
1265.33862137996
21
335.348736341066
31
0
0
LINE
8
layer0
10
1269.37560538735
20
333.149502685929
30
0
11
1275.340102535
21
333.018613103493
31
0
0
LINE
8
layer0
10
1275.340102535
20
333.018613103493
30
0
11
1275.99594538408
21
344.394461814287
31
0
0
LINE
8
layer0
10
1275.99594538408
20
344.394461814287
30
0
11
1270.06155582932
21
345.047579278294
31
0
0
LINE
8
layer0
10
1270.06155582932
20
345.047579278294
30
0
11
1269.37560538735
21
333.149502685929
31
0
0
LINE
8
layer0
10
1275.340102535
20
333.018613103493
30
0
11
1279.74691491508
21
335.03254949786
31
0
0
LINE
8
layer0
10
1279.74691491508
20
335.03254949786
30
0
11
1280.34056969992
21
345.329722102899
31
0
0
LINE
8
layer0
10
1280.34056969992
20
345.329722102899
30
0
11
1275.99594538408
21
344.394461814287
31
0
0
LINE
8
layer0
10
1275.99594538408
20
344.394461814287
30
0
11
1275.340102535
21
333.018613103493
31
0
0
LINE
8
layer0
10
1279.74691491508
20
335.03254949786
30
0
11
1280.02103697271
21
338.014520811143
31
0
0
LINE
8
layer0
10
1280.02103697271
20
338.014520811143
30
0
11
1280.55676119078
21
347.306865256051
31
0
0
LINE
8
layer0
10
1280.55676119078
20
347.306865256051
30
0
11
1280.34056969992
21
345.329722102899
31
0
0
LINE
8
layer0
10
1280.34056969992
20
345.329722102899
30
0
11
1279.74691491508
21
335.03254949786
31
0
0
LINE
8
layer0
10
1280.02103697271
20
338.014520811143
30
0
11
1276.00229265314
21
340.222090099374
31
0
0
LINE
8
layer0
10
1276.00229265314
20
340.222090099374
30
0
11
1276.51819401343
21
349.170599384039
31
0
0
LINE
8
layer0
10
1276.51819401343
20
349.170599384039
30
0
11
1280.55676119078
21
347.306865256051
31
0
0
LINE
8
layer0
10
1280.55676119078
20
347.306865256051
30
0
11
1280.02103697271
21
338.014520811143
31
0
0
LINE
8
layer0
10
1276.00229265314
20
340.222090099374
30
0
11
1270.06476247409
21
340.32928837136
31
0
0
LINE
8
layer0
10
1270.06476247409
20
340.32928837136
30
0
11
1270.61107245575
21
349.805246993412
31
0
0
LINE
8
layer0
10
1270.61107245575
20
349.805246993412
30
0
11
1276.51819401343
21
349.170599384039
31
0
0
LINE
8
layer0
10
1276.51819401343
20
349.170599384039
30
0
11
1276.00229265314
21
340.222090099374
31
0
0
LINE
8
layer0
10
1270.06476247409
20
340.32928837136
30
0
11
1269.97815993371
21
340.35428837136
31
0
0
LINE
8
layer0
10
1269.97815993371
20
340.35428837136
30
0
11
1270.52446991537
21
349.830246993412
31
0
0
LINE
8
layer0
10
1270.52446991537
20
349.830246993412
30
0
11
1270.61107245575
21
349.805246993412
31
0
0
LINE
8
layer0
10
1270.61107245575
20
349.805246993412
30
0
11
1270.06476247409
21
340.32928837136
31
0
0
LINE
8
layer0
10
1270.52446991537
20
349.830246993412
30
0
11
1266.19663555779
21
348.887288777239
31
0
0
LINE
8
layer0
10
1266.19663555779
20
348.887288777239
30
0
11
1267.99577481463
21
360.03606837218
31
0
0
LINE
8
layer0
10
1267.99577481463
20
360.03606837218
30
0
11
1272.13952349265
21
359.838297397894
31
0
0
LINE
8
layer0
10
1272.13952349265
20
359.838297397894
30
0
11
1270.52446991537
21
349.830246993412
31
0
0
LINE
8
layer0
10
1266.19663555779
20
348.887288777239
30
0
11
1266.00500635902
21
346.907442387003
31
0
0
LINE
8
layer0
10
1266.00500635902
20
346.907442387003
30
0
11
1267.97503707494
21
359.115190155035
31
0
0
LINE
8
layer0
10
1267.97503707494
20
359.115190155035
30
0
11
1267.99577481463
21
360.03606837218
31
0
0
LINE
8
layer0
10
1267.99577481463
20
360.03606837218
30
0
11
1266.19663555779
21
348.887288777239
31
0
0
LINE
8
layer0
10
1266.00500635902
20
346.907442387003
30
0
11
1270.06155582932
21
345.047579278294
31
0
0
LINE
8
layer0
10
1270.06155582932
20
345.047579278294
30
0
11
1272.08942782937
21
357.613753847238
31
0
0
LINE
8
layer0
10
1272.08942782937
20
357.613753847238
30
0
11
1267.97503707494
21
359.115190155035
31
0
0
LINE
8
layer0
10
1267.97503707494
20
359.115190155035
30
0
11
1266.00500635902
21
346.907442387003
31
0
0
LINE
8
layer0
10
1270.06155582932
20
345.047579278294
30
0
11
1275.99594538408
21
344.394461814287
31
0
0
LINE
8
layer0
10
1275.99594538408
20
344.394461814287
30
0
11
1277.93481045175
21
356.409084485439
31
0
0
LINE
8
layer0
10
1277.93481045175
20
356.409084485439
30
0
11
1272.08942782937
21
357.613753847238
31
0
0
LINE
8
layer0
10
1272.08942782937
20
357.613753847238
30
0
11
1270.06155582932
21
345.047579278294
31
0
0
LINE
8
layer0
10
1275.99594538408
20
344.394461814287
30
0
11
1280.34056969992
21
345.329722102899
31
0
0
LINE
8
layer0
10
1280.34056969992
20
345.329722102899
30
0
11
1282.09558849168
21
356.205099103285
31
0
0
LINE
8
layer0
10
1282.09558849168
20
356.205099103285
30
0
11
1277.93481045175
21
356.409084485439
31
0
0
LINE
8
layer0
10
1277.93481045175
20
356.409084485439
30
0
11
1275.99594538408
21
344.394461814287
31
0
0
LINE
8
layer0
10
1280.34056969992
20
345.329722102899
30
0
11
1280.55676119078
21
347.306865256051
31
0
0
LINE
8
layer0
10
1280.55676119078
20
347.306865256051
30
0
11
1282.14052012596
21
357.120991223636
31
0
0
LINE
8
layer0
10
1282.14052012596
20
357.120991223636
30
0
11
1282.09558849168
21
356.205099103285
31
0
0
LINE
8
layer0
10
1282.09558849168
20
356.205099103285
30
0
11
1280.34056969992
21
345.329722102899
31
0
0
LINE
8
layer0
10
1280.55676119078
20
347.306865256051
30
0
11
1276.51819401343
21
349.170599384039
31
0
0
LINE
8
layer0
10
1276.51819401343
20
349.170599384039
30
0
11
1278.04335072928
21
358.621583240965
31
0
0
LINE
8
layer0
10
1278.04335072928
20
358.621583240965
30
0
11
1282.14052012596
21
357.120991223636
31
0
0
LINE
8
layer0
10
1282.14052012596
20
357.120991223636
30
0
11
1280.55676119078
21
347.306865256051
31
0
0
LINE
8
layer0
10
1276.51819401343
20
349.170599384039
30
0
11
1270.61107245575
21
349.805246993412
31
0
0
LINE
8
layer0
10
1270.61107245575
20
349.805246993412
30
0
11
1272.22612603303
21
359.813297397894
31
0
0
LINE
8
layer0
10
1272.22612603303
20
359.813297397894
30
0
11
1278.04335072928
21
358.621583240965
31
0
0
LINE
8
layer0
10
1278.04335072928
20
358.621583240965
30
0
11
1276.51819401343
21
349.170599384039
31
0
0
LINE
8
layer0
10
1270.61107245575
20
349.805246993412
30
0
11
1270.52446991537
21
349.830246993412
31
0
0
LINE
8
layer0
10
1270.52446991537
20
349.830246993412
30
0
11
1272.13952349265
21
359.838297397894
31
0
0
LINE
8
layer0
10
1272.13952349265
20
359.838297397894
30
0
11
1272.22612603303
21
359.813297397894
31
0
0
LINE
8
layer0
10
1272.22612603303
20
359.813297397894
30
0
11
1270.61107245575
21
349.805246993412
31
0
0
LINE
8
layer0
10
1272.13952349265
20
359.838297397894
30
0
11
1267.99577481463
21
360.03606837218
31
0
0
LINE
8
layer0
10
1267.99577481463
20
360.03606837218
30
0
11
1270.90684328269
21
371.290333021848
31
0
0
LINE
8
layer0
10
1270.90684328269
20
371.290333021848
30
0
11
1274.75273507434
21
369.941039758176
31
0
0
LINE
8
layer0
10
1274.75273507434
20
369.941039758176
30
0
11
1272.13952349265
21
359.838297397894
31
0
0
LINE
8
layer0
10
1267.99577481463
20
360.03606837218
30
0
11
1267.97503707494
21
359.115190155035
31
0
0
LINE
8
layer0
10
1267.97503707494
20
359.115190155035
30
0
11
1271.16261373218
21
371.438442488428
31
0
0
LINE
8
layer0
10
1271.16261373218
20
371.438442488428
30
0
11
1270.90684328269
21
371.290333021848
31
0
0
LINE
8
layer0
10
1270.90684328269
20
371.290333021848
30
0
11
1267.99577481463
21
360.03606837218
31
0
0
LINE
8
layer0
10
1267.97503707494
20
359.115190155035
30
0
11
1272.08942782937
21
357.613753847238
31
0
0
LINE
8
layer0
10
1272.08942782937
20
357.613753847238
30
0
11
1275.37059365028
21
370.2988242649
31
0
0
LINE
8
layer0
10
1275.37059365028
20
370.2988242649
30
0
11
1271.16261373218
21
371.438442488428
31
0
0
LINE
8
layer0
10
1271.16261373218
20
371.438442488428
30
0
11
1267.97503707494
21
359.115190155035
31
0
0
LINE
8
layer0
10
1272.08942782937
20
357.613753847238
30
0
11
1277.93481045175
21
356.409084485439
31
0
0
LINE
8
layer0
10
1277.93481045175
20
356.409084485439
30
0
11
1281.07196003084
21
368.537384453661
31
0
0
LINE
8
layer0
10
1281.07196003084
20
368.537384453661
30
0
11
1275.37059365028
21
370.2988242649
31
0
0
LINE
8
layer0
10
1275.37059365028
20
370.2988242649
30
0
11
1272.08942782937
21
357.613753847238
31
0
0
LINE
8
layer0
10
1277.93481045175
20
356.409084485439
30
0
11
1282.09558849168
21
356.205099103285
31
0
0
LINE
8
layer0
10
1282.09558849168
20
356.205099103285
30
0
11
1284.93526854764
21
367.183374338254
31
0
0
LINE
8
layer0
10
1284.93526854764
20
367.183374338254
30
0
11
1281.07196003084
21
368.537384453661
31
0
0
LINE
8
layer0
10
1281.07196003084
20
368.537384453661
30
0
11
1277.93481045175
21
356.409084485439
31
0
0
LINE
8
layer0
10
1282.09558849168
20
356.205099103285
30
0
11
1282.14052012596
21
357.120991223636
31
0
0
LINE
8
layer0
10
1282.14052012596
20
357.120991223636
30
0
11
1284.70309591307
21
367.027974315714
31
0
0
LINE
8
layer0
10
1284.70309591307
20
367.027974315714
30
0
11
1284.93526854764
21
367.183374338254
31
0
0
LINE
8
layer0
10
1284.93526854764
20
367.183374338254
30
0
11
1282.09558849168
21
356.205099103285
31
0
0
LINE
8
layer0
10
1282.14052012596
20
357.120991223636
30
0
11
1278.04335072928
21
358.621583240965
31
0
0
LINE
8
layer0
10
1278.04335072928
20
358.621583240965
30
0
11
1280.51110613369
21
368.161988324751
31
0
0
LINE
8
layer0
10
1280.51110613369
20
368.161988324751
30
0
11
1284.70309591307
21
367.027974315714
31
0
0
LINE
8
layer0
10
1284.70309591307
20
367.027974315714
30
0
11
1282.14052012596
21
357.120991223636
31
0
0
LINE
8
layer0
10
1278.04335072928
20
358.621583240965
30
0
11
1272.22612603303
21
359.813297397894
31
0
0
LINE
8
layer0
10
1272.22612603303
20
359.813297397894
30
0
11
1274.83933761472
21
369.916039758176
31
0
0
LINE
8
layer0
10
1274.83933761472
20
369.916039758176
30
0
11
1280.51110613369
21
368.161988324751
31
0
0
LINE
8
layer0
10
1280.51110613369
20
368.161988324751
30
0
11
1278.04335072928
21
358.621583240965
31
0
0
LINE
8
layer0
10
1272.22612603303
20
359.813297397894
30
0
11
1272.13952349265
21
359.838297397894
31
0
0
LINE
8
layer0
10
1272.13952349265
20
359.838297397894
30
0
11
1274.75273507434
21
369.941039758176
31
0
0
LINE
8
layer0
10
1274.75273507434
20
369.941039758176
30
0
11
1274.83933761472
21
369.916039758176
31
0
0
LINE
8
layer0
10
1274.83933761472
20
369.916039758176
30
0
11
1272.22612603303
21
359.813297397894
31
0
0
LINE
8
layer0
10
1274.75273507434
20
369.941039758176
30
0
11
1270.90684328269
21
371.290333021848
31
0
0
LINE
8
layer0
10
1270.90684328269
20
371.290333021848
30
0
11
1274.80261330106
21
382.158217357099
31
0
0
LINE
8
layer0
10
1274.80261330106
20
382.158217357099
30
0
11
1278.24989477474
21
379.696935754778
31
0
0
LINE
8
layer0
10
1278.24989477474
20
379.696935754778
30
0
11
1274.75273507434
21
369.941039758176
31
0
0
LINE
8
layer0
10
1270.90684328269
20
371.290333021848
30
0
11
1271.16261373218
21
371.438442488428
31
0
0
LINE
8
layer0
10
1271.16261373218
20
371.438442488428
30
0
11
1275.42842393512
21
383.338614126687
31
0
0
LINE
8
layer0
10
1275.42842393512
20
383.338614126687
30
0
11
1274.80261330106
21
382.158217357099
31
0
0
LINE
8
layer0
10
1274.80261330106
20
382.158217357099
30
0
11
1270.90684328269
21
371.290333021848
31
0
0
LINE
8
layer0
10
1271.16261373218
20
371.438442488428
30
0
11
1275.37059365028
21
370.2988242649
31
0
0
LINE
8
layer0
10
1275.37059365028
20
370.2988242649
30
0
11
1279.76165060089
21
382.548392084307
31
0
0
LINE
8
layer0
10
1279.76165060089
20
382.548392084307
30
0
11
1275.42842393512
21
383.338614126687
31
0
0
LINE
8
layer0
10
1275.42842393512
20
383.338614126687
30
0
11
1271.16261373218
21
371.438442488428
31
0
0
LINE
8
layer0
10
1275.37059365028
20
370.2988242649
30
0
11
1281.07196003084
21
368.537384453661
31
0
0
LINE
8
layer0
10
1281.07196003084
20
368.537384453661
30
0
11
1285.27028563102
21
380.249296812304
31
0
0
LINE
8
layer0
10
1285.27028563102
20
380.249296812304
30
0
11
1279.76165060089
21
382.548392084307
31
0
0
LINE
8
layer0
10
1279.76165060089
20
382.548392084307
30
0
11
1275.37059365028
21
370.2988242649
31
0
0
LINE
8
layer0
10
1281.07196003084
20
368.537384453661
30
0
11
1284.93526854764
21
367.183374338254
31
0
0
LINE
8
layer0
10
1284.93526854764
20
367.183374338254
30
0
11
1288.73550222306
21
377.784744500428
31
0
0
LINE
8
layer0
10
1288.73550222306
20
377.784744500428
30
0
11
1285.27028563102
21
380.249296812304
31
0
0
LINE
8
layer0
10
1285.27028563102
20
380.249296812304
30
0
11
1281.07196003084
21
368.537384453661
31
0
0
LINE
8
layer0
10
1284.93526854764
20
367.183374338254
30
0
11
1284.70309591307
21
367.027974315714
31
0
0
LINE
8
layer0
10
1284.70309591307
20
367.027974315714
30
0
11
1288.1324916936
21
376.594831832182
31
0
0
LINE
8
layer0
10
1288.1324916936
20
376.594831832182
30
0
11
1288.73550222306
21
377.784744500428
31
0
0
LINE
8
layer0
10
1288.73550222306
20
377.784744500428
30
0
11
1284.93526854764
21
367.183374338254
31
0
0
LINE
8
layer0
10
1284.70309591307
20
367.027974315714
30
0
11
1280.51110613369
21
368.161988324751
31
0
0
LINE
8
layer0
10
1280.51110613369
20
368.161988324751
30
0
11
1283.81360747389
21
377.374853153293
31
0
0
LINE
8
layer0
10
1283.81360747389
20
377.374853153293
30
0
11
1288.1324916936
21
376.594831832182
31
0
0
LINE
8
layer0
10
1288.1324916936
20
376.594831832182
30
0
11
1284.70309591307
21
367.027974315714
31
0
0
LINE
8
layer0
10
1280.51110613369
20
368.161988324751
30
0
11
1274.83933761472
21
369.916039758176
31
0
0
LINE
8
layer0
10
1274.83933761472
20
369.916039758176
30
0
11
1278.33649731512
21
379.671935754778
31
0
0
LINE
8
layer0
10
1278.33649731512
20
379.671935754778
30
0
11
1283.81360747389
21
377.374853153293
31
0
0
LINE
8
layer0
10
1283.81360747389
20
377.374853153293
30
0
11
1280.51110613369
21
368.161988324751
31
0
0
LINE
8
layer0
10
1274.83933761472
20
369.916039758176
30
0
11
1274.75273507434
21
369.941039758176
31
0
0
LINE
8
layer0
10
1274.75273507434
20
369.941039758176
30
0
11
1278.24989477474
21
379.696935754778
31
0
0
LINE
8
layer0
10
1278.24989477474
20
379.696935754778
30
0
11
1278.33649731512
21
379.671935754778
31
0
0
LINE
8
layer0
10
1278.33649731512
20
379.671935754778
30
0
11
1274.83933761472
21
369.916039758176
31
0
0
LINE
8
layer0
10
1278.24989477474
20
379.696935754778
30
0
11
1274.80261330106
21
382.158217357099
31
0
0
LINE
8
layer0
10
1274.80261330106
20
382.158217357099
30
0
11
1279.51282102595
21
392.164742682589
31
0
0
LINE
8
layer0
10
1279.51282102595
20
392.164742682589
30
0
11
1282.47815993371
21
388.679605918665
31
0
0
LINE
8
layer0
10
1282.47815993371
20
388.679605918665
30
0
11
1278.24989477474
21
379.696935754778
31
0
0
LINE
8
layer0
10
1274.80261330106
20
382.158217357099
30
0
11
1275.42842393512
21
383.338614126687
31
0
0
LINE
8
layer0
10
1275.42842393512
20
383.338614126687
30
0
11
1280.58603130828
21
394.29561046586
31
0
0
LINE
8
layer0
10
1280.58603130828
20
394.29561046586
30
0
11
1279.51282102595
21
392.164742682589
31
0
0
LINE
8
layer0
10
1279.51282102595
20
392.164742682589
30
0
11
1274.80261330106
21
382.158217357099
31
0
0
LINE
8
layer0
10
1275.42842393512
20
383.338614126687
30
0
11
1279.76165060089
21
382.548392084307
31
0
0
LINE
8
layer0
10
1279.76165060089
20
382.548392084307
30
0
11
1285.07068842185
21
393.827092411805
31
0
0
LINE
8
layer0
10
1285.07068842185
20
393.827092411805
30
0
11
1280.58603130828
21
394.29561046586
31
0
0
LINE
8
layer0
10
1280.58603130828
20
394.29561046586
30
0
11
1275.42842393512
21
383.338614126687
31
0
0
LINE
8
layer0
10
1279.76165060089
20
382.548392084307
30
0
11
1285.27028563102
21
380.249296812304
31
0
0
LINE
8
layer0
10
1285.27028563102
20
380.249296812304
30
0
11
1290.34630027778
21
391.032954791302
31
0
0
LINE
8
layer0
10
1290.34630027778
20
391.032954791302
30
0
11
1285.07068842185
21
393.827092411805
31
0
0
LINE
8
layer0
10
1285.07068842185
20
393.827092411805
30
0
11
1279.76165060089
21
382.548392084307
31
0
0
LINE
8
layer0
10
1285.27028563102
20
380.249296812304
30
0
11
1288.73550222306
21
377.784744500428
31
0
0
LINE
8
layer0
10
1288.73550222306
20
377.784744500428
30
0
11
1293.33020107079
21
387.545878842702
31
0
0
LINE
8
layer0
10
1293.33020107079
20
387.545878842702
30
0
11
1290.34630027778
21
391.032954791302
31
0
0
LINE
8
layer0
10
1290.34630027778
20
391.032954791302
30
0
11
1285.27028563102
21
380.249296812304
31
0
0
LINE
8
layer0
10
1288.73550222306
20
377.784744500428
30
0
11
1288.1324916936
21
376.594831832182
31
0
0
LINE
8
layer0
10
1288.1324916936
20
376.594831832182
30
0
11
1292.27882641589
21
385.403446192695
31
0
0
LINE
8
layer0
10
1292.27882641589
20
385.403446192695
30
0
11
1293.33020107079
21
387.545878842702
31
0
0
LINE
8
layer0
10
1293.33020107079
20
387.545878842702
30
0
11
1288.73550222306
21
377.784744500428
31
0
0
LINE
8
layer0
10
1288.1324916936
20
376.594831832182
30
0
11
1283.81360747389
21
377.374853153293
31
0
0
LINE
8
layer0
10
1283.81360747389
20
377.374853153293
30
0
11
1287.80651959415
21
385.857531325354
31
0
0
LINE
8
layer0
10
1287.80651959415
20
385.857531325354
30
0
11
1292.27882641589
21
385.403446192695
31
0
0
LINE
8
layer0
10
1292.27882641589
20
385.403446192695
30
0
11
1288.1324916936
21
376.594831832182
31
0
0
LINE
8
layer0
10
1283.81360747389
20
377.374853153293
30
0
11
1278.33649731512
21
379.671935754778
31
0
0
LINE
8
layer0
10
1278.33649731512
20
379.671935754778
30
0
11
1282.56476247409
21
388.654605918665
31
0
0
LINE
8
layer0
10
1282.56476247409
20
388.654605918665
30
0
11
1287.80651959415
21
385.857531325354
31
0
0
LINE
8
layer0
10
1287.80651959415
20
385.857531325354
30
0
11
1283.81360747389
21
377.374853153293
31
0
0
LINE
8
layer0
10
1278.33649731512
20
379.671935754778
30
0
11
1278.24989477474
21
379.696935754778
31
0
0
LINE
8
layer0
10
1278.24989477474
20
379.696935754778
30
0
11
1282.47815993371
21
388.679605918665
31
0
0
LINE
8
layer0
10
1282.47815993371
20
388.679605918665
30
0
11
1282.56476247409
21
388.654605918665
31
0
0
LINE
8
layer0
10
1282.56476247409
20
388.654605918665
30
0
11
1278.33649731512
21
379.671935754778
31
0
0
LINE
8
layer0
10
1282.47815993371
20
388.679605918665
30
0
11
1279.51282102595
21
392.164742682589
31
0
0
LINE
8
layer0
10
1279.51282102595
20
392.164742682589
30
0
11
1284.83160777771
21
400.872575824957
31
0
0
LINE
8
layer0
10
1284.83160777771
20
400.872575824957
30
0
11
1287.25273507434
21
396.496464460042
31
0
0
LINE
8
layer0
10
1287.25273507434
20
396.496464460042
30
0
11
1282.47815993371
21
388.679605918665
31
0
0
LINE
8
layer0
10
1279.51282102595
20
392.164742682589
30
0
11
1280.58603130828
21
394.29561046586
31
0
0
LINE
8
layer0
10
1280.58603130828
20
394.29561046586
30
0
11
1286.4100236605
21
403.830558188423
31
0
0
LINE
8
layer0
10
1286.4100236605
20
403.830558188423
30
0
11
1284.83160777771
21
400.872575824957
31
0
0
LINE
8
layer0
10
1284.83160777771
20
400.872575824957
30
0
11
1279.51282102595
21
392.164742682589
31
0
0
LINE
8
layer0
10
1280.58603130828
20
394.29561046586
30
0
11
1285.07068842185
21
393.827092411805
31
0
0
LINE
8
layer0
10
1285.07068842185
20
393.827092411805
30
0
11
1291.06567668477
21
403.641991921871
31
0
0
LINE
8
layer0
10
1291.06567668477
20
403.641991921871
30
0
11
1286.4100236605
21
403.830558188423
31
0
0
LINE
8
layer0
10
1286.4100236605
20
403.830558188423
30
0
11
1280.58603130828
21
394.29561046586
31
0
0
LINE
8
layer0
10
1285.07068842185
20
393.827092411805
30
0
11
1290.34630027778
21
391.032954791302
31
0
0
LINE
8
layer0
10
1290.34630027778
20
391.032954791302
30
0
11
1296.07815777362
21
400.417060791242
31
0
0
LINE
8
layer0
10
1296.07815777362
20
400.417060791242
30
0
11
1291.06567668477
21
403.641991921871
31
0
0
LINE
8
layer0
10
1291.06567668477
20
403.641991921871
30
0
11
1285.07068842185
21
393.827092411805
31
0
0
LINE
8
layer0
10
1290.34630027778
20
391.032954791302
30
0
11
1293.33020107079
21
387.545878842702
31
0
0
LINE
8
layer0
10
1293.33020107079
20
387.545878842702
30
0
11
1298.51855470335
21
396.040168955198
31
0
0
LINE
8
layer0
10
1298.51855470335
20
396.040168955198
30
0
11
1296.07815777362
21
400.417060791242
31
0
0
LINE
8
layer0
10
1296.07815777362
20
400.417060791242
30
0
11
1290.34630027778
21
391.032954791302
31
0
0
LINE
8
layer0
10
1293.33020107079
20
387.545878842702
30
0
11
1292.27882641589
21
385.403446192695
31
0
0
LINE
8
layer0
10
1292.27882641589
20
385.403446192695
30
0
11
1296.96088535624
21
393.068838681276
31
0
0
LINE
8
layer0
10
1296.96088535624
20
393.068838681276
30
0
11
1298.51855470335
21
396.040168955198
31
0
0
LINE
8
layer0
10
1298.51855470335
20
396.040168955198
30
0
11
1293.33020107079
21
387.545878842702
31
0
0
LINE
8
layer0
10
1292.27882641589
20
385.403446192695
30
0
11
1287.80651959415
21
385.857531325354
31
0
0
LINE
8
layer0
10
1287.80651959415
20
385.857531325354
30
0
11
1292.3153330747
21
393.239289100409
31
0
0
LINE
8
layer0
10
1292.3153330747
20
393.239289100409
30
0
11
1296.96088535624
21
393.068838681276
31
0
0
LINE
8
layer0
10
1296.96088535624
20
393.068838681276
30
0
11
1292.27882641589
21
385.403446192695
31
0
0
LINE
8
layer0
10
1287.80651959415
20
385.857531325354
30
0
11
1282.56476247409
21
388.654605918665
31
0
0
LINE
8
layer0
10
1282.56476247409
20
388.654605918665
30
0
11
1287.33933761472
21
396.471464460042
31
0
0
LINE
8
layer0
10
1287.33933761472
20
396.471464460042
30
0
11
1292.3153330747
21
393.239289100409
31
0
0
LINE
8
layer0
10
1292.3153330747
20
393.239289100409
30
0
11
1287.80651959415
21
385.857531325354
31
0
0
LINE
8
layer0
10
1282.56476247409
20
388.654605918665
30
0
11
1282.47815993371
21
388.679605918665
31
0
0
LINE
8
layer0
10
1282.47815993371
20
388.679605918665
30
0
11
1287.25273507434
21
396.496464460042
31
0
0
LINE
8
layer0
10
1287.25273507434
20
396.496464460042
30
0
11
1287.33933761472
21
396.471464460042
31
0
0
LINE
8
layer0
10
1287.33933761472
20
396.471464460042
30
0
11
1282.56476247409
21
388.654605918665
31
0
0
LINE
8
layer0
10
1287.25273507434
20
396.496464460042
30
0
11
1284.83160777771
21
400.872575824957
31
0
0
LINE
8
layer0
10
1284.83160777771
20
400.872575824957
30
0
11
1290.52651705292
21
407.901142691062
31
0
0
LINE
8
layer0
10
1290.52651705292
20
407.901142691062
30
0
11
1292.36494835202
21
402.805877151201
31
0
0
LINE
8
layer0
10
1292.36494835202
20
402.805877151201
30
0
11
1287.25273507434
21
396.496464460042
31
0
0
LINE
8
layer0
10
1284.83160777771
20
400.872575824957
30
0
11
1286.4100236605
21
403.830558188423
31
0
0
LINE
8
layer0
10
1286.4100236605
20
403.830558188423
30
0
11
1292.64586457936
21
411.526734325146
31
0
0
LINE
8
layer0
10
1292.64586457936
20
411.526734325146
30
0
11
1290.52651705292
21
407.901142691062
31
0
0
LINE
8
layer0
10
1290.52651705292
20
407.901142691062
30
0
11
1284.83160777771
21
400.872575824957
31
0
0
LINE
8
layer0
10
1286.4100236605
20
403.830558188423
30
0
11
1291.06567668477
21
403.641991921871
31
0
0
LINE
8
layer0
10
1291.06567668477
20
403.641991921871
30
0
11
1297.48460563544
21
411.564132408804
31
0
0
LINE
8
layer0
10
1297.48460563544
20
411.564132408804
30
0
11
1292.64586457936
21
411.526734325146
31
0
0
LINE
8
layer0
10
1292.64586457936
20
411.526734325146
30
0
11
1286.4100236605
21
403.830558188423
31
0
0
LINE
8
layer0
10
1291.06567668477
20
403.641991921871
30
0
11
1296.07815777362
21
400.417060791242
31
0
0
LINE
8
layer0
10
1296.07815777362
20
400.417060791242
30
0
11
1302.21534844148
21
407.991484349991
31
0
0
LINE
8
layer0
10
1302.21534844148
20
407.991484349991
30
0
11
1297.48460563544
21
411.564132408804
31
0
0
LINE
8
layer0
10
1297.48460563544
20
411.564132408804
30
0
11
1291.06567668477
21
403.641991921871
31
0
0
LINE
8
layer0
10
1296.07815777362
20
400.417060791242
30
0
11
1298.51855470335
21
396.040168955198
31
0
0
LINE
8
layer0
10
1298.51855470335
20
396.040168955198
30
0
11
1304.07380717053
21
402.896373599876
31
0
0
LINE
8
layer0
10
1304.07380717053
20
402.896373599876
30
0
11
1302.21534844148
21
407.991484349991
31
0
0
LINE
8
layer0
10
1302.21534844148
20
407.991484349991
30
0
11
1296.07815777362
21
400.417060791242
31
0
0
LINE
8
layer0
10
1298.51855470335
20
396.040168955198
30
0
11
1296.96088535624
21
393.068838681276
31
0
0
LINE
8
layer0
10
1296.96088535624
20
393.068838681276
30
0
11
1301.97404007195
21
399.255994863542
31
0
0
LINE
8
layer0
10
1301.97404007195
20
399.255994863542
30
0
11
1304.07380717053
21
402.896373599876
31
0
0
LINE
8
layer0
10
1304.07380717053
20
402.896373599876
30
0
11
1298.51855470335
21
396.040168955198
31
0
0
LINE
8
layer0
10
1296.96088535624
20
393.068838681276
30
0
11
1292.3153330747
21
393.239289100409
31
0
0
LINE
8
layer0
10
1292.3153330747
20
393.239289100409
30
0
11
1297.14299113075
21
399.197508242083
31
0
0
LINE
8
layer0
10
1297.14299113075
20
399.197508242083
30
0
11
1301.97404007195
21
399.255994863542
31
0
0
LINE
8
layer0
10
1301.97404007195
20
399.255994863542
30
0
11
1296.96088535624
21
393.068838681276
31
0
0
LINE
8
layer0
10
1292.3153330747
20
393.239289100409
30
0
11
1287.33933761472
21
396.471464460042
31
0
0
LINE
8
layer0
10
1287.33933761472
20
396.471464460042
30
0
11
1292.4515508924
21
402.780877151201
31
0
0
LINE
8
layer0
10
1292.4515508924
20
402.780877151201
30
0
11
1297.14299113075
21
399.197508242083
31
0
0
LINE
8
layer0
10
1297.14299113075
20
399.197508242083
30
0
11
1292.3153330747
21
393.239289100409
31
0
0
LINE
8
layer0
10
1287.33933761472
20
396.471464460042
30
0
11
1287.25273507434
21
396.496464460042
31
0
0
LINE
8
layer0
10
1287.25273507434
20
396.496464460042
30
0
11
1292.36494835202
21
402.805877151201
31
0
0
LINE
8
layer0
10
1292.36494835202
20
402.805877151201
30
0
11
1292.4515508924
21
402.780877151201
31
0
0
LINE
8
layer0
10
1292.4515508924
20
402.780877151201
30
0
11
1287.33933761472
21
396.471464460042
31
0
0
LINE
8
layer0
10
1292.36494835202
20
402.805877151201
30
0
11
1290.52651705292
21
407.901142691062
31
0
0
LINE
8
layer0
10
1290.52651705292
20
407.901142691062
30
0
11
1296.34865398904
21
412.94326118205
31
0
0
LINE
8
layer0
10
1296.34865398904
20
412.94326118205
30
0
11
1297.5913715154
21
407.332092381618
31
0
0
LINE
8
layer0
10
1297.5913715154
20
407.332092381618
30
0
11
1292.36494835202
21
402.805877151201
31
0
0
LINE
8
layer0
10
1290.52651705292
20
407.901142691062
30
0
11
1292.64586457936
21
411.526734325146
31
0
0
LINE
8
layer0
10
1292.64586457936
20
411.526734325146
30
0
11
1299.02101789384
21
417.047779048503
31
0
0
LINE
8
layer0
10
1299.02101789384
20
417.047779048503
30
0
11
1296.34865398904
21
412.94326118205
31
0
0
LINE
8
layer0
10
1296.34865398904
20
412.94326118205
30
0
11
1290.52651705292
21
407.901142691062
31
0
0
LINE
8
layer0
10
1292.64586457936
20
411.526734325146
30
0
11
1297.48460563544
21
411.564132408804
31
0
0
LINE
8
layer0
10
1297.48460563544
20
411.564132408804
30
0
11
1304.04693727726
21
417.247278318676
31
0
0
LINE
8
layer0
10
1304.04693727726
20
417.247278318676
30
0
11
1299.02101789384
21
417.047779048503
31
0
0
LINE
8
layer0
10
1299.02101789384
20
417.047779048503
30
0
11
1292.64586457936
21
411.526734325146
31
0
0
LINE
8
layer0
10
1297.48460563544
20
411.564132408804
30
0
11
1302.21534844148
21
407.991484349991
31
0
0
LINE
8
layer0
10
1302.21534844148
20
407.991484349991
30
0
11
1308.48964759965
21
413.425186811913
31
0
0
LINE
8
layer0
10
1308.48964759965
20
413.425186811913
30
0
11
1304.04693727726
21
417.247278318676
31
0
0
LINE
8
layer0
10
1304.04693727726
20
417.247278318676
30
0
11
1297.48460563544
21
411.564132408804
31
0
0
LINE
8
layer0
10
1302.21534844148
20
407.991484349991
30
0
11
1304.07380717053
21
402.896373599876
31
0
0
LINE
8
layer0
10
1304.07380717053
20
402.896373599876
30
0
11
1309.75316728246
21
407.814843734042
31
0
0
LINE
8
layer0
10
1309.75316728246
20
407.814843734042
30
0
11
1308.48964759965
21
413.425186811913
31
0
0
LINE
8
layer0
10
1308.48964759965
20
413.425186811913
30
0
11
1302.21534844148
21
407.991484349991
31
0
0
LINE
8
layer0
10
1304.07380717053
20
402.896373599876
30
0
11
1301.97404007195
21
399.255994863542
31
0
0
LINE
8
layer0
10
1301.97404007195
20
399.255994863542
30
0
11
1307.09919164617
21
403.694506325057
31
0
0
LINE
8
layer0
10
1307.09919164617
20
403.694506325057
30
0
11
1309.75316728246
21
407.814843734042
31
0
0
LINE
8
layer0
10
1309.75316728246
20
407.814843734042
30
0
11
1304.07380717053
21
402.896373599876
31
0
0
LINE
8
layer0
10
1301.97404007195
20
399.255994863542
30
0
11
1297.14299113075
21
399.197508242083
31
0
0
LINE
8
layer0
10
1297.14299113075
20
399.197508242083
30
0
11
1302.07850193957
21
403.471785983179
31
0
0
LINE
8
layer0
10
1302.07850193957
20
403.471785983179
30
0
11
1307.09919164617
21
403.694506325057
31
0
0
LINE
8
layer0
10
1307.09919164617
20
403.694506325057
30
0
11
1301.97404007195
21
399.255994863542
31
0
0
LINE
8
layer0
10
1297.14299113075
20
399.197508242083
30
0
11
1292.4515508924
21
402.780877151201
31
0
0
LINE
8
layer0
10
1292.4515508924
20
402.780877151201
30
0
11
1297.67797405578
21
407.307092381618
31
0
0
LINE
8
layer0
10
1297.67797405578
20
407.307092381618
30
0
11
1302.07850193957
21
403.471785983179
31
0
0
LINE
8
layer0
10
1302.07850193957
20
403.471785983179
30
0
11
1297.14299113075
21
399.197508242083
31
0
0
LINE
8
layer0
10
1292.4515508924
20
402.780877151201
30
0
11
1292.36494835202
21
402.805877151201
31
0
0
LINE
8
layer0
10
1292.36494835202
20
402.805877151201
30
0
11
1297.5913715154
21
407.332092381618
31
0
0
LINE
8
layer0
10
1297.5913715154
20
407.332092381618
30
0
11
1297.67797405578
21
407.307092381618
31
0
0
LINE
8
layer0
10
1297.67797405578
20
407.307092381618
30
0
11
1292.4515508924
21
402.780877151201
31
0
0
LINE
8
layer0
10
1297.5913715154
20
407.332092381618
30
0
11
1296.34865398904
21
412.94326118205
31
0
0
LINE
8
layer0
10
1296.34865398904
20
412.94326118205
30
0
11
1302.04356326424
21
415.778566525096
31
0
0
LINE
8
layer0
10
1302.04356326424
20
415.778566525096
30
0
11
1302.70358479309
21
409.877292826533
31
0
0
LINE
8
layer0
10
1302.70358479309
20
409.877292826533
30
0
11
1297.5913715154
21
407.332092381618
31
0
0
LINE
8
layer0
10
1296.34865398904
20
412.94326118205
30
0
11
1299.02101789384
21
417.047779048503
31
0
0
LINE
8
layer0
10
1299.02101789384
20
417.047779048503
30
0
11
1305.2568588127
21
420.152396211172
31
0
0
LINE
8
layer0
10
1305.2568588127
20
420.152396211172
30
0
11
1302.04356326424
21
415.778566525096
31
0
0
LINE
8
layer0
10
1302.04356326424
20
415.778566525096
30
0
11
1296.34865398904
21
412.94326118205
31
0
0
LINE
8
layer0
10
1299.02101789384
20
417.047779048503
30
0
11
1304.04693727726
21
417.247278318676
31
0
0
LINE
8
layer0
10
1304.04693727726
20
417.247278318676
30
0
11
1310.46586622792
21
420.443048904467
31
0
0
LINE
8
layer0
10
1310.46586622792
20
420.443048904467
30
0
11
1305.2568588127
21
420.152396211172
31
0
0
LINE
8
layer0
10
1305.2568588127
20
420.152396211172
30
0
11
1299.02101789384
21
417.047779048503
31
0
0
LINE
8
layer0
10
1304.04693727726
20
417.247278318676
30
0
11
1308.48964759965
21
413.425186811913
31
0
0
LINE
8
layer0
10
1308.48964759965
20
413.425186811913
30
0
11
1314.6268382675
21
416.480689305626
31
0
0
LINE
8
layer0
10
1314.6268382675
20
416.480689305626
30
0
11
1310.46586622792
21
420.443048904467
31
0
0
LINE
8
layer0
10
1310.46586622792
20
420.443048904467
30
0
11
1304.04693727726
21
417.247278318676
31
0
0
LINE
8
layer0
10
1308.48964759965
20
413.425186811913
30
0
11
1309.75316728246
21
407.814843734042
31
0
0
LINE
8
layer0
10
1309.75316728246
20
407.814843734042
30
0
11
1315.30841974964
21
410.580618611395
31
0
0
LINE
8
layer0
10
1315.30841974964
20
410.580618611395
30
0
11
1314.6268382675
21
416.480689305626
31
0
0
LINE
8
layer0
10
1314.6268382675
20
416.480689305626
30
0
11
1308.48964759965
21
413.425186811913
31
0
0
LINE
8
layer0
10
1309.75316728246
20
407.814843734042
30
0
11
1307.09919164617
21
403.694506325057
31
0
0
LINE
8
layer0
10
1307.09919164617
20
403.694506325057
30
0
11
1312.11234636188
21
406.190388816612
31
0
0
LINE
8
layer0
10
1312.11234636188
20
406.190388816612
30
0
11
1315.30841974964
21
410.580618611395
31
0
0
LINE
8
layer0
10
1315.30841974964
20
410.580618611395
30
0
11
1309.75316728246
21
407.814843734042
31
0
0
LINE
8
layer0
10
1307.09919164617
20
403.694506325057
30
0
11
1302.07850193957
21
403.471785983179
31
0
0
LINE
8
layer0
10
1302.07850193957
20
403.471785983179
30
0
11
1306.90615999562
21
405.875315876149
31
0
0
LINE
8
layer0
10
1306.90615999562
20
405.875315876149
30
0
11
1312.11234636188
21
406.190388816612
31
0
0
LINE
8
layer0
10
1312.11234636188
20
406.190388816612
30
0
11
1307.09919164617
21
403.694506325057
31
0
0
LINE
8
layer0
10
1302.07850193957
20
403.471785983179
30
0
11
1297.67797405578
21
407.307092381618
31
0
0
LINE
8
layer0
10
1297.67797405578
20
407.307092381618
30
0
11
1302.79018733346
21
409.852292826533
31
0
0
LINE
8
layer0
10
1302.79018733346
20
409.852292826533
30
0
11
1306.90615999562
21
405.875315876149
31
0
0
LINE
8
layer0
10
1306.90615999562
20
405.875315876149
30
0
11
1302.07850193957
21
403.471785983179
31
0
0
LINE
8
layer0
10
1297.67797405578
20
407.307092381618
30
0
11
1297.5913715154
21
407.332092381618
31
0
0
LINE
8
layer0
10
1297.5913715154
20
407.332092381618
30
0
11
1302.70358479309
21
409.877292826533
31
0
0
LINE
8
layer0
10
1302.70358479309
20
409.877292826533
30
0
11
1302.79018733346
21
409.852292826533
31
0
0
LINE
8
layer0
10
1302.79018733346
20
409.852292826533
30
0
11
1297.67797405578
21
407.307092381618
31
0
0
LINE
8
layer0
10
1302.70358479309
20
409.877292826533
30
0
11
1302.04356326424
21
415.778566525096
31
0
0
LINE
8
layer0
10
1302.04356326424
20
415.778566525096
30
0
11
1307.362350016
21
416.283142271404
31
0
0
LINE
8
layer0
10
1307.362350016
20
416.283142271404
30
0
11
1307.47815993371
21
410.330241013276
31
0
0
LINE
8
layer0
10
1307.47815993371
20
410.330241013276
30
0
11
1302.70358479309
21
409.877292826533
31
0
0
LINE
8
layer0
10
1302.04356326424
20
415.778566525096
30
0
11
1305.2568588127
21
420.152396211172
31
0
0
LINE
8
layer0
10
1305.2568588127
20
420.152396211172
30
0
11
1311.08085116492
21
420.704899145537
31
0
0
LINE
8
layer0
10
1311.08085116492
20
420.704899145537
30
0
11
1307.362350016
21
416.283142271404
31
0
0
LINE
8
layer0
10
1307.362350016
20
416.283142271404
30
0
11
1302.04356326424
21
415.778566525096
31
0
0
LINE
8
layer0
10
1305.2568588127
20
420.152396211172
30
0
11
1310.46586622792
21
420.443048904467
31
0
0
LINE
8
layer0
10
1310.46586622792
20
420.443048904467
30
0
11
1316.46085449084
21
421.011773656568
31
0
0
LINE
8
layer0
10
1316.46085449084
20
421.011773656568
30
0
11
1311.08085116492
21
420.704899145537
31
0
0
LINE
8
layer0
10
1311.08085116492
20
420.704899145537
30
0
11
1305.2568588127
21
420.152396211172
31
0
0
LINE
8
layer0
10
1310.46586622792
20
420.443048904467
30
0
11
1314.6268382675
21
416.480689305626
31
0
0
LINE
8
layer0
10
1314.6268382675
20
416.480689305626
30
0
11
1320.35869576334
21
417.024451710226
31
0
0
LINE
8
layer0
10
1320.35869576334
20
417.024451710226
30
0
11
1316.46085449084
21
421.011773656568
31
0
0
LINE
8
layer0
10
1316.46085449084
20
421.011773656568
30
0
11
1310.46586622792
21
420.443048904467
31
0
0
LINE
8
layer0
10
1314.6268382675
20
416.480689305626
30
0
11
1315.30841974964
21
410.580618611395
31
0
0
LINE
8
layer0
10
1315.30841974964
20
410.580618611395
30
0
11
1320.4967733822
21
411.072820598135
31
0
0
LINE
8
layer0
10
1320.4967733822
20
411.072820598135
30
0
11
1320.35869576334
21
417.024451710226
31
0
0
LINE
8
layer0
10
1320.35869576334
20
417.024451710226
30
0
11
1314.6268382675
21
416.480689305626
31
0
0
LINE
8
layer0
10
1315.30841974964
20
410.580618611395
30
0
11
1312.11234636188
21
406.190388816612
31
0
0
LINE
8
layer0
10
1312.11234636188
20
406.190388816612
30
0
11
1316.79440530224
21
406.634560296753
31
0
0
LINE
8
layer0
10
1316.79440530224
20
406.634560296753
30
0
11
1320.4967733822
21
411.072820598135
31
0
0
LINE
8
layer0
10
1320.4967733822
20
411.072820598135
30
0
11
1315.30841974964
21
410.580618611395
31
0
0
LINE
8
layer0
10
1312.11234636188
20
406.190388816612
30
0
11
1306.90615999562
21
405.875315876149
31
0
0
LINE
8
layer0
10
1306.90615999562
20
405.875315876149
30
0
11
1311.41497347617
21
406.303052131256
31
0
0
LINE
8
layer0
10
1311.41497347617
20
406.303052131256
30
0
11
1316.79440530224
21
406.634560296753
31
0
0
LINE
8
layer0
10
1316.79440530224
20
406.634560296753
30
0
11
1312.11234636188
21
406.190388816612
31
0
0
LINE
8
layer0
10
1306.90615999562
20
405.875315876149
30
0
11
1302.79018733346
21
409.852292826533
31
0
0
LINE
8
layer0
10
1302.79018733346
20
409.852292826533
30
0
11
1307.56476247409
21
410.305241013276
31
0
0
LINE
8
layer0
10
1307.56476247409
20
410.305241013276
30
0
11
1311.41497347617
21
406.303052131256
31
0
0
LINE
8
layer0
10
1311.41497347617
20
406.303052131256
30
0
11
1306.90615999562
21
405.875315876149
31
0
0
LINE
8
layer0
10
1302.79018733346
20
409.852292826533
30
0
11
1302.70358479309
21
409.877292826533
31
0
0
LINE
8
layer0
10
1302.70358479309
20
409.877292826533
30
0
11
1307.47815993371
21
410.330241013276
31
0
0
LINE
8
layer0
10
1307.47815993371
20
410.330241013276
30
0
11
1307.56476247409
21
410.305241013276
31
0
0
LINE
8
layer0
10
1307.56476247409
20
410.305241013276
30
0
11
1302.79018733346
21
409.852292826533
31
0
0
LINE
8
layer0
10
1307.47815993371
20
410.330241013276
30
0
11
1307.362350016
21
416.283142271404
31
0
0
LINE
8
layer0
10
1307.362350016
20
416.283142271404
30
0
11
1312.0725577409
21
414.434936039638
31
0
0
LINE
8
layer0
10
1312.0725577409
20
414.434936039638
30
0
11
1311.70642509268
21
408.671140932601
31
0
0
LINE
8
layer0
10
1311.70642509268
20
408.671140932601
30
0
11
1307.47815993371
21
410.330241013276
31
0
0
LINE
8
layer0
10
1307.362350016
20
416.283142271404
30
0
11
1311.08085116492
21
420.704899145537
31
0
0
LINE
8
layer0
10
1311.08085116492
20
420.704899145537
30
0
11
1316.23845853807
21
418.681140822164
31
0
0
LINE
8
layer0
10
1316.23845853807
20
418.681140822164
30
0
11
1312.0725577409
21
414.434936039638
31
0
0
LINE
8
layer0
10
1312.0725577409
20
414.434936039638
30
0
11
1307.362350016
21
416.283142271404
31
0
0
LINE
8
layer0
10
1311.08085116492
20
420.704899145537
30
0
11
1316.46085449084
21
421.011773656568
31
0
0
LINE
8
layer0
10
1316.46085449084
20
421.011773656568
30
0
11
1321.7698923118
21
418.928596574269
31
0
0
LINE
8
layer0
10
1321.7698923118
20
418.928596574269
30
0
11
1316.23845853807
21
418.681140822164
31
0
0
LINE
8
layer0
10
1316.23845853807
20
418.681140822164
30
0
11
1311.08085116492
21
420.704899145537
31
0
0
LINE
8
layer0
10
1316.46085449084
20
421.011773656568
30
0
11
1320.35869576334
21
417.024451710226
31
0
0
LINE
8
layer0
10
1320.35869576334
20
417.024451710226
30
0
11
1325.4347104101
21
415.032708999372
31
0
0
LINE
8
layer0
10
1325.4347104101
20
415.032708999372
30
0
11
1321.7698923118
21
418.928596574269
31
0
0
LINE
8
layer0
10
1321.7698923118
20
418.928596574269
30
0
11
1316.46085449084
21
421.011773656568
31
0
0
LINE
8
layer0
10
1320.35869576334
20
417.024451710226
30
0
11
1320.4967733822
21
411.072820598135
31
0
0
LINE
8
layer0
10
1320.4967733822
20
411.072820598135
30
0
11
1325.09147222992
21
409.269938105594
31
0
0
LINE
8
layer0
10
1325.09147222992
20
409.269938105594
30
0
11
1325.4347104101
21
415.032708999372
31
0
0
LINE
8
layer0
10
1325.4347104101
20
415.032708999372
30
0
11
1320.35869576334
21
417.024451710226
31
0
0
LINE
8
layer0
10
1320.4967733822
20
411.072820598135
30
0
11
1316.79440530224
21
406.634560296753
31
0
0
LINE
8
layer0
10
1316.79440530224
20
406.634560296753
30
0
11
1320.94074002452
21
405.007608340428
31
0
0
LINE
8
layer0
10
1320.94074002452
20
405.007608340428
30
0
11
1325.09147222992
21
409.269938105594
31
0
0
LINE
8
layer0
10
1325.09147222992
20
409.269938105594
30
0
11
1320.4967733822
21
411.072820598135
31
0
0
LINE
8
layer0
10
1316.79440530224
20
406.634560296753
30
0
11
1311.41497347617
21
406.303052131256
31
0
0
LINE
8
layer0
10
1311.41497347617
20
406.303052131256
30
0
11
1315.40788559643
21
404.736300621645
31
0
0
LINE
8
layer0
10
1315.40788559643
20
404.736300621645
30
0
11
1320.94074002452
21
405.007608340428
31
0
0
LINE
8
layer0
10
1320.94074002452
20
405.007608340428
30
0
11
1316.79440530224
21
406.634560296753
31
0
0
LINE
8
layer0
10
1311.41497347617
20
406.303052131256
30
0
11
1307.56476247409
21
410.305241013276
31
0
0
LINE
8
layer0
10
1307.56476247409
20
410.305241013276
30
0
11
1311.79302763306
21
408.646140932601
31
0
0
LINE
8
layer0
10
1311.79302763306
20
408.646140932601
30
0
11
1315.40788559643
21
404.736300621645
31
0
0
LINE
8
layer0
10
1315.40788559643
20
404.736300621645
30
0
11
1311.41497347617
21
406.303052131256
31
0
0
LINE
8
layer0
10
1307.56476247409
20
410.305241013276
30
0
11
1307.47815993371
21
410.330241013276
31
0
0
LINE
8
layer0
10
1307.47815993371
20
410.330241013276
30
0
11
1311.70642509268
21
408.671140932601
31
0
0
LINE
8
layer0
10
1311.70642509268
20
408.671140932601
30
0
11
1311.79302763306
21
408.646140932601
31
0
0
LINE
8
layer0
10
1311.79302763306
20
408.646140932601
30
0
11
1307.56476247409
21
410.305241013276
31
0
0
LINE
8
layer0
10
1311.70642509268
20
408.671140932601
30
0
11
1312.0725577409
21
414.434936039638
31
0
0
LINE
8
layer0
10
1312.0725577409
20
414.434936039638
30
0
11
1315.96832775927
21
410.314723310802
31
0
0
LINE
8
layer0
10
1315.96832775927
20
410.314723310802
30
0
11
1315.20358479309
21
404.972503219278
31
0
0
LINE
8
layer0
10
1315.20358479309
20
404.972503219278
30
0
11
1311.70642509268
21
408.671140932601
31
0
0
LINE
8
layer0
10
1312.0725577409
20
414.434936039638
30
0
11
1316.23845853807
21
418.681140822164
31
0
0
LINE
8
layer0
10
1316.23845853807
20
418.681140822164
30
0
11
1320.50426874102
21
414.169569190854
31
0
0
LINE
8
layer0
10
1320.50426874102
20
414.169569190854
30
0
11
1315.96832775927
21
410.314723310802
31
0
0
LINE
8
layer0
10
1315.96832775927
20
410.314723310802
30
0
11
1312.0725577409
21
414.434936039638
31
0
0
LINE
8
layer0
10
1316.23845853807
20
418.681140822164
30
0
11
1321.7698923118
21
418.928596574269
31
0
0
LINE
8
layer0
10
1321.7698923118
20
418.928596574269
30
0
11
1326.16094926242
21
414.284562492258
31
0
0
LINE
8
layer0
10
1326.16094926242
20
414.284562492258
30
0
11
1320.50426874102
21
414.169569190854
31
0
0
LINE
8
layer0
10
1320.50426874102
20
414.169569190854
30
0
11
1316.23845853807
21
418.681140822164
31
0
0
LINE
8
layer0
10
1321.7698923118
20
418.928596574269
30
0
11
1325.4347104101
21
415.032708999372
31
0
0
LINE
8
layer0
10
1325.4347104101
20
415.032708999372
30
0
11
1329.63303601029
21
410.592509886969
31
0
0
LINE
8
layer0
10
1329.63303601029
20
410.592509886969
30
0
11
1326.16094926242
21
414.284562492258
31
0
0
LINE
8
layer0
10
1326.16094926242
20
414.284562492258
30
0
11
1321.7698923118
21
418.928596574269
31
0
0
LINE
8
layer0
10
1325.4347104101
20
415.032708999372
30
0
11
1325.09147222992
21
409.269938105594
31
0
0
LINE
8
layer0
10
1325.09147222992
20
409.269938105594
30
0
11
1328.89170590535
21
405.250765749885
31
0
0
LINE
8
layer0
10
1328.89170590535
20
405.250765749885
30
0
11
1329.63303601029
21
410.592509886969
31
0
0
LINE
8
layer0
10
1329.63303601029
20
410.592509886969
30
0
11
1325.4347104101
21
415.032708999372
31
0
0
LINE
8
layer0
10
1325.09147222992
20
409.269938105594
30
0
11
1320.94074002452
21
405.007608340428
31
0
0
LINE
8
layer0
10
1320.94074002452
20
405.007608340428
30
0
11
1324.37013580506
21
401.380638555108
31
0
0
LINE
8
layer0
10
1324.37013580506
20
401.380638555108
30
0
11
1328.89170590535
21
405.250765749885
31
0
0
LINE
8
layer0
10
1328.89170590535
20
405.250765749885
30
0
11
1325.09147222992
21
409.269938105594
31
0
0
LINE
8
layer0
10
1320.94074002452
20
405.007608340428
30
0
11
1315.40788559643
21
404.736300621645
31
0
0
LINE
8
layer0
10
1315.40788559643
20
404.736300621645
30
0
11
1318.71038693663
21
401.243535906394
31
0
0
LINE
8
layer0
10
1318.71038693663
20
401.243535906394
30
0
11
1324.37013580506
21
401.380638555108
31
0
0
LINE
8
layer0
10
1324.37013580506
20
401.380638555108
30
0
11
1320.94074002452
21
405.007608340428
31
0
0
LINE
8
layer0
10
1315.40788559643
20
404.736300621645
30
0
11
1311.79302763306
21
408.646140932601
31
0
0
LINE
8
layer0
10
1311.79302763306
20
408.646140932601
30
0
11
1315.29018733346
21
404.947503219278
31
0
0
LINE
8
layer0
10
1315.29018733346
20
404.947503219278
30
0
11
1318.71038693663
21
401.243535906394
31
0
0
LINE
8
layer0
10
1318.71038693663
20
401.243535906394
30
0
11
1315.40788559643
21
404.736300621645
31
0
0
LINE
8
layer0
10
1311.79302763306
20
408.646140932601
30
0
11
1311.70642509268
21
408.671140932601
31
0
0
LINE
8
layer0
10
1311.70642509268
20
408.671140932601
30
0
11
1315.20358479309
21
404.972503219278
31
0
0
LINE
8
layer0
10
1315.20358479309
20
404.972503219278
30
0
11
1315.29018733346
21
404.947503219278
31
0
0
LINE
8
layer0
10
1315.29018733346
20
404.947503219278
30
0
11
1311.79302763306
21
408.646140932601
31
0
0
LINE
8
layer0
10
1315.20358479309
20
404.972503219278
30
0
11
1315.96832775927
21
410.314723310802
31
0
0
LINE
8
layer0
10
1315.96832775927
20
410.314723310802
30
0
11
1318.87939622733
21
404.102577152123
31
0
0
LINE
8
layer0
10
1318.87939622733
20
404.102577152123
30
0
11
1317.81679637478
21
399.395976089412
31
0
0
LINE
8
layer0
10
1317.81679637478
20
399.395976089412
30
0
11
1315.20358479309
21
404.972503219278
31
0
0
LINE
8
layer0
10
1315.96832775927
20
410.314723310802
30
0
11
1320.50426874102
21
414.169569190854
31
0
0
LINE
8
layer0
10
1320.50426874102
20
414.169569190854
30
0
11
1323.69184539826
21
407.367361580818
31
0
0
LINE
8
layer0
10
1323.69184539826
20
407.367361580818
30
0
11
1318.87939622733
21
404.102577152123
31
0
0
LINE
8
layer0
10
1318.87939622733
20
404.102577152123
30
0
11
1315.96832775927
21
410.314723310802
31
0
0
LINE
8
layer0
10
1320.50426874102
20
414.169569190854
30
0
11
1326.16094926242
21
414.284562492258
31
0
0
LINE
8
layer0
10
1326.16094926242
20
414.284562492258
30
0
11
1329.44211508333
21
407.282637984468
31
0
0
LINE
8
layer0
10
1329.44211508333
20
407.282637984468
30
0
11
1323.69184539826
21
407.367361580818
31
0
0
LINE
8
layer0
10
1323.69184539826
20
407.367361580818
30
0
11
1320.50426874102
21
414.169569190854
31
0
0
LINE
8
layer0
10
1326.16094926242
20
414.284562492258
30
0
11
1329.63303601029
21
410.592509886969
31
0
0
LINE
8
layer0
10
1329.63303601029
20
410.592509886969
30
0
11
1332.77018558937
21
403.897912380669
31
0
0
LINE
8
layer0
10
1332.77018558937
20
403.897912380669
30
0
11
1329.44211508333
21
407.282637984468
31
0
0
LINE
8
layer0
10
1329.44211508333
20
407.282637984468
30
0
11
1326.16094926242
21
414.284562492258
31
0
0
LINE
8
layer0
10
1329.63303601029
20
410.592509886969
30
0
11
1328.89170590535
21
405.250765749885
31
0
0
LINE
8
layer0
10
1328.89170590535
20
405.250765749885
30
0
11
1331.73138596131
21
399.190960649082
31
0
0
LINE
8
layer0
10
1331.73138596131
20
399.190960649082
30
0
11
1332.77018558937
21
403.897912380669
31
0
0
LINE
8
layer0
10
1332.77018558937
20
403.897912380669
30
0
11
1329.63303601029
21
410.592509886969
31
0
0
LINE
8
layer0
10
1328.89170590535
20
405.250765749885
30
0
11
1324.37013580506
21
401.380638555108
31
0
0
LINE
8
layer0
10
1324.37013580506
20
401.380638555108
30
0
11
1326.93271159216
21
395.912166924545
31
0
0
LINE
8
layer0
10
1326.93271159216
20
395.912166924545
30
0
11
1331.73138596131
21
399.190960649082
31
0
0
LINE
8
layer0
10
1331.73138596131
20
399.190960649082
30
0
11
1328.89170590535
21
405.250765749885
31
0
0
LINE
8
layer0
10
1324.37013580506
20
401.380638555108
30
0
11
1318.71038693663
21
401.243535906394
31
0
0
LINE
8
layer0
10
1318.71038693663
20
401.243535906394
30
0
11
1321.17814234104
21
395.977408563703
31
0
0
LINE
8
layer0
10
1321.17814234104
20
395.977408563703
30
0
11
1326.93271159216
21
395.912166924545
31
0
0
LINE
8
layer0
10
1326.93271159216
20
395.912166924545
30
0
11
1324.37013580506
21
401.380638555108
31
0
0
LINE
8
layer0
10
1318.71038693663
20
401.243535906394
30
0
11
1315.29018733346
21
404.947503219278
31
0
0
LINE
8
layer0
10
1315.29018733346
20
404.947503219278
30
0
11
1317.90339891516
21
399.370976089412
31
0
0
LINE
8
layer0
10
1317.90339891516
20
399.370976089412
30
0
11
1321.17814234104
21
395.977408563703
31
0
0
LINE
8
layer0
10
1321.17814234104
20
395.977408563703
30
0
11
1318.71038693663
21
401.243535906394
31
0
0
LINE
8
layer0
10
1315.29018733346
20
404.947503219278
30
0
11
1315.20358479309
21
404.972503219278
31
0
0
LINE
8
layer0
10
1315.20358479309
20
404.972503219278
30
0
11
1317.81679637478
21
399.395976089412
31
0
0
LINE
8
layer0
10
1317.81679637478
20
399.395976089412
30
0
11
1317.90339891516
21
399.370976089412
31
0
0
LINE
8
layer0
10
1317.90339891516
20
399.370976089412
30
0
11
1315.29018733346
21
404.947503219278
31
0
0
LINE
8
layer0
10
1317.81679637478
20
399.395976089412
30
0
11
1318.87939622733
21
404.102577152123
31
0
0
LINE
8
layer0
10
1318.87939622733
20
404.102577152123
30
0
11
1320.67853548416
21
396.069998159917
31
0
0
LINE
8
layer0
10
1320.67853548416
20
396.069998159917
30
0
11
1319.43184995206
21
392.185280537725
31
0
0
LINE
8
layer0
10
1319.43184995206
20
392.185280537725
30
0
11
1317.81679637478
21
399.395976089412
31
0
0
LINE
8
layer0
10
1318.87939622733
20
404.102577152123
30
0
11
1323.69184539826
21
407.367361580818
31
0
0
LINE
8
layer0
10
1323.69184539826
20
407.367361580818
30
0
11
1325.66187611418
21
398.571807105228
31
0
0
LINE
8
layer0
10
1325.66187611418
20
398.571807105228
30
0
11
1320.67853548416
21
396.069998159917
31
0
0
LINE
8
layer0
10
1320.67853548416
20
396.069998159917
30
0
11
1318.87939622733
21
404.102577152123
31
0
0
LINE
8
layer0
10
1323.69184539826
20
407.367361580818
30
0
11
1329.44211508333
21
407.282637984468
31
0
0
LINE
8
layer0
10
1329.44211508333
20
407.282637984468
30
0
11
1331.46998708337
21
398.228840750851
31
0
0
LINE
8
layer0
10
1331.46998708337
20
398.228840750851
30
0
11
1325.66187611418
21
398.571807105228
31
0
0
LINE
8
layer0
10
1325.66187611418
20
398.571807105228
30
0
11
1323.69184539826
21
407.367361580818
31
0
0
LINE
8
layer0
10
1329.44211508333
20
407.282637984468
30
0
11
1332.77018558937
21
403.897912380669
31
0
0
LINE
8
layer0
10
1332.77018558937
20
403.897912380669
30
0
11
1334.70905065704
21
395.24150251574
31
0
0
LINE
8
layer0
10
1334.70905065704
20
395.24150251574
30
0
11
1331.46998708337
21
398.228840750851
31
0
0
LINE
8
layer0
10
1331.46998708337
20
398.228840750851
30
0
11
1329.44211508333
21
407.282637984468
31
0
0
LINE
8
layer0
10
1332.77018558937
20
403.897912380669
30
0
11
1331.73138596131
21
399.190960649082
31
0
0
LINE
8
layer0
10
1331.73138596131
20
399.190960649082
30
0
11
1333.48640475307
21
391.355365364261
31
0
0
LINE
8
layer0
10
1333.48640475307
20
391.355365364261
30
0
11
1334.70905065704
21
395.24150251574
31
0
0
LINE
8
layer0
10
1334.70905065704
20
395.24150251574
30
0
11
1332.77018558937
21
403.897912380669
31
0
0
LINE
8
layer0
10
1331.73138596131
20
399.190960649082
30
0
11
1326.93271159216
21
395.912166924545
31
0
0
LINE
8
layer0
10
1326.93271159216
20
395.912166924545
30
0
11
1328.51647052734
21
388.841191899632
31
0
0
LINE
8
layer0
10
1328.51647052734
20
388.841191899632
30
0
11
1333.48640475307
21
391.355365364261
31
0
0
LINE
8
layer0
10
1333.48640475307
20
391.355365364261
30
0
11
1331.73138596131
21
399.190960649082
31
0
0
LINE
8
layer0
10
1326.93271159216
20
395.912166924545
30
0
11
1321.17814234104
21
395.977408563703
31
0
0
LINE
8
layer0
10
1321.17814234104
20
395.977408563703
30
0
11
1322.70329905689
21
389.168073628132
31
0
0
LINE
8
layer0
10
1322.70329905689
20
389.168073628132
30
0
11
1328.51647052734
21
388.841191899632
31
0
0
LINE
8
layer0
10
1328.51647052734
20
388.841191899632
30
0
11
1326.93271159216
21
395.912166924545
31
0
0
LINE
8
layer0
10
1321.17814234104
20
395.977408563703
30
0
11
1317.90339891516
21
399.370976089412
31
0
0
LINE
8
layer0
10
1317.90339891516
20
399.370976089412
30
0
11
1319.51845249244
21
392.160280537725
31
0
0
LINE
8
layer0
10
1319.51845249244
20
392.160280537725
30
0
11
1322.70329905689
21
389.168073628132
31
0
0
LINE
8
layer0
10
1322.70329905689
20
389.168073628132
30
0
11
1321.17814234104
21
395.977408563703
31
0
0
LINE
8
layer0
10
1317.90339891516
20
399.370976089412
30
0
11
1317.81679637478
21
399.395976089412
31
0
0
LINE
8
layer0
10
1317.81679637478
20
399.395976089412
30
0
11
1319.43184995206
21
392.185280537725
31
0
0
LINE
8
layer0
10
1319.43184995206
20
392.185280537725
30
0
11
1319.51845249244
21
392.160280537725
31
0
0
LINE
8
layer0
10
1319.51845249244
20
392.160280537725
30
0
11
1317.90339891516
21
399.370976089412
31
0
0
LINE
8
layer0
10
1319.43184995206
20
392.185280537725
30
0
11
1320.67853548416
21
396.069998159917
31
0
0
LINE
8
layer0
10
1320.67853548416
20
396.069998159917
30
0
11
1321.28711451103
21
386.568048580735
31
0
0
LINE
8
layer0
10
1321.28711451103
20
386.568048580735
30
0
11
1319.97815993371
21
383.655558560582
31
0
0
LINE
8
layer0
10
1319.97815993371
20
383.655558560582
30
0
11
1319.43184995206
21
392.185280537725
31
0
0
LINE
8
layer0
10
1320.67853548416
20
396.069998159917
30
0
11
1325.66187611418
21
398.571807105228
31
0
0
LINE
8
layer0
10
1325.66187611418
20
398.571807105228
30
0
11
1326.32826109324
21
388.167313700421
31
0
0
LINE
8
layer0
10
1326.32826109324
20
388.167313700421
30
0
11
1321.28711451103
21
386.568048580735
31
0
0
LINE
8
layer0
10
1321.28711451103
20
386.568048580735
30
0
11
1320.67853548416
21
396.069998159917
31
0
0
LINE
8
layer0
10
1325.66187611418
20
398.571807105228
30
0
11
1331.46998708337
21
398.228840750851
31
0
0
LINE
8
layer0
10
1331.46998708337
20
398.228840750851
30
0
11
1332.15593752534
21
387.518865175455
31
0
0
LINE
8
layer0
10
1332.15593752534
20
387.518865175455
30
0
11
1326.32826109324
21
388.167313700421
31
0
0
LINE
8
layer0
10
1326.32826109324
20
388.167313700421
30
0
11
1325.66187611418
21
398.571807105228
31
0
0
LINE
8
layer0
10
1331.46998708337
20
398.228840750851
30
0
11
1334.70905065704
21
395.24150251574
31
0
0
LINE
8
layer0
10
1334.70905065704
20
395.24150251574
30
0
11
1335.36489350613
21
385.001606941342
31
0
0
LINE
8
layer0
10
1335.36489350613
20
385.001606941342
30
0
11
1332.15593752534
21
387.518865175455
31
0
0
LINE
8
layer0
10
1332.15593752534
20
387.518865175455
30
0
11
1331.46998708337
21
398.228840750851
31
0
0
LINE
8
layer0
10
1334.70905065704
20
395.24150251574
30
0
11
1333.48640475307
21
391.355365364261
31
0
0
LINE
8
layer0
10
1333.48640475307
20
391.355365364261
30
0
11
1334.08005953791
21
382.086433008727
31
0
0
LINE
8
layer0
10
1334.08005953791
20
382.086433008727
30
0
11
1335.36489350613
21
385.001606941342
31
0
0
LINE
8
layer0
10
1335.36489350613
20
385.001606941342
30
0
11
1334.70905065704
21
395.24150251574
31
0
0
LINE
8
layer0
10
1333.48640475307
20
391.355365364261
30
0
11
1328.51647052734
21
388.841191899632
31
0
0
LINE
8
layer0
10
1328.51647052734
20
388.841191899632
30
0
11
1329.05219474541
21
380.476749019261
31
0
0
LINE
8
layer0
10
1329.05219474541
20
380.476749019261
30
0
11
1334.08005953791
21
382.086433008727
31
0
0
LINE
8
layer0
10
1334.08005953791
20
382.086433008727
30
0
11
1333.48640475307
21
391.355365364261
31
0
0
LINE
8
layer0
10
1328.51647052734
20
388.841191899632
30
0
11
1322.70329905689
21
389.168073628132
31
0
0
LINE
8
layer0
10
1322.70329905689
20
389.168073628132
30
0
11
1323.21920041718
21
381.113131711178
31
0
0
LINE
8
layer0
10
1323.21920041718
20
381.113131711178
30
0
11
1329.05219474541
21
380.476749019261
31
0
0
LINE
8
layer0
10
1329.05219474541
20
380.476749019261
30
0
11
1328.51647052734
21
388.841191899632
31
0
0
LINE
8
layer0
10
1322.70329905689
20
389.168073628132
30
0
11
1319.51845249244
21
392.160280537725
31
0
0
LINE
8
layer0
10
1319.51845249244
20
392.160280537725
30
0
11
1320.06476247409
21
383.630558560582
31
0
0
LINE
8
layer0
10
1320.06476247409
20
383.630558560582
30
0
11
1323.21920041718
21
381.113131711178
31
0
0
LINE
8
layer0
10
1323.21920041718
20
381.113131711178
30
0
11
1322.70329905689
21
389.168073628132
31
0
0
LINE
8
layer0
10
1319.51845249244
20
392.160280537725
30
0
11
1319.43184995206
21
392.185280537725
31
0
0
LINE
8
layer0
10
1319.43184995206
20
392.185280537725
30
0
11
1319.97815993371
21
383.655558560582
31
0
0
LINE
8
layer0
10
1319.97815993371
20
383.655558560582
30
0
11
1320.06476247409
21
383.630558560582
31
0
0
LINE
8
layer0
10
1320.06476247409
20
383.630558560582
30
0
11
1319.51845249244
21
392.160280537725
31
0
0
ENDBLK
0
BLOCK
8
layer0
2
PF_OBJECT47
70
0
10
0
20
0
30
0
0
LINE
8
layer0
10
1322.00299537799
20
281.390222193283
30
0
11
1322.22799636701
21
283.654811055887
31
0
0
LINE
8
layer0
10
1322.22799636701
20
283.654811055887
30
0
11
1287.78148998425
21
306.231825074392
31
0
0
LINE
8
layer0
10
1287.78148998425
20
306.231825074392
30
0
11
1287.33148800622
21
301.702647349184
31
0
0
LINE
8
layer0
10
1287.33148800622
20
301.702647349184
30
0
11
1322.00299537799
21
281.390222193283
31
0
0
LINE
8
layer0
10
1320.02711559665
20
274.935559989019
30
0
11
1322.00299537799
21
281.390222193283
31
0
0
LINE
8
layer0
10
1322.00299537799
20
281.390222193283
30
0
11
1287.33148800622
21
301.702647349184
31
0
0
LINE
8
layer0
10
1287.33148800622
20
301.702647349184
30
0
11
1283.37972844354
21
288.793322940655
31
0
0
LINE
8
layer0
10
1283.37972844354
20
288.793322940655
30
0
11
1320.02711559665
21
274.935559989019
31
0
0
LINE
8
layer0
10
1317.45780060127
20
268.071878021815
30
0
11
1320.02711559665
21
274.935559989019
31
0
0
LINE
8
layer0
10
1320.02711559665
20
274.935559989019
30
0
11
1283.37972844354
21
288.793322940655
31
0
0
LINE
8
layer0
10
1283.37972844354
20
288.793322940655
30
0
11
1278.24109845278
21
275.065959006247
31
0
0
LINE
8
layer0
10
1278.24109845278
20
275.065959006247
30
0
11
1317.45780060127
21
268.071878021815
31
0
0
LINE
8
layer0
10
1315.80012027014
20
264.819828100244
30
0
11
1317.45780060127
21
268.071878021815
31
0
0
LINE
8
layer0
10
1317.45780060127
20
268.071878021815
30
0
11
1278.24109845278
21
275.065959006247
31
0
0
LINE
8
layer0
10
1278.24109845278
20
275.065959006247
30
0
11
1274.92573779052
21
268.561859163106
31
0
0
LINE
8
layer0
10
1274.92573779052
20
268.561859163106
30
0
11
1315.80012027014
21
264.819828100244
31
0
0
LINE
8
layer0
10
1316.02512125916
20
267.084416962848
30
0
11
1315.80012027014
21
264.819828100244
31
0
0
LINE
8
layer0
10
1315.80012027014
20
264.819828100244
30
0
11
1274.92573779052
21
268.561859163106
31
0
0
LINE
8
layer0
10
1274.92573779052
20
268.561859163106
30
0
11
1275.37573976855
21
273.091036888314
31
0
0
LINE
8
layer0
10
1275.37573976855
20
273.091036888314
30
0
11
1316.02512125916
21
267.084416962848
31
0
0
LINE
8
layer0
10
1318.0010010405
20
273.539079167113
30
0
11
1316.02512125916
21
267.084416962848
31
0
0
LINE
8
layer0
10
1316.02512125916
20
267.084416962848
30
0
11
1275.37573976855
21
273.091036888314
31
0
0
LINE
8
layer0
10
1275.37573976855
20
273.091036888314
30
0
11
1279.32749933123
21
286.000361296843
31
0
0
LINE
8
layer0
10
1279.32749933123
20
286.000361296843
30
0
11
1318.0010010405
21
273.539079167113
31
0
0
LINE
8
layer0
10
1320.57031603588
20
280.402761134317
30
0
11
1318.0010010405
21
273.539079167113
31
0
0
LINE
8
layer0
10
1318.0010010405
20
273.539079167113
30
0
11
1279.32749933123
21
286.000361296843
31
0
0
LINE
8
layer0
10
1279.32749933123
20
286.000361296843
30
0
11
1284.46612932199
21
299.727725231251
31
0
0
LINE
8
layer0
10
1284.46612932199
20
299.727725231251
30
0
11
1320.57031603588
21
280.402761134317
31
0
0
LINE
8
layer0
10
1322.22799636701
20
283.654811055887
30
0
11
1320.57031603588
21
280.402761134317
31
0
0
LINE
8
layer0
10
1320.57031603588
20
280.402761134317
30
0
11
1284.46612932199
21
299.727725231251
31
0
0
LINE
8
layer0
10
1284.46612932199
20
299.727725231251
30
0
11
1287.78148998425
21
306.231825074392
31
0
0
LINE
8
layer0
10
1287.78148998425
20
306.231825074392
30
0
11
1322.22799636701
21
283.654811055887
31
0
0
LINE
8
layer0
10
1287.78148998425
20
306.231825074392
30
0
11
1284.46612932199
21
299.727725231251
31
0
0
LINE
8
layer0
10
1284.46612932199
20
299.727725231251
30
0
11
1279.32749933123
21
286.000361296843
31
0
0
LINE
8
layer0
10
1279.32749933123
20
286.000361296843
30
0
11
1275.37573976855
21
273.091036888314
31
0
0
LINE
8
layer0
10
1275.37573976855
20
273.091036888314
30
0
11
1274.92573779052
21
268.561859163106
31
0
0
LINE
8
layer0
10
1274.92573779052
20
268.561859163106
30
0
11
1278.24109845278
21
275.065959006247
31
0
0
LINE
8
layer0
10
1278.24109845278
20
275.065959006247
30
0
11
1283.37972844354
21
288.793322940655
31
0
0
LINE
8
layer0
10
1283.37972844354
20
288.793322940655
30
0
11
1287.33148800622
21
301.702647349184
31
0
0
LINE
8
layer0
10
1287.33148800622
20
301.702647349184
30
0
11
1287.78148998425
21
306.231825074392
31
0
0
LINE
8
layer0
10
1320.57031603588
20
280.402761134317
30
0
11
1322.22799636701
21
283.654811055887
31
0
0
LINE
8
layer0
10
1322.22799636701
20
283.654811055887
30
0
11
1322.00299537799
21
281.390222193283
31
0
0
LINE
8
layer0
10
1322.00299537799
20
281.390222193283
30
0
11
1320.02711559665
21
274.935559989019
31
0
0
LINE
8
layer0
10
1320.02711559665
20
274.935559989019
30
0
11
1317.45780060127
21
268.071878021815
31
0
0
LINE
8
layer0
10
1317.45780060127
20
268.071878021815
30
0
11
1315.80012027014
21
264.819828100244
31
0
0
LINE
8
layer0
10
1315.80012027014
20
264.819828100244
30
0
11
1316.02512125916
21
267.084416962848
31
0
0
LINE
8
layer0
10
1316.02512125916
20
267.084416962848
30
0
11
1318.0010010405
21
273.539079167113
31
0
0
LINE
8
layer0
10
1318.0010010405
20
273.539079167113
30
0
11
1320.57031603588
21
280.402761134317
31
0
0
ENDBLK
0
BLOCK
8
layer0
2
PF_OBJECT48
70
0
10
0
20
0
30
0
0
LINE
8
layer0
10
1344.01454846852
20
273.63499418135
30
0
11
1339.5485044427
21
278.654811055887
31
0
0
LINE
8
layer0
10
1339.5485044427
20
278.654811055887
30
0
11
1365.10199805994
21
283.911316998703
31
0
0
LINE
8
layer0
10
1365.10199805994
20
283.911316998703
30
0
11
1374.03408611159
21
273.871683249629
31
0
0
LINE
8
layer0
10
1374.03408611159
20
273.871683249629
30
0
11
1344.01454846852
21
273.63499418135
31
0
0
LINE
8
layer0
10
1343.98176315403
20
266.039079167113
30
0
11
1344.01454846852
21
273.63499418135
31
0
0
LINE
8
layer0
10
1344.01454846852
20
273.63499418135
30
0
11
1374.03408611159
21
273.871683249629
31
0
0
LINE
8
layer0
10
1374.03408611159
20
273.871683249629
30
0
11
1373.96851548261
21
258.679853221155
31
0
0
LINE
8
layer0
10
1373.96851548261
20
258.679853221155
30
0
11
1343.98176315403
21
266.039079167113
31
0
0
LINE
8
layer0
10
1339.4693536918
20
260.316650009882
30
0
11
1343.98176315403
21
266.039079167113
31
0
0
LINE
8
layer0
10
1343.98176315403
20
266.039079167113
30
0
11
1373.96851548261
21
258.679853221155
31
0
0
LINE
8
layer0
10
1373.96851548261
20
258.679853221155
30
0
11
1364.94369655815
21
247.234994906693
31
0
0
LINE
8
layer0
10
1364.94369655815
20
247.234994906693
30
0
11
1339.4693536918
21
260.316650009882
31
0
0
LINE
8
layer0
10
1333.12062834583
20
259.819828100244
30
0
11
1339.4693536918
21
260.316650009882
31
0
0
LINE
8
layer0
10
1339.4693536918
20
260.316650009882
30
0
11
1364.94369655815
21
247.234994906693
31
0
0
LINE
8
layer0
10
1364.94369655815
20
247.234994906693
30
0
11
1352.24624586621
21
246.241351087417
31
0
0
LINE
8
layer0
10
1352.24624586621
20
246.241351087417
30
0
11
1333.12062834583
21
259.819828100244
31
0
0
LINE
8
layer0
10
1328.65458432
20
264.839644974781
30
0
11
1333.12062834583
21
259.819828100244
31
0
0
LINE
8
layer0
10
1333.12062834583
20
259.819828100244
30
0
11
1352.24624586621
21
246.241351087417
31
0
0
LINE
8
layer0
10
1352.24624586621
20
246.241351087417
30
0
11
1343.31415781456
21
256.280984836491
31
0
0
LINE
8
layer0
10
1343.31415781456
20
256.280984836491
30
0
11
1328.65458432
21
264.839644974781
31
0
0
LINE
8
layer0
10
1328.6873696345
20
272.435559989019
30
0
11
1328.65458432
21
264.839644974781
31
0
0
LINE
8
layer0
10
1328.65458432
20
264.839644974781
30
0
11
1343.31415781456
21
256.280984836491
31
0
0
LINE
8
layer0
10
1343.31415781456
20
256.280984836491
30
0
11
1343.37972844354
21
271.472814864966
31
0
0
LINE
8
layer0
10
1343.37972844354
20
271.472814864966
30
0
11
1328.6873696345
21
272.435559989019
31
0
0
LINE
8
layer0
10
1333.19977909672
20
278.157989146249
30
0
11
1328.6873696345
21
272.435559989019
31
0
0
LINE
8
layer0
10
1328.6873696345
20
272.435559989019
30
0
11
1343.37972844354
21
271.472814864966
31
0
0
LINE
8
layer0
10
1343.37972844354
20
271.472814864966
30
0
11
1352.404547368
21
282.917673179428
31
0
0
LINE
8
layer0
10
1352.404547368
20
282.917673179428
30
0
11
1333.19977909672
21
278.157989146249
31
0
0
LINE
8
layer0
10
1339.5485044427
20
278.654811055887
30
0
11
1333.19977909672
21
278.157989146249
31
0
0
LINE
8
layer0
10
1333.19977909672
20
278.157989146249
30
0
11
1352.404547368
21
282.917673179428
31
0
0
LINE
8
layer0
10
1352.404547368
20
282.917673179428
30
0
11
1365.10199805994
21
283.911316998703
31
0
0
LINE
8
layer0
10
1365.10199805994
20
283.911316998703
30
0
11
1339.5485044427
21
278.654811055887
31
0
0
LINE
8
layer0
10
1365.10199805994
20
283.911316998703
30
0
11
1352.404547368
21
282.917673179428
31
0
0
LINE
8
layer0
10
1352.404547368
20
282.917673179428
30
0
11
1343.37972844354
21
271.472814864966
31
0
0
LINE
8
layer0
10
1343.37972844354
20
271.472814864966
30
0
11
1343.31415781456
21
256.280984836491
31
0
0
LINE
8
layer0
10
1343.31415781456
20
256.280984836491
30
0
11
1352.24624586621
21
246.241351087417
31
0
0
LINE
8
layer0
10
1352.24624586621
20
246.241351087417
30
0
11
1364.94369655815
21
247.234994906693
31
0
0
LINE
8
layer0
10
1364.94369655815
20
247.234994906693
30
0
11
1373.96851548261
21
258.679853221155
31
0
0
LINE
8
layer0
10
1373.96851548261
20
258.679853221155
30
0
11
1374.03408611159
21
273.871683249629
31
0
0
LINE
8
layer0
10
1374.03408611159
20
273.871683249629
30
0
11
1365.10199805994
21
283.911316998703
31
0
0
LINE
8
layer0
10
1333.19977909672
20
278.157989146249
30
0
11
1339.5485044427
21
278.654811055887
31
0
0
LINE
8
layer0
10
1339.5485044427
20
278.654811055887
30
0
11
1344.01454846852
21
273.63499418135
31
0
0
LINE
8
layer0
10
1344.01454846852
20
273.63499418135
30
0
11
1343.98176315403
21
266.039079167113
31
0
0
LINE
8
layer0
10
1343.98176315403
20
266.039079167113
30
0
11
1339.4693536918
21
260.316650009882
31
0
0
LINE
8
layer0
10
1339.4693536918
20
260.316650009882
30
0
11
1333.12062834583
21
259.819828100244
31
0
0
LINE
8
layer0
10
1333.12062834583
20
259.819828100244
30
0
11
1328.65458432
21
264.839644974781
31
0
0
LINE
8
layer0
10
1328.65458432
20
264.839644974781
30
0
11
1328.6873696345
21
272.435559989019
31
0
0
LINE
8
layer0
10
1328.6873696345
20
272.435559989019
30
0
11
1333.19977909672
21
278.157989146249
31
0
0
ENDBLK
0
ENDSEC
0
SECTION
2
ENTITIES
0
INSERT
2
PF_OBJECT0
8
0
10
0
20
0
30
0
0
INSERT
2
PF_OBJECT1
8
0
10
0
20
0
30
0
0
INSERT
2
PF_OBJECT2
8
0
10
0
20
0
30
0
0
INSERT
2
PF_OBJECT3
8
0
10
0
20
0
30
0
0
INSERT
2
PF_OBJECT4
8
0
10
0
20
0
30
0
0
INSERT
2
PF_OBJECT5
8
0
10
0
20
0
30
0
0
INSERT
2
PF_OBJECT6
8
0
10
0
20
0
30
0
0
INSERT
2
PF_OBJECT7
8
0
10
0
20
0
30
0
0
INSERT
2
PF_OBJECT8
8
0
10
0
20
0
30
0
0
INSERT
2
PF_OBJECT9
8
0
10
0
20
0
30
0
0
INSERT
2
PF_OBJECT10
8
0
10
0
20
0
30
0
0
INSERT
2
PF_OBJECT11
8
0
10
0
20
0
30
0
0
INSERT
2
PF_OBJECT12
8
0
10
0
20
0
30
0
0
INSERT
2
PF_SKETCH13
8
0
10
0
20
0
30
0
0
INSERT
2
PF_SKETCH14
8
0
10
0
20
0
30
0
0
INSERT
2
PF_SKETCH15
8
0
10
0
20
0
30
0
0
INSERT
2
PF_SKETCH16
8
0
10
0
20
0
30
0
0
INSERT
2
PF_SKETCH17
8
0
10
0
20
0
30
0
0
INSERT
2
PF_SKETCH18
8
0
10
0
20
0
30
0
0
INSERT
2
PF_OBJECT19
8
0
10
0
20
0
30
0
0
INSERT
2
PF_OBJECT20
8
0
10
0
20
0
30
0
0
INSERT
2
PF_OBJECT21
8
0
10
0
20
0
30
0
0
INSERT
2
PF_OBJECT22
8
0
10
0
20
0
30
0
0
INSERT
2
PF_OBJECT23
8
0
10
0
20
0
30
0
0
INSERT
2
PF_OBJECT24
8
0
10
0
20
0
30
0
0
INSERT
2
PF_OBJECT25
8
0
10
0
20
0
30
0
0
INSERT
2
PF_OBJECT26
8
0
10
0
20
0
30
0
0
INSERT
2
PF_OBJECT27
8
0
10
0
20
0
30
0
0
INSERT
2
PF_OBJECT28
8
0
10
0
20
0
30
0
0
INSERT
2
PF_OBJECT29
8
0
10
0
20
0
30
0
0
INSERT
2
PF_OBJECT30
8
0
10
0
20
0
30
0
0
INSERT
2
PF_OBJECT31
8
0
10
0
20
0
30
0
0
INSERT
2
PF_SKETCH32
8
0
10
0
20
0
30
0
0
INSERT
2
PF_SKETCH33
8
0
10
0
20
0
30
0
0
INSERT
2
PF_SKETCH34
8
0
10
0
20
0
30
0
0
INSERT
2
PF_SKETCH35
8
0
10
0
20
0
30
0
0
INSERT
2
PF_SKETCH36
8
0
10
0
20
0
30
0
0
INSERT
2
PF_SKETCH37
8
0
10
0
20
0
30
0
0
INSERT
2
PF_OBJECT38
8
0
10
0
20
0
30
0
0
INSERT
2
PF_OBJECT39
8
0
10
0
20
0
30
0
0
INSERT
2
PF_OBJECT40
8
0
10
0
20
0
30
0
0
INSERT
2
PF_OBJECT41
8
0
10
0
20
0
30
0
0
INSERT
2
PF_OBJECT42
8
0
10
0
20
0
30
0
0
INSERT
2
PF_OBJECT43
8
0
10
0
20
0
30
0
0
INSERT
2
PF_OBJECT44
8
0
10
0
20
0
30
0
0
INSERT
2
PF_OBJECT45
8
0
10
0
20
0
30
0
0
INSERT
2
PF_OBJECT46
8
0
10
0
20
0
30
0
0
INSERT
2
PF_OBJECT47
8
0
10
0
20
0
30
0
0
INSERT
2
PF_OBJECT48
8
0
10
0
20
0
30
0
0
ENDSEC
0
EOF
