0
SECTION
2
HEADER
9
$EXTMIN
10
-570.000000000001
20
-570
30
0
9
$EXTMAX
10
4570
20
2750
30
0
0
ENDSEC
0
SECTION
2
TABLES
0
TABLE
2
LAYER
5
2
70
3
0
LAYER
5
14
2
layer0
5
14
70
0
62
7
6
CONTINUOUS
0
ENDTAB
0
TABLE
2
DIMSTYLE
70
2
0
DIMSTYLE
2
PFDIMSTYLE
70
0
3

4

5

6

7

40
1
41
30
42
0
43
0
44
1
45
0
46
0
47
0
48
0
71
0
72
0
73
0
74
0
75
0
76
0
77
2
78
12
140
30
141
0
142
0
143
1
144
1
145
0
146
1
147
5
170
0
171
1
172
0
173
1
174
0
175
0
176
7
177
7
178
7
0
ENDTAB
0
ENDSEC
0
SECTION
2
BLOCKS
0
BLOCK
8
layer0
2
PF_OBJECT0
70
0
10
0
20
0
30
0
0
LINE
8
layer0
10
3499.10161513775
20
1325.27820916122
30
0
11
3499.10161513775
21
-969.689110867545
31
0
0
LINE
8
layer0
10
3499.10161513775
20
-969.689110867545
30
0
11
-25.6217782649107
21
47.8108891324554
31
0
0
LINE
8
layer0
10
-25.6217782649107
20
47.8108891324554
30
0
11
-25.6217782649108
21
2342.77820916122
31
0
0
LINE
8
layer0
10
-25.6217782649108
20
2342.77820916122
30
0
11
3499.10161513775
21
1325.27820916122
31
0
0
LINE
8
layer0
10
3464.10161513775
20
1294.96732002876
30
0
11
3499.10161513775
21
1325.27820916122
31
0
0
LINE
8
layer0
10
3499.10161513775
20
1325.27820916122
30
0
11
-25.6217782649107
21
2342.77820916122
31
0
0
LINE
8
layer0
10
-25.6217782649107
20
2342.77820916122
30
0
11
-2.46139223857096E-14
21
2294.96732002876
31
0
0
LINE
8
layer0
10
-2.46139223857096E-14
20
2294.96732002876
30
0
11
3464.10161513775
21
1294.96732002876
31
0
0
LINE
8
layer0
10
0
20
0
30
0
11
-25.6217782649108
21
47.8108891324554
31
0
0
LINE
8
layer0
10
-25.6217782649108
20
47.8108891324554
30
0
11
3499.10161513775
21
-969.689110867545
31
0
0
LINE
8
layer0
10
3499.10161513775
20
-969.689110867545
30
0
11
3464.10161513775
21
-1000
31
0
0
LINE
8
layer0
10
3464.10161513775
20
-1000
30
0
11
0
21
0
31
0
0
LINE
8
layer0
10
3464.10161513775
20
1294.96732002876
30
0
11
3464.10161513775
21
-1000
31
0
0
LINE
8
layer0
10
3464.10161513775
20
-1000
30
0
11
3499.10161513775
21
-969.689110867545
31
0
0
LINE
8
layer0
10
3499.10161513775
20
-969.689110867545
30
0
11
3499.10161513775
21
1325.27820916122
31
0
0
LINE
8
layer0
10
3499.10161513775
20
1325.27820916122
30
0
11
3464.10161513775
21
1294.96732002876
31
0
0
LINE
8
layer0
10
-25.6217782649108
20
2342.77820916122
30
0
11
-25.6217782649108
21
47.8108891324554
31
0
0
LINE
8
layer0
10
-25.6217782649108
20
47.8108891324554
30
0
11
-3.69208835785644E-14
21
1.06581410364015E-14
31
0
0
LINE
8
layer0
10
-3.69208835785644E-14
20
1.06581410364015E-14
30
0
11
-2.46139223857096E-14
21
2294.96732002876
31
0
0
LINE
8
layer0
10
-2.46139223857096E-14
20
2294.96732002876
30
0
11
-25.6217782649108
21
2342.77820916122
31
0
0
LINE
8
layer0
10
0
20
2294.96732002876
30
0
11
-2.46139223857096E-14
21
7.105427357601E-15
31
0
0
LINE
8
layer0
10
-2.46139223857096E-14
20
7.105427357601E-15
30
0
11
3464.10161513775
21
-1000
31
0
0
LINE
8
layer0
10
3464.10161513775
20
-1000
30
0
11
3464.10161513775
21
1294.96732002876
31
0
0
LINE
8
layer0
10
3464.10161513775
20
1294.96732002876
30
0
11
0
21
2294.96732002876
31
0
0
ENDBLK
0
BLOCK
8
layer0
2
PF_OBJECT1
70
0
10
0
20
0
30
0
0
LINE
8
layer0
10
-25.621778264911
20
2342.77820916122
30
0
11
-25.621778264911
21
47.8108891324557
31
0
0
LINE
8
layer0
10
-25.621778264911
20
47.8108891324557
30
0
11
-1560.62177826491
21
-1281.53810567666
31
0
0
LINE
8
layer0
10
-1560.62177826491
20
-1281.53810567666
30
0
11
-1560.62177826491
21
1013.4292143521
31
0
0
LINE
8
layer0
10
-1560.62177826491
20
1013.4292143521
30
0
11
-25.621778264911
21
2342.77820916122
31
0
0
LINE
8
layer0
10
-2.27373675443232E-13
20
2294.96732002876
30
0
11
-25.621778264911
21
2342.77820916122
31
0
0
LINE
8
layer0
10
-25.621778264911
20
2342.77820916122
30
0
11
-1560.62177826491
21
1013.4292143521
31
0
0
LINE
8
layer0
10
-1560.62177826491
20
1013.4292143521
30
0
11
-1500
21
995.929214352105
31
0
0
LINE
8
layer0
10
-1500
20
995.929214352105
30
0
11
-2.27373675443232E-13
21
2294.96732002876
31
0
0
LINE
8
layer0
10
-1500
20
-1299.03810567666
30
0
11
-1560.62177826491
21
-1281.53810567666
31
0
0
LINE
8
layer0
10
-1560.62177826491
20
-1281.53810567666
30
0
11
-25.621778264911
21
47.8108891324557
31
0
0
LINE
8
layer0
10
-25.621778264911
20
47.8108891324557
30
0
11
-2.27373675443232E-13
21
4.54747350886464E-13
31
0
0
LINE
8
layer0
10
-2.27373675443232E-13
20
4.54747350886464E-13
30
0
11
-1500
21
-1299.03810567666
31
0
0
LINE
8
layer0
10
-1560.62177826491
20
1013.4292143521
30
0
11
-1560.62177826491
21
-1281.53810567666
31
0
0
LINE
8
layer0
10
-1560.62177826491
20
-1281.53810567666
30
0
11
-1500
21
-1299.03810567666
31
0
0
LINE
8
layer0
10
-1500
20
-1299.03810567666
30
0
11
-1500
21
995.929214352105
31
0
0
LINE
8
layer0
10
-1500
20
995.929214352105
30
0
11
-1560.62177826491
21
1013.4292143521
31
0
0
LINE
8
layer0
10
-4.54747350886464E-13
20
2294.96732002876
30
0
11
-4.54747350886464E-13
21
2.27373675443232E-13
31
0
0
LINE
8
layer0
10
-4.54747350886464E-13
20
2.27373675443232E-13
30
0
11
-25.6217782649112
21
47.8108891324555
31
0
0
LINE
8
layer0
10
-25.6217782649112
20
47.8108891324555
30
0
11
-25.6217782649112
21
2342.77820916122
31
0
0
LINE
8
layer0
10
-25.6217782649112
20
2342.77820916122
30
0
11
-4.54747350886464E-13
21
2294.96732002876
31
0
0
LINE
8
layer0
10
-1500
20
995.929214352105
30
0
11
-1500
21
-1299.03810567666
31
0
0
LINE
8
layer0
10
-1500
20
-1299.03810567666
30
0
11
-2.27373675443232E-13
21
4.54747350886464E-13
31
0
0
LINE
8
layer0
10
-2.27373675443232E-13
20
4.54747350886464E-13
30
0
11
-2.27373675443232E-13
21
2294.96732002876
31
0
0
LINE
8
layer0
10
-2.27373675443232E-13
20
2294.96732002876
30
0
11
-1500
21
995.929214352105
31
0
0
ENDBLK
0
BLOCK
8
layer0
2
PF_OBJECT2
70
0
10
0
20
0
30
0
0
LINE
8
layer0
10
0
20
0
30
0
11
-1500
21
-1299.03810567666
31
0
0
LINE
8
layer0
10
-1500
20
-1299.03810567666
30
0
11
1964.10161513776
21
-2299.03810567666
31
0
0
LINE
8
layer0
10
1964.10161513776
20
-2299.03810567666
30
0
11
3464.10161513775
21
-1000
31
0
0
LINE
8
layer0
10
3464.10161513775
20
-1000
30
0
11
0
21
0
31
0
0
LINE
8
layer0
10
0
20
0
30
0
11
3464.10161513775
21
-1000
31
0
0
LINE
8
layer0
10
3464.10161513775
20
-1000
30
0
11
-1500
21
-1299.03810567666
31
0
0
LINE
8
layer0
10
-1500
20
-1299.03810567666
30
0
11
0
21
0
31
0
0
LINE
8
layer0
10
3464.10161513775
20
-1000
30
0
11
1964.10161513776
21
-2299.03810567666
31
0
0
LINE
8
layer0
10
1964.10161513776
20
-2299.03810567666
30
0
11
-1500
21
-1299.03810567666
31
0
0
LINE
8
layer0
10
-1500
20
-1299.03810567666
30
0
11
3464.10161513775
21
-1000
31
0
0
ENDBLK
0
BLOCK
8
layer0
2
PF_OBJECT3
70
0
10
0
20
0
30
0
0
LINE
8
layer0
10
1041.67534827
20
-201.978875334514
30
0
11
549.772918920436
21
-59.978875334514
31
0
0
LINE
8
layer0
10
549.772918920436
20
-59.978875334514
30
0
11
549.772918920436
21
-46.122468873963
31
0
0
LINE
8
layer0
10
549.772918920436
20
-46.122468873963
30
0
11
1041.67534827
21
-188.122468873963
31
0
0
LINE
8
layer0
10
1041.67534827
20
-188.122468873963
30
0
11
1041.67534827
21
-201.978875334514
31
0
0
LINE
8
layer0
10
294.272918920436
20
-281.248366001438
30
0
11
786.175348269997
21
-423.248366001438
31
0
0
LINE
8
layer0
10
786.175348269997
20
-423.248366001438
30
0
11
786.175348269997
21
-409.391959540887
31
0
0
LINE
8
layer0
10
786.175348269997
20
-409.391959540887
30
0
11
294.272918920436
21
-267.391959540887
31
0
0
LINE
8
layer0
10
294.272918920436
20
-267.391959540887
30
0
11
294.272918920436
21
-281.248366001438
31
0
0
LINE
8
layer0
10
549.772918920436
20
-59.978875334514
30
0
11
294.272918920436
21
-281.248366001438
31
0
0
LINE
8
layer0
10
294.272918920436
20
-281.248366001438
30
0
11
294.272918920436
21
-267.391959540887
31
0
0
LINE
8
layer0
10
294.272918920436
20
-267.391959540887
30
0
11
549.772918920436
21
-46.122468873963
31
0
0
LINE
8
layer0
10
549.772918920436
20
-46.122468873963
30
0
11
549.772918920436
21
-59.978875334514
31
0
0
LINE
8
layer0
10
786.175348269997
20
-423.248366001438
30
0
11
1041.67534827
21
-201.978875334514
31
0
0
LINE
8
layer0
10
1041.67534827
20
-201.978875334514
30
0
11
1041.67534827
21
-188.122468873963
31
0
0
LINE
8
layer0
10
1041.67534827
20
-188.122468873963
30
0
11
786.175348269997
21
-409.391959540887
31
0
0
LINE
8
layer0
10
786.175348269997
20
-409.391959540887
30
0
11
786.175348269997
21
-423.248366001438
31
0
0
LINE
8
layer0
10
1041.67534827
20
-188.122468873963
30
0
11
549.772918920436
21
-46.122468873963
31
0
0
LINE
8
layer0
10
549.772918920436
20
-46.122468873963
30
0
11
294.272918920436
21
-267.391959540887
31
0
0
LINE
8
layer0
10
294.272918920436
20
-267.391959540887
30
0
11
786.175348269997
21
-409.391959540887
31
0
0
LINE
8
layer0
10
786.175348269997
20
-409.391959540887
30
0
11
1041.67534827
21
-188.122468873963
31
0
0
LINE
8
layer0
10
549.772918920436
20
-59.978875334514
30
0
11
1041.67534827
21
-201.978875334514
31
0
0
LINE
8
layer0
10
1041.67534827
20
-201.978875334514
30
0
11
786.175348269997
21
-423.248366001438
31
0
0
LINE
8
layer0
10
786.175348269997
20
-423.248366001438
30
0
11
294.272918920436
21
-281.248366001438
31
0
0
LINE
8
layer0
10
294.272918920436
20
-281.248366001438
30
0
11
549.772918920436
21
-59.978875334514
31
0
0
ENDBLK
0
BLOCK
8
layer0
2
PF_OBJECT4
70
0
10
0
20
0
30
0
0
LINE
8
layer0
10
1043.67534827
20
-200.246824526945
30
0
11
551.772918920436
21
-58.2468245269451
31
0
0
LINE
8
layer0
10
551.772918920436
20
-58.2468245269451
30
0
11
551.772918920436
21
439.717782649107
31
0
0
LINE
8
layer0
10
551.772918920436
20
439.717782649107
30
0
11
1043.67534827
21
297.717782649107
31
0
0
LINE
8
layer0
10
1043.67534827
20
297.717782649107
30
0
11
1043.67534827
21
-200.246824526945
31
0
0
LINE
8
layer0
10
549.772918920436
20
-59.978875334514
30
0
11
1041.67534827
21
-201.978875334514
31
0
0
LINE
8
layer0
10
1041.67534827
20
-201.978875334514
30
0
11
1041.67534827
21
295.985731841538
31
0
0
LINE
8
layer0
10
1041.67534827
20
295.985731841538
30
0
11
549.772918920436
21
437.985731841538
31
0
0
LINE
8
layer0
10
549.772918920436
20
437.985731841538
30
0
11
549.772918920436
21
-59.978875334514
31
0
0
LINE
8
layer0
10
551.772918920436
20
-58.2468245269451
30
0
11
549.772918920436
21
-59.978875334514
31
0
0
LINE
8
layer0
10
549.772918920436
20
-59.978875334514
30
0
11
549.772918920436
21
437.985731841538
31
0
0
LINE
8
layer0
10
549.772918920436
20
437.985731841538
30
0
11
551.772918920436
21
439.717782649107
31
0
0
LINE
8
layer0
10
551.772918920436
20
439.717782649107
30
0
11
551.772918920436
21
-58.2468245269451
31
0
0
LINE
8
layer0
10
1041.67534827
20
-201.978875334514
30
0
11
1043.67534827
21
-200.246824526945
31
0
0
LINE
8
layer0
10
1043.67534827
20
-200.246824526945
30
0
11
1043.67534827
21
297.717782649107
31
0
0
LINE
8
layer0
10
1043.67534827
20
297.717782649107
30
0
11
1041.67534827
21
295.985731841538
31
0
0
LINE
8
layer0
10
1041.67534827
20
295.985731841538
30
0
11
1041.67534827
21
-201.978875334514
31
0
0
LINE
8
layer0
10
1043.67534827
20
297.717782649107
30
0
11
551.772918920436
21
439.717782649107
31
0
0
LINE
8
layer0
10
551.772918920436
20
439.717782649107
30
0
11
549.772918920436
21
437.985731841538
31
0
0
LINE
8
layer0
10
549.772918920436
20
437.985731841538
30
0
11
1041.67534827
21
295.985731841538
31
0
0
LINE
8
layer0
10
1041.67534827
20
295.985731841538
30
0
11
1043.67534827
21
297.717782649107
31
0
0
LINE
8
layer0
10
551.772918920436
20
-58.2468245269451
30
0
11
1043.67534827
21
-200.246824526945
31
0
0
LINE
8
layer0
10
1043.67534827
20
-200.246824526945
30
0
11
1041.67534827
21
-201.978875334514
31
0
0
LINE
8
layer0
10
1041.67534827
20
-201.978875334514
30
0
11
549.772918920436
21
-59.978875334514
31
0
0
LINE
8
layer0
10
549.772918920436
20
-59.978875334514
30
0
11
551.772918920436
21
-58.2468245269451
31
0
0
ENDBLK
0
BLOCK
8
layer0
2
PF_OBJECT5
70
0
10
0
20
0
30
0
0
LINE
8
layer0
10
1016.67534827
20
274.335096746927
30
0
11
524.772918920436
21
416.335096746927
31
0
0
LINE
8
layer0
10
524.772918920436
20
416.335096746927
30
0
11
524.772918920436
21
402.478690286376
31
0
0
LINE
8
layer0
10
524.772918920436
20
402.478690286376
30
0
11
1016.67534827
21
260.478690286376
31
0
0
LINE
8
layer0
10
1016.67534827
20
260.478690286376
30
0
11
1016.67534827
21
274.335096746927
31
0
0
LINE
8
layer0
10
549.772918920436
20
437.985731841538
30
0
11
1041.67534827
21
295.985731841538
31
0
0
LINE
8
layer0
10
1041.67534827
20
295.985731841538
30
0
11
1041.67534827
21
282.129325380987
31
0
0
LINE
8
layer0
10
1041.67534827
20
282.129325380987
30
0
11
549.772918920436
21
424.129325380987
31
0
0
LINE
8
layer0
10
549.772918920436
20
424.129325380987
30
0
11
549.772918920436
21
437.985731841538
31
0
0
LINE
8
layer0
10
524.772918920436
20
416.335096746927
30
0
11
549.772918920436
21
437.985731841538
31
0
0
LINE
8
layer0
10
549.772918920436
20
437.985731841538
30
0
11
549.772918920436
21
424.129325380987
31
0
0
LINE
8
layer0
10
549.772918920436
20
424.129325380987
30
0
11
524.772918920436
21
402.478690286376
31
0
0
LINE
8
layer0
10
524.772918920436
20
402.478690286376
30
0
11
524.772918920436
21
416.335096746927
31
0
0
LINE
8
layer0
10
1041.67534827
20
295.985731841538
30
0
11
1016.67534827
21
274.335096746927
31
0
0
LINE
8
layer0
10
1016.67534827
20
274.335096746927
30
0
11
1016.67534827
21
260.478690286376
31
0
0
LINE
8
layer0
10
1016.67534827
20
260.478690286376
30
0
11
1041.67534827
21
282.129325380987
31
0
0
LINE
8
layer0
10
1041.67534827
20
282.129325380987
30
0
11
1041.67534827
21
295.985731841538
31
0
0
LINE
8
layer0
10
1016.67534827
20
260.478690286376
30
0
11
524.772918920436
21
402.478690286376
31
0
0
LINE
8
layer0
10
524.772918920436
20
402.478690286376
30
0
11
549.772918920436
21
424.129325380987
31
0
0
LINE
8
layer0
10
549.772918920436
20
424.129325380987
30
0
11
1041.67534827
21
282.129325380987
31
0
0
LINE
8
layer0
10
1041.67534827
20
282.129325380987
30
0
11
1016.67534827
21
260.478690286376
31
0
0
LINE
8
layer0
10
524.772918920436
20
416.335096746927
30
0
11
1016.67534827
21
274.335096746927
31
0
0
LINE
8
layer0
10
1016.67534827
20
274.335096746927
30
0
11
1041.67534827
21
295.985731841538
31
0
0
LINE
8
layer0
10
1041.67534827
20
295.985731841538
30
0
11
549.772918920436
21
437.985731841538
31
0
0
LINE
8
layer0
10
549.772918920436
20
437.985731841538
30
0
11
524.772918920436
21
416.335096746927
31
0
0
ENDBLK
0
BLOCK
8
layer0
2
PF_OBJECT6
70
0
10
0
20
0
30
0
0
LINE
8
layer0
10
319.272918920436
20
224.510469808674
30
0
11
811.175348269997
21
82.5104698086741
31
0
0
LINE
8
layer0
10
811.175348269997
20
82.5104698086741
30
0
11
786.175348269997
21
60.8598347140631
31
0
0
LINE
8
layer0
10
786.175348269997
20
60.8598347140631
30
0
11
294.272918920436
21
202.859834714063
31
0
0
LINE
8
layer0
10
294.272918920436
20
202.859834714063
30
0
11
319.272918920436
21
224.510469808674
31
0
0
LINE
8
layer0
10
811.175348269997
20
96.3668762692251
30
0
11
319.272918920436
21
238.366876269225
31
0
0
LINE
8
layer0
10
319.272918920436
20
238.366876269225
30
0
11
294.272918920436
21
216.716241174614
31
0
0
LINE
8
layer0
10
294.272918920436
20
216.716241174614
30
0
11
786.175348269997
21
74.7162411746141
31
0
0
LINE
8
layer0
10
786.175348269997
20
74.7162411746141
30
0
11
811.175348269997
21
96.3668762692251
31
0
0
LINE
8
layer0
10
786.175348269997
20
60.8598347140631
30
0
11
811.175348269997
21
82.5104698086741
31
0
0
LINE
8
layer0
10
811.175348269997
20
82.5104698086741
30
0
11
811.175348269997
21
96.3668762692251
31
0
0
LINE
8
layer0
10
811.175348269997
20
96.3668762692251
30
0
11
786.175348269997
21
74.7162411746141
31
0
0
LINE
8
layer0
10
786.175348269997
20
74.7162411746141
30
0
11
786.175348269997
21
60.8598347140631
31
0
0
LINE
8
layer0
10
319.272918920436
20
224.510469808674
30
0
11
294.272918920436
21
202.859834714063
31
0
0
LINE
8
layer0
10
294.272918920436
20
202.859834714063
30
0
11
294.272918920436
21
216.716241174614
31
0
0
LINE
8
layer0
10
294.272918920436
20
216.716241174614
30
0
11
319.272918920436
21
238.366876269225
31
0
0
LINE
8
layer0
10
319.272918920436
20
238.366876269225
30
0
11
319.272918920436
21
224.510469808674
31
0
0
LINE
8
layer0
10
294.272918920436
20
202.859834714063
30
0
11
786.175348269997
21
60.8598347140631
31
0
0
LINE
8
layer0
10
786.175348269997
20
60.8598347140631
30
0
11
786.175348269997
21
74.7162411746141
31
0
0
LINE
8
layer0
10
786.175348269997
20
74.7162411746141
30
0
11
294.272918920436
21
216.716241174614
31
0
0
LINE
8
layer0
10
294.272918920436
20
216.716241174614
30
0
11
294.272918920436
21
202.859834714063
31
0
0
LINE
8
layer0
10
811.175348269997
20
82.5104698086741
30
0
11
319.272918920436
21
224.510469808674
31
0
0
LINE
8
layer0
10
319.272918920436
20
224.510469808674
30
0
11
319.272918920436
21
238.366876269225
31
0
0
LINE
8
layer0
10
319.272918920436
20
238.366876269225
30
0
11
811.175348269997
21
96.3668762692251
31
0
0
LINE
8
layer0
10
811.175348269997
20
96.3668762692251
30
0
11
811.175348269997
21
82.5104698086741
31
0
0
LINE
8
layer0
10
1068.67534827
20
-178.596189432334
30
0
11
1082.53175473055
21
-182.596189432334
31
0
0
LINE
8
layer0
10
1082.53175473055
20
-182.596189432334
30
0
11
799.531754730549
21
-427.68137870333
31
0
0
LINE
8
layer0
10
799.531754730549
20
-427.68137870333
30
0
11
785.675348269997
21
-423.68137870333
31
0
0
LINE
8
layer0
10
785.675348269997
20
-423.68137870333
30
0
11
1068.67534827
21
-178.596189432334
31
0
0
LINE
8
layer0
10
1082.53175473055
20
315.368417743718
30
0
11
1068.67534827
21
319.368417743718
31
0
0
LINE
8
layer0
10
1068.67534827
20
319.368417743718
30
0
11
785.675348269997
21
74.2832284727219
31
0
0
LINE
8
layer0
10
785.675348269997
20
74.2832284727219
30
0
11
799.531754730549
21
70.2832284727219
31
0
0
LINE
8
layer0
10
799.531754730549
20
70.2832284727219
30
0
11
1082.53175473055
21
315.368417743718
31
0
0
LINE
8
layer0
10
799.531754730549
20
-427.68137870333
30
0
11
1082.53175473055
21
-182.596189432334
31
0
0
LINE
8
layer0
10
1082.53175473055
20
-182.596189432334
30
0
11
1082.53175473055
21
315.368417743718
31
0
0
LINE
8
layer0
10
1082.53175473055
20
315.368417743718
30
0
11
799.531754730549
21
70.2832284727219
31
0
0
LINE
8
layer0
10
799.531754730549
20
70.2832284727219
30
0
11
799.531754730549
21
-427.68137870333
31
0
0
LINE
8
layer0
10
1068.67534827
20
-178.596189432334
30
0
11
785.675348269997
21
-423.68137870333
31
0
0
LINE
8
layer0
10
785.675348269997
20
-423.68137870333
30
0
11
785.675348269997
21
74.2832284727219
31
0
0
LINE
8
layer0
10
785.675348269997
20
74.2832284727219
30
0
11
1068.67534827
21
319.368417743718
31
0
0
LINE
8
layer0
10
1068.67534827
20
319.368417743718
30
0
11
1068.67534827
21
-178.596189432334
31
0
0
LINE
8
layer0
10
785.675348269997
20
-423.68137870333
30
0
11
799.531754730549
21
-427.68137870333
31
0
0
LINE
8
layer0
10
799.531754730549
20
-427.68137870333
30
0
11
799.531754730549
21
70.2832284727219
31
0
0
LINE
8
layer0
10
799.531754730549
20
70.2832284727219
30
0
11
785.675348269997
21
74.2832284727219
31
0
0
LINE
8
layer0
10
785.675348269997
20
74.2832284727219
30
0
11
785.675348269997
21
-423.68137870333
31
0
0
LINE
8
layer0
10
1082.53175473055
20
-182.596189432334
30
0
11
1068.67534827
21
-178.596189432334
31
0
0
LINE
8
layer0
10
1068.67534827
20
-178.596189432334
30
0
11
1068.67534827
21
319.368417743718
31
0
0
LINE
8
layer0
10
1068.67534827
20
319.368417743718
30
0
11
1082.53175473055
21
315.368417743718
31
0
0
LINE
8
layer0
10
1082.53175473055
20
315.368417743718
30
0
11
1082.53175473055
21
-182.596189432334
31
0
0
LINE
8
layer0
10
562.916512459885
20
-32.5961894323342
30
0
11
576.772918920436
21
-36.5961894323342
31
0
0
LINE
8
layer0
10
576.772918920436
20
-36.5961894323342
30
0
11
293.772918920436
21
-281.68137870333
31
0
0
LINE
8
layer0
10
293.772918920436
20
-281.68137870333
30
0
11
279.916512459885
21
-277.68137870333
31
0
0
LINE
8
layer0
10
279.916512459885
20
-277.68137870333
30
0
11
562.916512459885
21
-32.5961894323342
31
0
0
LINE
8
layer0
10
576.772918920436
20
461.368417743718
30
0
11
562.916512459885
21
465.368417743718
31
0
0
LINE
8
layer0
10
562.916512459885
20
465.368417743718
30
0
11
279.916512459885
21
220.283228472722
31
0
0
LINE
8
layer0
10
279.916512459885
20
220.283228472722
30
0
11
293.772918920436
21
216.283228472722
31
0
0
LINE
8
layer0
10
293.772918920436
20
216.283228472722
30
0
11
576.772918920436
21
461.368417743718
31
0
0
LINE
8
layer0
10
293.772918920436
20
-281.68137870333
30
0
11
576.772918920436
21
-36.5961894323342
31
0
0
LINE
8
layer0
10
576.772918920436
20
-36.5961894323342
30
0
11
576.772918920436
21
461.368417743718
31
0
0
LINE
8
layer0
10
576.772918920436
20
461.368417743718
30
0
11
293.772918920436
21
216.283228472722
31
0
0
LINE
8
layer0
10
293.772918920436
20
216.283228472722
30
0
11
293.772918920436
21
-281.68137870333
31
0
0
LINE
8
layer0
10
562.916512459885
20
-32.5961894323342
30
0
11
279.916512459885
21
-277.68137870333
31
0
0
LINE
8
layer0
10
279.916512459885
20
-277.68137870333
30
0
11
279.916512459885
21
220.283228472722
31
0
0
LINE
8
layer0
10
279.916512459885
20
220.283228472722
30
0
11
562.916512459885
21
465.368417743718
31
0
0
LINE
8
layer0
10
562.916512459885
20
465.368417743718
30
0
11
562.916512459885
21
-32.5961894323342
31
0
0
LINE
8
layer0
10
279.916512459885
20
-277.68137870333
30
0
11
293.772918920436
21
-281.68137870333
31
0
0
LINE
8
layer0
10
293.772918920436
20
-281.68137870333
30
0
11
293.772918920436
21
216.283228472722
31
0
0
LINE
8
layer0
10
293.772918920436
20
216.283228472722
30
0
11
279.916512459885
21
220.283228472722
31
0
0
LINE
8
layer0
10
279.916512459885
20
220.283228472722
30
0
11
279.916512459885
21
-277.68137870333
31
0
0
LINE
8
layer0
10
576.772918920436
20
-36.5961894323342
30
0
11
562.916512459885
21
-32.5961894323342
31
0
0
LINE
8
layer0
10
562.916512459885
20
-32.5961894323342
30
0
11
562.916512459885
21
465.368417743718
31
0
0
LINE
8
layer0
10
562.916512459885
20
465.368417743718
30
0
11
576.772918920436
21
461.368417743718
31
0
0
LINE
8
layer0
10
576.772918920436
20
461.368417743718
30
0
11
576.772918920436
21
-36.5961894323342
31
0
0
ENDBLK
0
BLOCK
8
layer0
2
PF_OBJECT7
70
0
10
0
20
0
30
0
0
LINE
8
layer0
10
625.646999809885
20
57.455205369853
30
0
11
623.879232856918
21
57.1925391210568
31
0
0
LINE
8
layer0
10
623.879232856918
20
57.1925391210568
30
0
11
752.050992617015
21
20.1925391210568
31
0
0
LINE
8
layer0
10
752.050992617015
20
20.1925391210568
30
0
11
753.818759569982
21
20.455205369853
31
0
0
LINE
8
layer0
10
753.818759569982
20
20.455205369853
30
0
11
625.646999809885
21
57.455205369853
31
0
0
LINE
8
layer0
10
626.379232856918
20
55.0274756115957
30
0
11
625.646999809885
21
57.455205369853
31
0
0
LINE
8
layer0
10
625.646999809885
20
57.455205369853
30
0
11
753.818759569982
21
20.455205369853
31
0
0
LINE
8
layer0
10
753.818759569982
20
20.455205369853
30
0
11
754.550992617015
21
18.0274756115957
31
0
0
LINE
8
layer0
10
754.550992617015
20
18.0274756115957
30
0
11
626.379232856918
21
55.0274756115957
31
0
0
LINE
8
layer0
10
625.646999809885
20
51.3314810128951
30
0
11
626.379232856918
21
55.0274756115957
31
0
0
LINE
8
layer0
10
626.379232856918
20
55.0274756115957
30
0
11
754.550992617015
21
18.0274756115957
31
0
0
LINE
8
layer0
10
754.550992617015
20
18.0274756115957
30
0
11
753.818759569982
21
14.3314810128951
31
0
0
LINE
8
layer0
10
753.818759569982
20
14.3314810128951
30
0
11
625.646999809885
21
51.3314810128951
31
0
0
LINE
8
layer0
10
623.879232856918
20
48.5322850832124
30
0
11
625.646999809885
21
51.3314810128951
31
0
0
LINE
8
layer0
10
625.646999809885
20
51.3314810128951
30
0
11
753.818759569982
21
14.3314810128951
31
0
0
LINE
8
layer0
10
753.818759569982
20
14.3314810128951
30
0
11
752.050992617015
21
11.5322850832124
31
0
0
LINE
8
layer0
10
752.050992617015
20
11.5322850832124
30
0
11
623.879232856918
21
48.5322850832124
31
0
0
LINE
8
layer0
10
622.111465903952
20
48.2696188344161
30
0
11
623.879232856918
21
48.5322850832124
31
0
0
LINE
8
layer0
10
623.879232856918
20
48.5322850832124
30
0
11
752.050992617015
21
11.5322850832124
31
0
0
LINE
8
layer0
10
752.050992617015
20
11.5322850832124
30
0
11
750.283225664049
21
11.2696188344161
31
0
0
LINE
8
layer0
10
750.283225664049
20
11.2696188344161
30
0
11
622.111465903952
21
48.2696188344161
31
0
0
LINE
8
layer0
10
621.379232856918
20
50.6973485926735
30
0
11
622.111465903952
21
48.2696188344161
31
0
0
LINE
8
layer0
10
622.111465903952
20
48.2696188344161
30
0
11
750.283225664049
21
11.2696188344161
31
0
0
LINE
8
layer0
10
750.283225664049
20
11.2696188344161
30
0
11
749.550992617015
21
13.6973485926735
31
0
0
LINE
8
layer0
10
749.550992617015
20
13.6973485926735
30
0
11
621.379232856918
21
50.6973485926735
31
0
0
LINE
8
layer0
10
622.111465903952
20
54.393343191374
30
0
11
621.379232856918
21
50.6973485926735
31
0
0
LINE
8
layer0
10
621.379232856918
20
50.6973485926735
30
0
11
749.550992617015
21
13.6973485926735
31
0
0
LINE
8
layer0
10
749.550992617015
20
13.6973485926735
30
0
11
750.283225664049
21
17.393343191374
31
0
0
LINE
8
layer0
10
750.283225664049
20
17.393343191374
30
0
11
622.111465903952
21
54.393343191374
31
0
0
LINE
8
layer0
10
623.879232856918
20
57.1925391210568
30
0
11
622.111465903952
21
54.393343191374
31
0
0
LINE
8
layer0
10
622.111465903952
20
54.393343191374
30
0
11
750.283225664049
21
17.393343191374
31
0
0
LINE
8
layer0
10
750.283225664049
20
17.393343191374
30
0
11
752.050992617015
21
20.1925391210568
31
0
0
LINE
8
layer0
10
752.050992617015
20
20.1925391210568
30
0
11
623.879232856918
21
57.1925391210568
31
0
0
LINE
8
layer0
10
752.050992617015
20
20.1925391210568
30
0
11
750.283225664049
21
17.393343191374
31
0
0
LINE
8
layer0
10
750.283225664049
20
17.393343191374
30
0
11
749.550992617015
21
13.6973485926735
31
0
0
LINE
8
layer0
10
749.550992617015
20
13.6973485926735
30
0
11
750.283225664049
21
11.2696188344161
31
0
0
LINE
8
layer0
10
750.283225664049
20
11.2696188344161
30
0
11
752.050992617015
21
11.5322850832124
31
0
0
LINE
8
layer0
10
752.050992617015
20
11.5322850832124
30
0
11
753.818759569982
21
14.3314810128951
31
0
0
LINE
8
layer0
10
753.818759569982
20
14.3314810128951
30
0
11
754.550992617015
21
18.0274756115957
31
0
0
LINE
8
layer0
10
754.550992617015
20
18.0274756115957
30
0
11
753.818759569982
21
20.455205369853
31
0
0
LINE
8
layer0
10
753.818759569982
20
20.455205369853
30
0
11
752.050992617015
21
20.1925391210568
31
0
0
LINE
8
layer0
10
622.111465903952
20
54.393343191374
30
0
11
623.879232856918
21
57.1925391210568
31
0
0
LINE
8
layer0
10
623.879232856918
20
57.1925391210568
30
0
11
625.646999809885
21
57.455205369853
31
0
0
LINE
8
layer0
10
625.646999809885
20
57.455205369853
30
0
11
626.379232856918
21
55.0274756115957
31
0
0
LINE
8
layer0
10
626.379232856918
20
55.0274756115957
30
0
11
625.646999809885
21
51.3314810128951
31
0
0
LINE
8
layer0
10
625.646999809885
20
51.3314810128951
30
0
11
623.879232856918
21
48.5322850832124
31
0
0
LINE
8
layer0
10
623.879232856918
20
48.5322850832124
30
0
11
622.111465903952
21
48.2696188344161
31
0
0
LINE
8
layer0
10
622.111465903952
20
48.2696188344161
30
0
11
621.379232856918
21
50.6973485926735
31
0
0
LINE
8
layer0
10
621.379232856918
20
50.6973485926735
30
0
11
622.111465903952
21
54.393343191374
31
0
0
ENDBLK
0
BLOCK
8
layer0
2
PF_OBJECT8
70
0
10
0
20
0
30
0
0
LINE
8
layer0
10
651.199740932607
20
52.1925391210568
30
0
11
633.879232856918
21
57.1925391210568
31
0
0
LINE
8
layer0
10
633.879232856918
20
57.1925391210568
30
0
11
633.879232856918
21
65.8527931589012
31
0
0
LINE
8
layer0
10
633.879232856918
20
65.8527931589012
30
0
11
651.199740932607
21
60.8527931589012
31
0
0
LINE
8
layer0
10
651.199740932607
20
60.8527931589012
30
0
11
651.199740932607
21
52.1925391210568
31
0
0
LINE
8
layer0
10
623.879232856918
20
48.5322850832124
30
0
11
641.199740932607
21
43.5322850832124
31
0
0
LINE
8
layer0
10
641.199740932607
20
43.5322850832124
30
0
11
641.199740932607
21
52.1925391210568
31
0
0
LINE
8
layer0
10
641.199740932607
20
52.1925391210568
30
0
11
623.879232856918
21
57.1925391210568
31
0
0
LINE
8
layer0
10
623.879232856918
20
57.1925391210568
30
0
11
623.879232856918
21
48.5322850832124
31
0
0
LINE
8
layer0
10
633.879232856918
20
57.1925391210568
30
0
11
623.879232856918
21
48.5322850832124
31
0
0
LINE
8
layer0
10
623.879232856918
20
48.5322850832124
30
0
11
623.879232856918
21
57.1925391210568
31
0
0
LINE
8
layer0
10
623.879232856918
20
57.1925391210568
30
0
11
633.879232856918
21
65.8527931589012
31
0
0
LINE
8
layer0
10
633.879232856918
20
65.8527931589012
30
0
11
633.879232856918
21
57.1925391210568
31
0
0
LINE
8
layer0
10
641.199740932607
20
43.5322850832124
30
0
11
651.199740932607
21
52.1925391210568
31
0
0
LINE
8
layer0
10
651.199740932607
20
52.1925391210568
30
0
11
651.199740932607
21
60.8527931589012
31
0
0
LINE
8
layer0
10
651.199740932607
20
60.8527931589012
30
0
11
641.199740932607
21
52.1925391210568
31
0
0
LINE
8
layer0
10
641.199740932607
20
52.1925391210568
30
0
11
641.199740932607
21
43.5322850832124
31
0
0
LINE
8
layer0
10
651.199740932607
20
60.8527931589012
30
0
11
633.879232856918
21
65.8527931589012
31
0
0
LINE
8
layer0
10
633.879232856918
20
65.8527931589012
30
0
11
623.879232856918
21
57.1925391210568
31
0
0
LINE
8
layer0
10
623.879232856918
20
57.1925391210568
30
0
11
641.199740932607
21
52.1925391210568
31
0
0
LINE
8
layer0
10
641.199740932607
20
52.1925391210568
30
0
11
651.199740932607
21
60.8527931589012
31
0
0
LINE
8
layer0
10
633.879232856918
20
57.1925391210568
30
0
11
651.199740932607
21
52.1925391210568
31
0
0
LINE
8
layer0
10
651.199740932607
20
52.1925391210568
30
0
11
641.199740932607
21
43.5322850832124
31
0
0
LINE
8
layer0
10
641.199740932607
20
43.5322850832124
30
0
11
623.879232856918
21
48.5322850832124
31
0
0
LINE
8
layer0
10
623.879232856918
20
48.5322850832124
30
0
11
633.879232856918
21
57.1925391210568
31
0
0
ENDBLK
0
BLOCK
8
layer0
2
PF_OBJECT9
70
0
10
0
20
0
30
0
0
LINE
8
layer0
10
762.050992617015
20
20.1925391210568
30
0
11
744.730484541327
21
25.1925391210568
31
0
0
LINE
8
layer0
10
744.730484541327
20
25.1925391210568
30
0
11
744.730484541327
21
33.8527931589012
31
0
0
LINE
8
layer0
10
744.730484541327
20
33.8527931589012
30
0
11
762.050992617015
21
28.8527931589012
31
0
0
LINE
8
layer0
10
762.050992617015
20
28.8527931589012
30
0
11
762.050992617015
21
20.1925391210568
31
0
0
LINE
8
layer0
10
734.730484541327
20
16.5322850832124
30
0
11
752.050992617015
21
11.5322850832124
31
0
0
LINE
8
layer0
10
752.050992617015
20
11.5322850832124
30
0
11
752.050992617015
21
20.1925391210568
31
0
0
LINE
8
layer0
10
752.050992617015
20
20.1925391210568
30
0
11
734.730484541327
21
25.1925391210568
31
0
0
LINE
8
layer0
10
734.730484541327
20
25.1925391210568
30
0
11
734.730484541327
21
16.5322850832124
31
0
0
LINE
8
layer0
10
744.730484541327
20
25.1925391210568
30
0
11
734.730484541327
21
16.5322850832124
31
0
0
LINE
8
layer0
10
734.730484541327
20
16.5322850832124
30
0
11
734.730484541327
21
25.1925391210568
31
0
0
LINE
8
layer0
10
734.730484541327
20
25.1925391210568
30
0
11
744.730484541327
21
33.8527931589012
31
0
0
LINE
8
layer0
10
744.730484541327
20
33.8527931589012
30
0
11
744.730484541327
21
25.1925391210568
31
0
0
LINE
8
layer0
10
752.050992617015
20
11.5322850832124
30
0
11
762.050992617015
21
20.1925391210568
31
0
0
LINE
8
layer0
10
762.050992617015
20
20.1925391210568
30
0
11
762.050992617015
21
28.8527931589012
31
0
0
LINE
8
layer0
10
762.050992617015
20
28.8527931589012
30
0
11
752.050992617015
21
20.1925391210568
31
0
0
LINE
8
layer0
10
752.050992617015
20
20.1925391210568
30
0
11
752.050992617015
21
11.5322850832124
31
0
0
LINE
8
layer0
10
762.050992617015
20
28.8527931589012
30
0
11
744.730484541327
21
33.8527931589012
31
0
0
LINE
8
layer0
10
744.730484541327
20
33.8527931589012
30
0
11
734.730484541327
21
25.1925391210568
31
0
0
LINE
8
layer0
10
734.730484541327
20
25.1925391210568
30
0
11
752.050992617015
21
20.1925391210568
31
0
0
LINE
8
layer0
10
752.050992617015
20
20.1925391210568
30
0
11
762.050992617015
21
28.8527931589012
31
0
0
LINE
8
layer0
10
744.730484541327
20
25.1925391210568
30
0
11
762.050992617015
21
20.1925391210568
31
0
0
LINE
8
layer0
10
762.050992617015
20
20.1925391210568
30
0
11
752.050992617015
21
11.5322850832124
31
0
0
LINE
8
layer0
10
752.050992617015
20
11.5322850832124
30
0
11
734.730484541327
21
16.5322850832124
31
0
0
LINE
8
layer0
10
734.730484541327
20
16.5322850832124
30
0
11
744.730484541327
21
25.1925391210568
31
0
0
ENDBLK
0
BLOCK
8
layer0
2
PF_OBJECT10
70
0
10
0
20
0
30
0
0
LINE
8
layer0
10
795.433678519195
20
-425.632340597654
30
0
11
281.014588671239
21
-277.132340597654
31
0
0
LINE
8
layer0
10
281.014588671239
20
-277.132340597654
30
0
11
281.014588671239
21
212.172012540554
31
0
0
LINE
8
layer0
10
281.014588671239
20
212.172012540554
30
0
11
795.433678519195
21
63.6720125405542
31
0
0
LINE
8
layer0
10
795.433678519195
20
63.6720125405542
30
0
11
795.433678519195
21
-425.632340597654
31
0
0
LINE
8
layer0
10
271.014588671239
20
-285.792594635498
30
0
11
785.433678519195
21
-434.292594635498
31
0
0
LINE
8
layer0
10
785.433678519195
20
-434.292594635498
30
0
11
785.433678519195
21
55.0117585027098
31
0
0
LINE
8
layer0
10
785.433678519195
20
55.0117585027098
30
0
11
271.014588671239
21
203.51175850271
31
0
0
LINE
8
layer0
10
271.014588671239
20
203.51175850271
30
0
11
271.014588671239
21
-285.792594635498
31
0
0
LINE
8
layer0
10
281.014588671239
20
-277.132340597654
30
0
11
271.014588671239
21
-285.792594635498
31
0
0
LINE
8
layer0
10
271.014588671239
20
-285.792594635498
30
0
11
271.014588671239
21
203.51175850271
31
0
0
LINE
8
layer0
10
271.014588671239
20
203.51175850271
30
0
11
281.014588671239
21
212.172012540554
31
0
0
LINE
8
layer0
10
281.014588671239
20
212.172012540554
30
0
11
281.014588671239
21
-277.132340597654
31
0
0
LINE
8
layer0
10
785.433678519195
20
-434.292594635498
30
0
11
795.433678519195
21
-425.632340597654
31
0
0
LINE
8
layer0
10
795.433678519195
20
-425.632340597654
30
0
11
795.433678519195
21
63.6720125405542
31
0
0
LINE
8
layer0
10
795.433678519195
20
63.6720125405542
30
0
11
785.433678519195
21
55.0117585027098
31
0
0
LINE
8
layer0
10
785.433678519195
20
55.0117585027098
30
0
11
785.433678519195
21
-434.292594635498
31
0
0
LINE
8
layer0
10
795.433678519195
20
63.6720125405542
30
0
11
281.014588671239
21
212.172012540554
31
0
0
LINE
8
layer0
10
281.014588671239
20
212.172012540554
30
0
11
271.014588671239
21
203.51175850271
31
0
0
LINE
8
layer0
10
271.014588671239
20
203.51175850271
30
0
11
785.433678519195
21
55.0117585027098
31
0
0
LINE
8
layer0
10
785.433678519195
20
55.0117585027098
30
0
11
795.433678519195
21
63.6720125405542
31
0
0
LINE
8
layer0
10
281.014588671239
20
-277.132340597654
30
0
11
795.433678519195
21
-425.632340597654
31
0
0
LINE
8
layer0
10
795.433678519195
20
-425.632340597654
30
0
11
785.433678519195
21
-434.292594635498
31
0
0
LINE
8
layer0
10
785.433678519195
20
-434.292594635498
30
0
11
271.014588671239
21
-285.792594635498
31
0
0
LINE
8
layer0
10
271.014588671239
20
-285.792594635498
30
0
11
281.014588671239
21
-277.132340597654
31
0
0
ENDBLK
0
BLOCK
8
layer0
2
PF_OBJECT11
70
0
10
0
20
0
30
0
0
LINE
8
layer0
10
590.858798800485
20
-228.301270189222
30
0
11
556.217782649107
21
-218.301270189222
31
0
0
LINE
8
layer0
10
556.217782649107
20
-218.301270189222
30
0
11
556.217782649107
21
-88.3974596215561
31
0
0
LINE
8
layer0
10
556.217782649107
20
-88.3974596215561
30
0
11
590.858798800485
21
-98.3974596215561
31
0
0
LINE
8
layer0
10
590.858798800485
20
-98.3974596215561
30
0
11
590.858798800485
21
-228.301270189222
31
0
0
LINE
8
layer0
10
536.217782649107
20
-235.621778264911
30
0
11
570.858798800485
21
-245.621778264911
31
0
0
LINE
8
layer0
10
570.858798800485
20
-245.621778264911
30
0
11
570.858798800485
21
-115.717967697245
31
0
0
LINE
8
layer0
10
570.858798800485
20
-115.717967697245
30
0
11
536.217782649107
21
-105.717967697245
31
0
0
LINE
8
layer0
10
536.217782649107
20
-105.717967697245
30
0
11
536.217782649107
21
-235.621778264911
31
0
0
LINE
8
layer0
10
556.217782649107
20
-218.301270189222
30
0
11
536.217782649107
21
-235.621778264911
31
0
0
LINE
8
layer0
10
536.217782649107
20
-235.621778264911
30
0
11
536.217782649107
21
-105.717967697245
31
0
0
LINE
8
layer0
10
536.217782649107
20
-105.717967697245
30
0
11
556.217782649107
21
-88.3974596215561
31
0
0
LINE
8
layer0
10
556.217782649107
20
-88.3974596215561
30
0
11
556.217782649107
21
-218.301270189222
31
0
0
LINE
8
layer0
10
570.858798800485
20
-245.621778264911
30
0
11
590.858798800485
21
-228.301270189222
31
0
0
LINE
8
layer0
10
590.858798800485
20
-228.301270189222
30
0
11
590.858798800485
21
-98.3974596215561
31
0
0
LINE
8
layer0
10
590.858798800485
20
-98.3974596215561
30
0
11
570.858798800485
21
-115.717967697245
31
0
0
LINE
8
layer0
10
570.858798800485
20
-115.717967697245
30
0
11
570.858798800485
21
-245.621778264911
31
0
0
LINE
8
layer0
10
590.858798800485
20
-98.3974596215561
30
0
11
556.217782649107
21
-88.3974596215561
31
0
0
LINE
8
layer0
10
556.217782649107
20
-88.3974596215561
30
0
11
536.217782649107
21
-105.717967697245
31
0
0
LINE
8
layer0
10
536.217782649107
20
-105.717967697245
30
0
11
570.858798800485
21
-115.717967697245
31
0
0
LINE
8
layer0
10
570.858798800485
20
-115.717967697245
30
0
11
590.858798800485
21
-98.3974596215561
31
0
0
LINE
8
layer0
10
556.217782649107
20
-218.301270189222
30
0
11
590.858798800485
21
-228.301270189222
31
0
0
LINE
8
layer0
10
590.858798800485
20
-228.301270189222
30
0
11
570.858798800485
21
-245.621778264911
31
0
0
LINE
8
layer0
10
570.858798800485
20
-245.621778264911
30
0
11
536.217782649107
21
-235.621778264911
31
0
0
LINE
8
layer0
10
536.217782649107
20
-235.621778264911
30
0
11
556.217782649107
21
-218.301270189222
31
0
0
ENDBLK
0
BLOCK
8
layer0
2
PF_OBJECT12
70
0
10
0
20
0
30
0
0
LINE
8
layer0
10
432.858798800485
20
-365.133283987163
30
0
11
398.217782649107
21
-355.133283987163
31
0
0
LINE
8
layer0
10
398.217782649107
20
-355.133283987163
30
0
11
398.217782649107
21
-225.229473419497
31
0
0
LINE
8
layer0
10
398.217782649107
20
-225.229473419497
30
0
11
432.858798800485
21
-235.229473419497
31
0
0
LINE
8
layer0
10
432.858798800485
20
-235.229473419497
30
0
11
432.858798800485
21
-365.133283987163
31
0
0
LINE
8
layer0
10
378.217782649107
20
-372.453792062852
30
0
11
412.858798800485
21
-382.453792062852
31
0
0
LINE
8
layer0
10
412.858798800485
20
-382.453792062852
30
0
11
412.858798800485
21
-252.549981495186
31
0
0
LINE
8
layer0
10
412.858798800485
20
-252.549981495186
30
0
11
378.217782649107
21
-242.549981495186
31
0
0
LINE
8
layer0
10
378.217782649107
20
-242.549981495186
30
0
11
378.217782649107
21
-372.453792062852
31
0
0
LINE
8
layer0
10
398.217782649107
20
-355.133283987163
30
0
11
378.217782649107
21
-372.453792062852
31
0
0
LINE
8
layer0
10
378.217782649107
20
-372.453792062852
30
0
11
378.217782649107
21
-242.549981495186
31
0
0
LINE
8
layer0
10
378.217782649107
20
-242.549981495186
30
0
11
398.217782649107
21
-225.229473419497
31
0
0
LINE
8
layer0
10
398.217782649107
20
-225.229473419497
30
0
11
398.217782649107
21
-355.133283987163
31
0
0
LINE
8
layer0
10
412.858798800485
20
-382.453792062852
30
0
11
432.858798800485
21
-365.133283987163
31
0
0
LINE
8
layer0
10
432.858798800485
20
-365.133283987163
30
0
11
432.858798800485
21
-235.229473419497
31
0
0
LINE
8
layer0
10
432.858798800485
20
-235.229473419497
30
0
11
412.858798800485
21
-252.549981495186
31
0
0
LINE
8
layer0
10
412.858798800485
20
-252.549981495186
30
0
11
412.858798800485
21
-382.453792062852
31
0
0
LINE
8
layer0
10
432.858798800485
20
-235.229473419497
30
0
11
398.217782649107
21
-225.229473419497
31
0
0
LINE
8
layer0
10
398.217782649107
20
-225.229473419497
30
0
11
378.217782649107
21
-242.549981495186
31
0
0
LINE
8
layer0
10
378.217782649107
20
-242.549981495186
30
0
11
412.858798800485
21
-252.549981495186
31
0
0
LINE
8
layer0
10
412.858798800485
20
-252.549981495186
30
0
11
432.858798800485
21
-235.229473419497
31
0
0
LINE
8
layer0
10
398.217782649107
20
-355.133283987163
30
0
11
432.858798800485
21
-365.133283987163
31
0
0
LINE
8
layer0
10
432.858798800485
20
-365.133283987163
30
0
11
412.858798800485
21
-382.453792062852
31
0
0
LINE
8
layer0
10
412.858798800485
20
-382.453792062852
30
0
11
378.217782649107
21
-372.453792062852
31
0
0
LINE
8
layer0
10
378.217782649107
20
-372.453792062852
30
0
11
398.217782649107
21
-355.133283987163
31
0
0
ENDBLK
0
BLOCK
8
layer0
2
PF_OBJECT13
70
0
10
0
20
0
30
0
0
LINE
8
layer0
10
989.230484541327
20
-343.301270189222
30
0
11
954.589468389949
21
-333.301270189222
31
0
0
LINE
8
layer0
10
954.589468389949
20
-333.301270189222
30
0
11
954.589468389949
21
-203.397459621556
31
0
0
LINE
8
layer0
10
954.589468389949
20
-203.397459621556
30
0
11
989.230484541327
21
-213.397459621556
31
0
0
LINE
8
layer0
10
989.230484541327
20
-213.397459621556
30
0
11
989.230484541327
21
-343.301270189222
31
0
0
LINE
8
layer0
10
934.589468389949
20
-350.621778264911
30
0
11
969.230484541327
21
-360.621778264911
31
0
0
LINE
8
layer0
10
969.230484541327
20
-360.621778264911
30
0
11
969.230484541327
21
-230.717967697245
31
0
0
LINE
8
layer0
10
969.230484541327
20
-230.717967697245
30
0
11
934.589468389949
21
-220.717967697245
31
0
0
LINE
8
layer0
10
934.589468389949
20
-220.717967697245
30
0
11
934.589468389949
21
-350.621778264911
31
0
0
LINE
8
layer0
10
954.589468389949
20
-333.301270189222
30
0
11
934.589468389949
21
-350.621778264911
31
0
0
LINE
8
layer0
10
934.589468389949
20
-350.621778264911
30
0
11
934.589468389949
21
-220.717967697245
31
0
0
LINE
8
layer0
10
934.589468389949
20
-220.717967697245
30
0
11
954.589468389949
21
-203.397459621556
31
0
0
LINE
8
layer0
10
954.589468389949
20
-203.397459621556
30
0
11
954.589468389949
21
-333.301270189222
31
0
0
LINE
8
layer0
10
969.230484541327
20
-360.621778264911
30
0
11
989.230484541327
21
-343.301270189222
31
0
0
LINE
8
layer0
10
989.230484541327
20
-343.301270189222
30
0
11
989.230484541327
21
-213.397459621556
31
0
0
LINE
8
layer0
10
989.230484541327
20
-213.397459621556
30
0
11
969.230484541327
21
-230.717967697245
31
0
0
LINE
8
layer0
10
969.230484541327
20
-230.717967697245
30
0
11
969.230484541327
21
-360.621778264911
31
0
0
LINE
8
layer0
10
989.230484541327
20
-213.397459621556
30
0
11
954.589468389949
21
-203.397459621556
31
0
0
LINE
8
layer0
10
954.589468389949
20
-203.397459621556
30
0
11
934.589468389949
21
-220.717967697245
31
0
0
LINE
8
layer0
10
934.589468389949
20
-220.717967697245
30
0
11
969.230484541327
21
-230.717967697245
31
0
0
LINE
8
layer0
10
969.230484541327
20
-230.717967697245
30
0
11
989.230484541327
21
-213.397459621556
31
0
0
LINE
8
layer0
10
954.589468389949
20
-333.301270189222
30
0
11
989.230484541327
21
-343.301270189222
31
0
0
LINE
8
layer0
10
989.230484541327
20
-343.301270189222
30
0
11
969.230484541327
21
-360.621778264911
31
0
0
LINE
8
layer0
10
969.230484541327
20
-360.621778264911
30
0
11
934.589468389949
21
-350.621778264911
31
0
0
LINE
8
layer0
10
934.589468389949
20
-350.621778264911
30
0
11
954.589468389949
21
-333.301270189222
31
0
0
ENDBLK
0
BLOCK
8
layer0
2
PF_OBJECT14
70
0
10
0
20
0
30
0
0
LINE
8
layer0
10
831.230484541327
20
-480.133283987163
30
0
11
796.589468389949
21
-470.133283987163
31
0
0
LINE
8
layer0
10
796.589468389949
20
-470.133283987163
30
0
11
796.589468389949
21
-340.229473419497
31
0
0
LINE
8
layer0
10
796.589468389949
20
-340.229473419497
30
0
11
831.230484541327
21
-350.229473419497
31
0
0
LINE
8
layer0
10
831.230484541327
20
-350.229473419497
30
0
11
831.230484541327
21
-480.133283987163
31
0
0
LINE
8
layer0
10
776.589468389949
20
-487.453792062852
30
0
11
811.230484541327
21
-497.453792062852
31
0
0
LINE
8
layer0
10
811.230484541327
20
-497.453792062852
30
0
11
811.230484541327
21
-367.549981495186
31
0
0
LINE
8
layer0
10
811.230484541327
20
-367.549981495186
30
0
11
776.589468389949
21
-357.549981495186
31
0
0
LINE
8
layer0
10
776.589468389949
20
-357.549981495186
30
0
11
776.589468389949
21
-487.453792062852
31
0
0
LINE
8
layer0
10
796.589468389949
20
-470.133283987163
30
0
11
776.589468389949
21
-487.453792062852
31
0
0
LINE
8
layer0
10
776.589468389949
20
-487.453792062852
30
0
11
776.589468389949
21
-357.549981495186
31
0
0
LINE
8
layer0
10
776.589468389949
20
-357.549981495186
30
0
11
796.589468389949
21
-340.229473419497
31
0
0
LINE
8
layer0
10
796.589468389949
20
-340.229473419497
30
0
11
796.589468389949
21
-470.133283987163
31
0
0
LINE
8
layer0
10
811.230484541327
20
-497.453792062852
30
0
11
831.230484541327
21
-480.133283987163
31
0
0
LINE
8
layer0
10
831.230484541327
20
-480.133283987163
30
0
11
831.230484541327
21
-350.229473419497
31
0
0
LINE
8
layer0
10
831.230484541327
20
-350.229473419497
30
0
11
811.230484541327
21
-367.549981495186
31
0
0
LINE
8
layer0
10
811.230484541327
20
-367.549981495186
30
0
11
811.230484541327
21
-497.453792062852
31
0
0
LINE
8
layer0
10
831.230484541327
20
-350.229473419497
30
0
11
796.589468389949
21
-340.229473419497
31
0
0
LINE
8
layer0
10
796.589468389949
20
-340.229473419497
30
0
11
776.589468389949
21
-357.549981495186
31
0
0
LINE
8
layer0
10
776.589468389949
20
-357.549981495186
30
0
11
811.230484541327
21
-367.549981495186
31
0
0
LINE
8
layer0
10
811.230484541327
20
-367.549981495186
30
0
11
831.230484541327
21
-350.229473419497
31
0
0
LINE
8
layer0
10
796.589468389949
20
-470.133283987163
30
0
11
831.230484541327
21
-480.133283987163
31
0
0
LINE
8
layer0
10
831.230484541327
20
-480.133283987163
30
0
11
811.230484541327
21
-497.453792062852
31
0
0
LINE
8
layer0
10
811.230484541327
20
-497.453792062852
30
0
11
776.589468389949
21
-487.453792062852
31
0
0
LINE
8
layer0
10
776.589468389949
20
-487.453792062852
30
0
11
796.589468389949
21
-470.133283987163
31
0
0
ENDBLK
0
BLOCK
8
layer0
70
0
10
0
20
0
30
0
2
PF_SKETCH15
0
LINE
8
layer0
10
515.749845793219
20
424.520886198552
30
0
11
468.583179126552
21
383.673354653386
31
0
0
ENDBLK
0
BLOCK
8
layer0
70
0
10
0
20
0
30
0
2
PF_SKETCH16
0
LINE
8
layer0
10
1035.36508806388
20
274.520886198552
30
0
11
988.198421397215
21
233.673354653386
31
0
0
ENDBLK
0
BLOCK
8
layer0
70
0
10
0
20
0
30
0
2
PF_SKETCH17
0
LINE
8
layer0
10
421.416512459885
20
342.82582310822
30
0
11
374.249845793219
21
301.978291563054
31
0
0
ENDBLK
0
BLOCK
8
layer0
70
0
10
0
20
0
30
0
2
PF_SKETCH18
0
LINE
8
layer0
10
941.031754730548
20
192.82582310822
30
0
11
893.865088063882
21
151.978291563054
31
0
0
ENDBLK
0
BLOCK
8
layer0
70
0
10
0
20
0
30
0
2
PF_SKETCH19
0
LINE
8
layer0
10
327.083179126552
20
261.130760017888
30
0
11
279.916512459885
21
220.283228472722
31
0
0
ENDBLK
0
BLOCK
8
layer0
70
0
10
0
20
0
30
0
2
PF_SKETCH20
0
LINE
8
layer0
10
846.698421397215
20
111.130760017888
30
0
11
799.531754730549
21
70.2832284727219
31
0
0
ENDBLK
0
BLOCK
8
layer0
2
PF_OBJECT21
70
0
10
0
20
0
30
0
0
LINE
8
layer0
10
2080.90583281132
20
-501.978875334514
30
0
11
1069.3881611911
21
-209.978875334514
31
0
0
LINE
8
layer0
10
1069.3881611911
20
-209.978875334514
30
0
11
1069.3881611911
21
-196.122468873963
31
0
0
LINE
8
layer0
10
1069.3881611911
20
-196.122468873963
30
0
11
2080.90583281132
21
-488.122468873963
31
0
0
LINE
8
layer0
10
2080.90583281132
20
-488.122468873963
30
0
11
2080.90583281132
21
-501.978875334514
31
0
0
LINE
8
layer0
10
813.888161191099
20
-431.248366001438
30
0
11
1825.40583281132
21
-723.248366001438
31
0
0
LINE
8
layer0
10
1825.40583281132
20
-723.248366001438
30
0
11
1825.40583281132
21
-709.391959540887
31
0
0
LINE
8
layer0
10
1825.40583281132
20
-709.391959540887
30
0
11
813.888161191099
21
-417.391959540887
31
0
0
LINE
8
layer0
10
813.888161191099
20
-417.391959540887
30
0
11
813.888161191099
21
-431.248366001438
31
0
0
LINE
8
layer0
10
1069.3881611911
20
-209.978875334514
30
0
11
813.888161191099
21
-431.248366001438
31
0
0
LINE
8
layer0
10
813.888161191099
20
-431.248366001438
30
0
11
813.888161191099
21
-417.391959540887
31
0
0
LINE
8
layer0
10
813.888161191099
20
-417.391959540887
30
0
11
1069.3881611911
21
-196.122468873963
31
0
0
LINE
8
layer0
10
1069.3881611911
20
-196.122468873963
30
0
11
1069.3881611911
21
-209.978875334514
31
0
0
LINE
8
layer0
10
1825.40583281132
20
-723.248366001438
30
0
11
2080.90583281132
21
-501.978875334514
31
0
0
LINE
8
layer0
10
2080.90583281132
20
-501.978875334514
30
0
11
2080.90583281132
21
-488.122468873963
31
0
0
LINE
8
layer0
10
2080.90583281132
20
-488.122468873963
30
0
11
1825.40583281132
21
-709.391959540887
31
0
0
LINE
8
layer0
10
1825.40583281132
20
-709.391959540887
30
0
11
1825.40583281132
21
-723.248366001438
31
0
0
LINE
8
layer0
10
2080.90583281132
20
-488.122468873963
30
0
11
1069.3881611911
21
-196.122468873963
31
0
0
LINE
8
layer0
10
1069.3881611911
20
-196.122468873963
30
0
11
813.888161191099
21
-417.391959540887
31
0
0
LINE
8
layer0
10
813.888161191099
20
-417.391959540887
30
0
11
1825.40583281132
21
-709.391959540887
31
0
0
LINE
8
layer0
10
1825.40583281132
20
-709.391959540887
30
0
11
2080.90583281132
21
-488.122468873963
31
0
0
LINE
8
layer0
10
1069.3881611911
20
-209.978875334514
30
0
11
2080.90583281132
21
-501.978875334514
31
0
0
LINE
8
layer0
10
2080.90583281132
20
-501.978875334514
30
0
11
1825.40583281132
21
-723.248366001438
31
0
0
LINE
8
layer0
10
1825.40583281132
20
-723.248366001438
30
0
11
813.888161191099
21
-431.248366001438
31
0
0
LINE
8
layer0
10
813.888161191099
20
-431.248366001438
30
0
11
1069.3881611911
21
-209.978875334514
31
0
0
ENDBLK
0
BLOCK
8
layer0
2
PF_OBJECT22
70
0
10
0
20
0
30
0
0
LINE
8
layer0
10
2082.90583281132
20
-500.246824526945
30
0
11
1071.3881611911
21
-208.246824526945
31
0
0
LINE
8
layer0
10
1071.3881611911
20
-208.246824526945
30
0
11
1071.3881611911
21
289.717782649107
31
0
0
LINE
8
layer0
10
1071.3881611911
20
289.717782649107
30
0
11
2082.90583281132
21
-2.28221735089278
31
0
0
LINE
8
layer0
10
2082.90583281132
20
-2.28221735089278
30
0
11
2082.90583281132
21
-500.246824526945
31
0
0
LINE
8
layer0
10
1069.3881611911
20
-209.978875334514
30
0
11
2080.90583281132
21
-501.978875334514
31
0
0
LINE
8
layer0
10
2080.90583281132
20
-501.978875334514
30
0
11
2080.90583281132
21
-4.01426815846168
31
0
0
LINE
8
layer0
10
2080.90583281132
20
-4.01426815846168
30
0
11
1069.3881611911
21
287.985731841538
31
0
0
LINE
8
layer0
10
1069.3881611911
20
287.985731841538
30
0
11
1069.3881611911
21
-209.978875334514
31
0
0
LINE
8
layer0
10
1071.3881611911
20
-208.246824526945
30
0
11
1069.3881611911
21
-209.978875334514
31
0
0
LINE
8
layer0
10
1069.3881611911
20
-209.978875334514
30
0
11
1069.3881611911
21
287.985731841538
31
0
0
LINE
8
layer0
10
1069.3881611911
20
287.985731841538
30
0
11
1071.3881611911
21
289.717782649107
31
0
0
LINE
8
layer0
10
1071.3881611911
20
289.717782649107
30
0
11
1071.3881611911
21
-208.246824526945
31
0
0
LINE
8
layer0
10
2080.90583281132
20
-501.978875334514
30
0
11
2082.90583281132
21
-500.246824526945
31
0
0
LINE
8
layer0
10
2082.90583281132
20
-500.246824526945
30
0
11
2082.90583281132
21
-2.28221735089278
31
0
0
LINE
8
layer0
10
2082.90583281132
20
-2.28221735089278
30
0
11
2080.90583281132
21
-4.01426815846168
31
0
0
LINE
8
layer0
10
2080.90583281132
20
-4.01426815846168
30
0
11
2080.90583281132
21
-501.978875334514
31
0
0
LINE
8
layer0
10
2082.90583281132
20
-2.28221735089278
30
0
11
1071.3881611911
21
289.717782649107
31
0
0
LINE
8
layer0
10
1071.3881611911
20
289.717782649107
30
0
11
1069.3881611911
21
287.985731841538
31
0
0
LINE
8
layer0
10
1069.3881611911
20
287.985731841538
30
0
11
2080.90583281132
21
-4.01426815846168
31
0
0
LINE
8
layer0
10
2080.90583281132
20
-4.01426815846168
30
0
11
2082.90583281132
21
-2.28221735089278
31
0
0
LINE
8
layer0
10
1071.3881611911
20
-208.246824526945
30
0
11
2082.90583281132
21
-500.246824526945
31
0
0
LINE
8
layer0
10
2082.90583281132
20
-500.246824526945
30
0
11
2080.90583281132
21
-501.978875334514
31
0
0
LINE
8
layer0
10
2080.90583281132
20
-501.978875334514
30
0
11
1069.3881611911
21
-209.978875334514
31
0
0
LINE
8
layer0
10
1069.3881611911
20
-209.978875334514
30
0
11
1071.3881611911
21
-208.246824526945
31
0
0
ENDBLK
0
BLOCK
8
layer0
2
PF_OBJECT23
70
0
10
0
20
0
30
0
0
LINE
8
layer0
10
2055.90583281132
20
-25.6649032530726
30
0
11
1044.3881611911
21
266.335096746927
31
0
0
LINE
8
layer0
10
1044.3881611911
20
266.335096746927
30
0
11
1044.3881611911
21
252.478690286376
31
0
0
LINE
8
layer0
10
1044.3881611911
20
252.478690286376
30
0
11
2055.90583281132
21
-39.5213097136237
31
0
0
LINE
8
layer0
10
2055.90583281132
20
-39.5213097136237
30
0
11
2055.90583281132
21
-25.6649032530726
31
0
0
LINE
8
layer0
10
1069.3881611911
20
287.985731841538
30
0
11
2080.90583281132
21
-4.01426815846168
31
0
0
LINE
8
layer0
10
2080.90583281132
20
-4.01426815846168
30
0
11
2080.90583281132
21
-17.8706746190127
31
0
0
LINE
8
layer0
10
2080.90583281132
20
-17.8706746190127
30
0
11
1069.3881611911
21
274.129325380987
31
0
0
LINE
8
layer0
10
1069.3881611911
20
274.129325380987
30
0
11
1069.3881611911
21
287.985731841538
31
0
0
LINE
8
layer0
10
1044.3881611911
20
266.335096746927
30
0
11
1069.3881611911
21
287.985731841538
31
0
0
LINE
8
layer0
10
1069.3881611911
20
287.985731841538
30
0
11
1069.3881611911
21
274.129325380987
31
0
0
LINE
8
layer0
10
1069.3881611911
20
274.129325380987
30
0
11
1044.3881611911
21
252.478690286376
31
0
0
LINE
8
layer0
10
1044.3881611911
20
252.478690286376
30
0
11
1044.3881611911
21
266.335096746927
31
0
0
LINE
8
layer0
10
2080.90583281132
20
-4.01426815846168
30
0
11
2055.90583281132
21
-25.6649032530726
31
0
0
LINE
8
layer0
10
2055.90583281132
20
-25.6649032530726
30
0
11
2055.90583281132
21
-39.5213097136237
31
0
0
LINE
8
layer0
10
2055.90583281132
20
-39.5213097136237
30
0
11
2080.90583281132
21
-17.8706746190127
31
0
0
LINE
8
layer0
10
2080.90583281132
20
-17.8706746190127
30
0
11
2080.90583281132
21
-4.01426815846168
31
0
0
LINE
8
layer0
10
2055.90583281132
20
-39.5213097136237
30
0
11
1044.3881611911
21
252.478690286376
31
0
0
LINE
8
layer0
10
1044.3881611911
20
252.478690286376
30
0
11
1069.3881611911
21
274.129325380987
31
0
0
LINE
8
layer0
10
1069.3881611911
20
274.129325380987
30
0
11
2080.90583281132
21
-17.8706746190127
31
0
0
LINE
8
layer0
10
2080.90583281132
20
-17.8706746190127
30
0
11
2055.90583281132
21
-39.5213097136237
31
0
0
LINE
8
layer0
10
1044.3881611911
20
266.335096746927
30
0
11
2055.90583281132
21
-25.6649032530726
31
0
0
LINE
8
layer0
10
2055.90583281132
20
-25.6649032530726
30
0
11
2080.90583281132
21
-4.01426815846168
31
0
0
LINE
8
layer0
10
2080.90583281132
20
-4.01426815846168
30
0
11
1069.3881611911
21
287.985731841538
31
0
0
LINE
8
layer0
10
1069.3881611911
20
287.985731841538
30
0
11
1044.3881611911
21
266.335096746927
31
0
0
ENDBLK
0
BLOCK
8
layer0
2
PF_OBJECT24
70
0
10
0
20
0
30
0
0
LINE
8
layer0
10
1313.29059054066
20
-552.896769012504
30
0
11
1341.00340346176
21
-560.896769012504
31
0
0
LINE
8
layer0
10
1341.00340346176
20
-560.896769012504
30
0
11
1333.00340346176
21
-567.824972242779
31
0
0
LINE
8
layer0
10
1333.00340346176
20
-567.824972242779
30
0
11
1305.29059054066
21
-559.824972242779
31
0
0
LINE
8
layer0
10
1305.29059054066
20
-559.824972242779
30
0
11
1313.29059054066
21
-552.896769012504
31
0
0
LINE
8
layer0
10
1341.00340346176
20
-90.6449747575536
30
0
11
1313.29059054066
21
-82.6449747575536
31
0
0
LINE
8
layer0
10
1313.29059054066
20
-82.6449747575536
30
0
11
1305.29059054066
21
-89.5731779878291
31
0
0
LINE
8
layer0
10
1305.29059054066
20
-89.5731779878291
30
0
11
1333.00340346176
21
-97.5731779878291
31
0
0
LINE
8
layer0
10
1333.00340346176
20
-97.5731779878291
30
0
11
1341.00340346176
21
-90.6449747575536
31
0
0
LINE
8
layer0
10
1333.00340346176
20
-567.824972242779
30
0
11
1341.00340346176
21
-560.896769012504
31
0
0
LINE
8
layer0
10
1341.00340346176
20
-560.896769012504
30
0
11
1341.00340346176
21
-90.6449747575536
31
0
0
LINE
8
layer0
10
1341.00340346176
20
-90.6449747575536
30
0
11
1333.00340346176
21
-97.5731779878291
31
0
0
LINE
8
layer0
10
1333.00340346176
20
-97.5731779878291
30
0
11
1333.00340346176
21
-567.824972242779
31
0
0
LINE
8
layer0
10
1313.29059054066
20
-552.896769012504
30
0
11
1305.29059054066
21
-559.824972242779
31
0
0
LINE
8
layer0
10
1305.29059054066
20
-559.824972242779
30
0
11
1305.29059054066
21
-89.5731779878291
31
0
0
LINE
8
layer0
10
1305.29059054066
20
-89.5731779878291
30
0
11
1313.29059054066
21
-82.6449747575536
31
0
0
LINE
8
layer0
10
1313.29059054066
20
-82.6449747575536
30
0
11
1313.29059054066
21
-552.896769012504
31
0
0
LINE
8
layer0
10
1305.29059054066
20
-559.824972242779
30
0
11
1333.00340346176
21
-567.824972242779
31
0
0
LINE
8
layer0
10
1333.00340346176
20
-567.824972242779
30
0
11
1333.00340346176
21
-97.5731779878291
31
0
0
LINE
8
layer0
10
1333.00340346176
20
-97.5731779878291
30
0
11
1305.29059054066
21
-89.5731779878291
31
0
0
LINE
8
layer0
10
1305.29059054066
20
-89.5731779878291
30
0
11
1305.29059054066
21
-559.824972242779
31
0
0
LINE
8
layer0
10
1341.00340346176
20
-560.896769012504
30
0
11
1313.29059054066
21
-552.896769012504
31
0
0
LINE
8
layer0
10
1313.29059054066
20
-552.896769012504
30
0
11
1313.29059054066
21
-82.6449747575536
31
0
0
LINE
8
layer0
10
1313.29059054066
20
-82.6449747575536
30
0
11
1341.00340346176
21
-90.6449747575536
31
0
0
LINE
8
layer0
10
1341.00340346176
20
-90.6449747575536
30
0
11
1341.00340346176
21
-560.896769012504
31
0
0
LINE
8
layer0
10
838.888161191099
20
74.5104698086741
30
0
11
1850.40583281132
21
-217.489530191326
31
0
0
LINE
8
layer0
10
1850.40583281132
20
-217.489530191326
30
0
11
1825.40583281132
21
-239.140165285937
31
0
0
LINE
8
layer0
10
1825.40583281132
20
-239.140165285937
30
0
11
813.888161191099
21
52.8598347140631
31
0
0
LINE
8
layer0
10
813.888161191099
20
52.8598347140631
30
0
11
838.888161191099
21
74.5104698086741
31
0
0
LINE
8
layer0
10
1850.40583281132
20
-203.633123730775
30
0
11
838.888161191099
21
88.3668762692251
31
0
0
LINE
8
layer0
10
838.888161191099
20
88.3668762692251
30
0
11
813.888161191099
21
66.7162411746141
31
0
0
LINE
8
layer0
10
813.888161191099
20
66.7162411746141
30
0
11
1825.40583281132
21
-225.283758825386
31
0
0
LINE
8
layer0
10
1825.40583281132
20
-225.283758825386
30
0
11
1850.40583281132
21
-203.633123730775
31
0
0
LINE
8
layer0
10
1825.40583281132
20
-239.140165285937
30
0
11
1850.40583281132
21
-217.489530191326
31
0
0
LINE
8
layer0
10
1850.40583281132
20
-217.489530191326
30
0
11
1850.40583281132
21
-203.633123730775
31
0
0
LINE
8
layer0
10
1850.40583281132
20
-203.633123730775
30
0
11
1825.40583281132
21
-225.283758825386
31
0
0
LINE
8
layer0
10
1825.40583281132
20
-225.283758825386
30
0
11
1825.40583281132
21
-239.140165285937
31
0
0
LINE
8
layer0
10
838.888161191099
20
74.5104698086741
30
0
11
813.888161191099
21
52.8598347140631
31
0
0
LINE
8
layer0
10
813.888161191099
20
52.8598347140631
30
0
11
813.888161191099
21
66.7162411746141
31
0
0
LINE
8
layer0
10
813.888161191099
20
66.7162411746141
30
0
11
838.888161191099
21
88.3668762692251
31
0
0
LINE
8
layer0
10
838.888161191099
20
88.3668762692251
30
0
11
838.888161191099
21
74.5104698086741
31
0
0
LINE
8
layer0
10
813.888161191099
20
52.8598347140631
30
0
11
1825.40583281132
21
-239.140165285937
31
0
0
LINE
8
layer0
10
1825.40583281132
20
-239.140165285937
30
0
11
1825.40583281132
21
-225.283758825386
31
0
0
LINE
8
layer0
10
1825.40583281132
20
-225.283758825386
30
0
11
813.888161191099
21
66.7162411746141
31
0
0
LINE
8
layer0
10
813.888161191099
20
66.7162411746141
30
0
11
813.888161191099
21
52.8598347140631
31
0
0
LINE
8
layer0
10
1850.40583281132
20
-217.489530191326
30
0
11
838.888161191099
21
74.5104698086741
31
0
0
LINE
8
layer0
10
838.888161191099
20
74.5104698086741
30
0
11
838.888161191099
21
88.3668762692251
31
0
0
LINE
8
layer0
10
838.888161191099
20
88.3668762692251
30
0
11
1850.40583281132
21
-203.633123730775
31
0
0
LINE
8
layer0
10
1850.40583281132
20
-203.633123730775
30
0
11
1850.40583281132
21
-217.489530191326
31
0
0
LINE
8
layer0
10
2107.90583281132
20
-478.596189432334
30
0
11
2121.76223927187
21
-482.596189432334
31
0
0
LINE
8
layer0
10
2121.76223927187
20
-482.596189432334
30
0
11
1838.76223927187
21
-727.68137870333
31
0
0
LINE
8
layer0
10
1838.76223927187
20
-727.68137870333
30
0
11
1824.90583281132
21
-723.68137870333
31
0
0
LINE
8
layer0
10
1824.90583281132
20
-723.68137870333
30
0
11
2107.90583281132
21
-478.596189432334
31
0
0
LINE
8
layer0
10
2121.76223927187
20
15.3684177437182
30
0
11
2107.90583281132
21
19.3684177437182
31
0
0
LINE
8
layer0
10
2107.90583281132
20
19.3684177437182
30
0
11
1824.90583281132
21
-225.716771527278
31
0
0
LINE
8
layer0
10
1824.90583281132
20
-225.716771527278
30
0
11
1838.76223927187
21
-229.716771527278
31
0
0
LINE
8
layer0
10
1838.76223927187
20
-229.716771527278
30
0
11
2121.76223927187
21
15.3684177437182
31
0
0
LINE
8
layer0
10
1838.76223927187
20
-727.68137870333
30
0
11
2121.76223927187
21
-482.596189432334
31
0
0
LINE
8
layer0
10
2121.76223927187
20
-482.596189432334
30
0
11
2121.76223927187
21
15.3684177437182
31
0
0
LINE
8
layer0
10
2121.76223927187
20
15.3684177437182
30
0
11
1838.76223927187
21
-229.716771527278
31
0
0
LINE
8
layer0
10
1838.76223927187
20
-229.716771527278
30
0
11
1838.76223927187
21
-727.68137870333
31
0
0
LINE
8
layer0
10
2107.90583281132
20
-478.596189432334
30
0
11
1824.90583281132
21
-723.68137870333
31
0
0
LINE
8
layer0
10
1824.90583281132
20
-723.68137870333
30
0
11
1824.90583281132
21
-225.716771527278
31
0
0
LINE
8
layer0
10
1824.90583281132
20
-225.716771527278
30
0
11
2107.90583281132
21
19.3684177437182
31
0
0
LINE
8
layer0
10
2107.90583281132
20
19.3684177437182
30
0
11
2107.90583281132
21
-478.596189432334
31
0
0
LINE
8
layer0
10
1824.90583281132
20
-723.68137870333
30
0
11
1838.76223927187
21
-727.68137870333
31
0
0
LINE
8
layer0
10
1838.76223927187
20
-727.68137870333
30
0
11
1838.76223927187
21
-229.716771527278
31
0
0
LINE
8
layer0
10
1838.76223927187
20
-229.716771527278
30
0
11
1824.90583281132
21
-225.716771527278
31
0
0
LINE
8
layer0
10
1824.90583281132
20
-225.716771527278
30
0
11
1824.90583281132
21
-723.68137870333
31
0
0
LINE
8
layer0
10
2121.76223927187
20
-482.596189432334
30
0
11
2107.90583281132
21
-478.596189432334
31
0
0
LINE
8
layer0
10
2107.90583281132
20
-478.596189432334
30
0
11
2107.90583281132
21
19.3684177437182
31
0
0
LINE
8
layer0
10
2107.90583281132
20
19.3684177437182
30
0
11
2121.76223927187
21
15.3684177437182
31
0
0
LINE
8
layer0
10
2121.76223927187
20
15.3684177437182
30
0
11
2121.76223927187
21
-482.596189432334
31
0
0
LINE
8
layer0
10
1082.53175473055
20
-182.596189432334
30
0
11
1096.3881611911
21
-186.596189432334
31
0
0
LINE
8
layer0
10
1096.3881611911
20
-186.596189432334
30
0
11
813.388161191099
21
-431.68137870333
31
0
0
LINE
8
layer0
10
813.388161191099
20
-431.68137870333
30
0
11
799.531754730548
21
-427.68137870333
31
0
0
LINE
8
layer0
10
799.531754730548
20
-427.68137870333
30
0
11
1082.53175473055
21
-182.596189432334
31
0
0
LINE
8
layer0
10
1096.3881611911
20
311.368417743718
30
0
11
1082.53175473055
21
315.368417743718
31
0
0
LINE
8
layer0
10
1082.53175473055
20
315.368417743718
30
0
11
799.531754730548
21
70.283228472722
31
0
0
LINE
8
layer0
10
799.531754730548
20
70.283228472722
30
0
11
813.388161191099
21
66.283228472722
31
0
0
LINE
8
layer0
10
813.388161191099
20
66.283228472722
30
0
11
1096.3881611911
21
311.368417743718
31
0
0
LINE
8
layer0
10
813.388161191099
20
-431.68137870333
30
0
11
1096.3881611911
21
-186.596189432334
31
0
0
LINE
8
layer0
10
1096.3881611911
20
-186.596189432334
30
0
11
1096.3881611911
21
311.368417743718
31
0
0
LINE
8
layer0
10
1096.3881611911
20
311.368417743718
30
0
11
813.388161191099
21
66.283228472722
31
0
0
LINE
8
layer0
10
813.388161191099
20
66.283228472722
30
0
11
813.388161191099
21
-431.68137870333
31
0
0
LINE
8
layer0
10
1082.53175473055
20
-182.596189432334
30
0
11
799.531754730548
21
-427.68137870333
31
0
0
LINE
8
layer0
10
799.531754730548
20
-427.68137870333
30
0
11
799.531754730548
21
70.283228472722
31
0
0
LINE
8
layer0
10
799.531754730548
20
70.283228472722
30
0
11
1082.53175473055
21
315.368417743718
31
0
0
LINE
8
layer0
10
1082.53175473055
20
315.368417743718
30
0
11
1082.53175473055
21
-182.596189432334
31
0
0
LINE
8
layer0
10
799.531754730548
20
-427.68137870333
30
0
11
813.388161191099
21
-431.68137870333
31
0
0
LINE
8
layer0
10
813.388161191099
20
-431.68137870333
30
0
11
813.388161191099
21
66.283228472722
31
0
0
LINE
8
layer0
10
813.388161191099
20
66.283228472722
30
0
11
799.531754730548
21
70.283228472722
31
0
0
LINE
8
layer0
10
799.531754730548
20
70.283228472722
30
0
11
799.531754730548
21
-427.68137870333
31
0
0
LINE
8
layer0
10
1096.3881611911
20
-186.596189432334
30
0
11
1082.53175473055
21
-182.596189432334
31
0
0
LINE
8
layer0
10
1082.53175473055
20
-182.596189432334
30
0
11
1082.53175473055
21
315.368417743718
31
0
0
LINE
8
layer0
10
1082.53175473055
20
315.368417743718
30
0
11
1096.3881611911
21
311.368417743718
31
0
0
LINE
8
layer0
10
1096.3881611911
20
311.368417743718
30
0
11
1096.3881611911
21
-186.596189432334
31
0
0
ENDBLK
0
BLOCK
8
layer0
2
PF_OBJECT25
70
0
10
0
20
0
30
0
0
LINE
8
layer0
10
1145.26224208055
20
-92.544794630147
30
0
11
1143.49447512758
21
-92.8074608789432
31
0
0
LINE
8
layer0
10
1143.49447512758
20
-92.8074608789432
30
0
11
1271.66623488768
21
-129.807460878943
31
0
0
LINE
8
layer0
10
1271.66623488768
20
-129.807460878943
30
0
11
1273.43400184064
21
-129.544794630147
31
0
0
LINE
8
layer0
10
1273.43400184064
20
-129.544794630147
30
0
11
1145.26224208055
21
-92.544794630147
31
0
0
LINE
8
layer0
10
1145.99447512758
20
-94.9725243884043
30
0
11
1145.26224208055
21
-92.544794630147
31
0
0
LINE
8
layer0
10
1145.26224208055
20
-92.544794630147
30
0
11
1273.43400184064
21
-129.544794630147
31
0
0
LINE
8
layer0
10
1273.43400184064
20
-129.544794630147
30
0
11
1274.16623488768
21
-131.972524388404
31
0
0
LINE
8
layer0
10
1274.16623488768
20
-131.972524388404
30
0
11
1145.99447512758
21
-94.9725243884043
31
0
0
LINE
8
layer0
10
1145.26224208055
20
-98.6685189871049
30
0
11
1145.99447512758
21
-94.9725243884043
31
0
0
LINE
8
layer0
10
1145.99447512758
20
-94.9725243884043
30
0
11
1274.16623488768
21
-131.972524388404
31
0
0
LINE
8
layer0
10
1274.16623488768
20
-131.972524388404
30
0
11
1273.43400184064
21
-135.668518987105
31
0
0
LINE
8
layer0
10
1273.43400184064
20
-135.668518987105
30
0
11
1145.26224208055
21
-98.6685189871049
31
0
0
LINE
8
layer0
10
1143.49447512758
20
-101.467714916788
30
0
11
1145.26224208055
21
-98.6685189871049
31
0
0
LINE
8
layer0
10
1145.26224208055
20
-98.6685189871049
30
0
11
1273.43400184064
21
-135.668518987105
31
0
0
LINE
8
layer0
10
1273.43400184064
20
-135.668518987105
30
0
11
1271.66623488768
21
-138.467714916788
31
0
0
LINE
8
layer0
10
1271.66623488768
20
-138.467714916788
30
0
11
1143.49447512758
21
-101.467714916788
31
0
0
LINE
8
layer0
10
1141.72670817462
20
-101.730381165584
30
0
11
1143.49447512758
21
-101.467714916788
31
0
0
LINE
8
layer0
10
1143.49447512758
20
-101.467714916788
30
0
11
1271.66623488768
21
-138.467714916788
31
0
0
LINE
8
layer0
10
1271.66623488768
20
-138.467714916788
30
0
11
1269.89846793471
21
-138.730381165584
31
0
0
LINE
8
layer0
10
1269.89846793471
20
-138.730381165584
30
0
11
1141.72670817462
21
-101.730381165584
31
0
0
LINE
8
layer0
10
1140.99447512758
20
-99.3026514073265
30
0
11
1141.72670817462
21
-101.730381165584
31
0
0
LINE
8
layer0
10
1141.72670817462
20
-101.730381165584
30
0
11
1269.89846793471
21
-138.730381165584
31
0
0
LINE
8
layer0
10
1269.89846793471
20
-138.730381165584
30
0
11
1269.16623488768
21
-136.302651407326
31
0
0
LINE
8
layer0
10
1269.16623488768
20
-136.302651407326
30
0
11
1140.99447512758
21
-99.3026514073265
31
0
0
LINE
8
layer0
10
1141.72670817462
20
-95.6066568086259
30
0
11
1140.99447512758
21
-99.3026514073265
31
0
0
LINE
8
layer0
10
1140.99447512758
20
-99.3026514073265
30
0
11
1269.16623488768
21
-136.302651407326
31
0
0
LINE
8
layer0
10
1269.16623488768
20
-136.302651407326
30
0
11
1269.89846793471
21
-132.606656808626
31
0
0
LINE
8
layer0
10
1269.89846793471
20
-132.606656808626
30
0
11
1141.72670817462
21
-95.6066568086259
31
0
0
LINE
8
layer0
10
1143.49447512758
20
-92.8074608789432
30
0
11
1141.72670817462
21
-95.6066568086259
31
0
0
LINE
8
layer0
10
1141.72670817462
20
-95.6066568086259
30
0
11
1269.89846793471
21
-132.606656808626
31
0
0
LINE
8
layer0
10
1269.89846793471
20
-132.606656808626
30
0
11
1271.66623488768
21
-129.807460878943
31
0
0
LINE
8
layer0
10
1271.66623488768
20
-129.807460878943
30
0
11
1143.49447512758
21
-92.8074608789432
31
0
0
LINE
8
layer0
10
1271.66623488768
20
-129.807460878943
30
0
11
1269.89846793471
21
-132.606656808626
31
0
0
LINE
8
layer0
10
1269.89846793471
20
-132.606656808626
30
0
11
1269.16623488768
21
-136.302651407326
31
0
0
LINE
8
layer0
10
1269.16623488768
20
-136.302651407326
30
0
11
1269.89846793471
21
-138.730381165584
31
0
0
LINE
8
layer0
10
1269.89846793471
20
-138.730381165584
30
0
11
1271.66623488768
21
-138.467714916788
31
0
0
LINE
8
layer0
10
1271.66623488768
20
-138.467714916788
30
0
11
1273.43400184064
21
-135.668518987105
31
0
0
LINE
8
layer0
10
1273.43400184064
20
-135.668518987105
30
0
11
1274.16623488768
21
-131.972524388404
31
0
0
LINE
8
layer0
10
1274.16623488768
20
-131.972524388404
30
0
11
1273.43400184064
21
-129.544794630147
31
0
0
LINE
8
layer0
10
1273.43400184064
20
-129.544794630147
30
0
11
1271.66623488768
21
-129.807460878943
31
0
0
LINE
8
layer0
10
1141.72670817462
20
-95.6066568086259
30
0
11
1143.49447512758
21
-92.8074608789432
31
0
0
LINE
8
layer0
10
1143.49447512758
20
-92.8074608789432
30
0
11
1145.26224208055
21
-92.544794630147
31
0
0
LINE
8
layer0
10
1145.26224208055
20
-92.544794630147
30
0
11
1145.99447512758
21
-94.9725243884043
31
0
0
LINE
8
layer0
10
1145.99447512758
20
-94.9725243884043
30
0
11
1145.26224208055
21
-98.6685189871049
31
0
0
LINE
8
layer0
10
1145.26224208055
20
-98.6685189871049
30
0
11
1143.49447512758
21
-101.467714916788
31
0
0
LINE
8
layer0
10
1143.49447512758
20
-101.467714916788
30
0
11
1141.72670817462
21
-101.730381165584
31
0
0
LINE
8
layer0
10
1141.72670817462
20
-101.730381165584
30
0
11
1140.99447512758
21
-99.3026514073265
31
0
0
LINE
8
layer0
10
1140.99447512758
20
-99.3026514073265
30
0
11
1141.72670817462
21
-95.6066568086259
31
0
0
ENDBLK
0
BLOCK
8
layer0
2
PF_OBJECT26
70
0
10
0
20
0
30
0
0
LINE
8
layer0
10
1170.81498320327
20
-97.8074608789432
30
0
11
1153.49447512758
21
-92.8074608789432
31
0
0
LINE
8
layer0
10
1153.49447512758
20
-92.8074608789432
30
0
11
1153.49447512758
21
-84.1472068410988
31
0
0
LINE
8
layer0
10
1153.49447512758
20
-84.1472068410988
30
0
11
1170.81498320327
21
-89.1472068410988
31
0
0
LINE
8
layer0
10
1170.81498320327
20
-89.1472068410988
30
0
11
1170.81498320327
21
-97.8074608789432
31
0
0
LINE
8
layer0
10
1143.49447512758
20
-101.467714916788
30
0
11
1160.81498320327
21
-106.467714916788
31
0
0
LINE
8
layer0
10
1160.81498320327
20
-106.467714916788
30
0
11
1160.81498320327
21
-97.8074608789432
31
0
0
LINE
8
layer0
10
1160.81498320327
20
-97.8074608789432
30
0
11
1143.49447512758
21
-92.8074608789432
31
0
0
LINE
8
layer0
10
1143.49447512758
20
-92.8074608789432
30
0
11
1143.49447512758
21
-101.467714916788
31
0
0
LINE
8
layer0
10
1153.49447512758
20
-92.8074608789432
30
0
11
1143.49447512758
21
-101.467714916788
31
0
0
LINE
8
layer0
10
1143.49447512758
20
-101.467714916788
30
0
11
1143.49447512758
21
-92.8074608789432
31
0
0
LINE
8
layer0
10
1143.49447512758
20
-92.8074608789432
30
0
11
1153.49447512758
21
-84.1472068410988
31
0
0
LINE
8
layer0
10
1153.49447512758
20
-84.1472068410988
30
0
11
1153.49447512758
21
-92.8074608789432
31
0
0
LINE
8
layer0
10
1160.81498320327
20
-106.467714916788
30
0
11
1170.81498320327
21
-97.8074608789432
31
0
0
LINE
8
layer0
10
1170.81498320327
20
-97.8074608789432
30
0
11
1170.81498320327
21
-89.1472068410988
31
0
0
LINE
8
layer0
10
1170.81498320327
20
-89.1472068410988
30
0
11
1160.81498320327
21
-97.8074608789432
31
0
0
LINE
8
layer0
10
1160.81498320327
20
-97.8074608789432
30
0
11
1160.81498320327
21
-106.467714916788
31
0
0
LINE
8
layer0
10
1170.81498320327
20
-89.1472068410988
30
0
11
1153.49447512758
21
-84.1472068410988
31
0
0
LINE
8
layer0
10
1153.49447512758
20
-84.1472068410988
30
0
11
1143.49447512758
21
-92.8074608789432
31
0
0
LINE
8
layer0
10
1143.49447512758
20
-92.8074608789432
30
0
11
1160.81498320327
21
-97.8074608789432
31
0
0
LINE
8
layer0
10
1160.81498320327
20
-97.8074608789432
30
0
11
1170.81498320327
21
-89.1472068410988
31
0
0
LINE
8
layer0
10
1153.49447512758
20
-92.8074608789432
30
0
11
1170.81498320327
21
-97.8074608789432
31
0
0
LINE
8
layer0
10
1170.81498320327
20
-97.8074608789432
30
0
11
1160.81498320327
21
-106.467714916788
31
0
0
LINE
8
layer0
10
1160.81498320327
20
-106.467714916788
30
0
11
1143.49447512758
21
-101.467714916788
31
0
0
LINE
8
layer0
10
1143.49447512758
20
-101.467714916788
30
0
11
1153.49447512758
21
-92.8074608789432
31
0
0
ENDBLK
0
BLOCK
8
layer0
2
PF_OBJECT27
70
0
10
0
20
0
30
0
0
LINE
8
layer0
10
1281.66623488768
20
-129.807460878943
30
0
11
1264.34572681199
21
-124.807460878943
31
0
0
LINE
8
layer0
10
1264.34572681199
20
-124.807460878943
30
0
11
1264.34572681199
21
-116.147206841099
31
0
0
LINE
8
layer0
10
1264.34572681199
20
-116.147206841099
30
0
11
1281.66623488768
21
-121.147206841099
31
0
0
LINE
8
layer0
10
1281.66623488768
20
-121.147206841099
30
0
11
1281.66623488768
21
-129.807460878943
31
0
0
LINE
8
layer0
10
1254.34572681199
20
-133.467714916788
30
0
11
1271.66623488768
21
-138.467714916788
31
0
0
LINE
8
layer0
10
1271.66623488768
20
-138.467714916788
30
0
11
1271.66623488768
21
-129.807460878943
31
0
0
LINE
8
layer0
10
1271.66623488768
20
-129.807460878943
30
0
11
1254.34572681199
21
-124.807460878943
31
0
0
LINE
8
layer0
10
1254.34572681199
20
-124.807460878943
30
0
11
1254.34572681199
21
-133.467714916788
31
0
0
LINE
8
layer0
10
1264.34572681199
20
-124.807460878943
30
0
11
1254.34572681199
21
-133.467714916788
31
0
0
LINE
8
layer0
10
1254.34572681199
20
-133.467714916788
30
0
11
1254.34572681199
21
-124.807460878943
31
0
0
LINE
8
layer0
10
1254.34572681199
20
-124.807460878943
30
0
11
1264.34572681199
21
-116.147206841099
31
0
0
LINE
8
layer0
10
1264.34572681199
20
-116.147206841099
30
0
11
1264.34572681199
21
-124.807460878943
31
0
0
LINE
8
layer0
10
1271.66623488768
20
-138.467714916788
30
0
11
1281.66623488768
21
-129.807460878943
31
0
0
LINE
8
layer0
10
1281.66623488768
20
-129.807460878943
30
0
11
1281.66623488768
21
-121.147206841099
31
0
0
LINE
8
layer0
10
1281.66623488768
20
-121.147206841099
30
0
11
1271.66623488768
21
-129.807460878943
31
0
0
LINE
8
layer0
10
1271.66623488768
20
-129.807460878943
30
0
11
1271.66623488768
21
-138.467714916788
31
0
0
LINE
8
layer0
10
1281.66623488768
20
-121.147206841099
30
0
11
1264.34572681199
21
-116.147206841099
31
0
0
LINE
8
layer0
10
1264.34572681199
20
-116.147206841099
30
0
11
1254.34572681199
21
-124.807460878943
31
0
0
LINE
8
layer0
10
1254.34572681199
20
-124.807460878943
30
0
11
1271.66623488768
21
-129.807460878943
31
0
0
LINE
8
layer0
10
1271.66623488768
20
-129.807460878943
30
0
11
1281.66623488768
21
-121.147206841099
31
0
0
LINE
8
layer0
10
1264.34572681199
20
-124.807460878943
30
0
11
1281.66623488768
21
-129.807460878943
31
0
0
LINE
8
layer0
10
1281.66623488768
20
-129.807460878943
30
0
11
1271.66623488768
21
-138.467714916788
31
0
0
LINE
8
layer0
10
1271.66623488768
20
-138.467714916788
30
0
11
1254.34572681199
21
-133.467714916788
31
0
0
LINE
8
layer0
10
1254.34572681199
20
-133.467714916788
30
0
11
1264.34572681199
21
-124.807460878943
31
0
0
ENDBLK
0
BLOCK
8
layer0
2
PF_OBJECT28
70
0
10
0
20
0
30
0
0
LINE
8
layer0
10
1315.04892078986
20
-575.632340597654
30
0
11
800.629830941902
21
-427.132340597654
31
0
0
LINE
8
layer0
10
800.629830941902
20
-427.132340597654
30
0
11
800.629830941902
21
62.1720125405542
31
0
0
LINE
8
layer0
10
800.629830941902
20
62.1720125405542
30
0
11
1315.04892078986
21
-86.3279874594458
31
0
0
LINE
8
layer0
10
1315.04892078986
20
-86.3279874594458
30
0
11
1315.04892078986
21
-575.632340597654
31
0
0
LINE
8
layer0
10
790.629830941902
20
-435.792594635498
30
0
11
1305.04892078986
21
-584.292594635498
31
0
0
LINE
8
layer0
10
1305.04892078986
20
-584.292594635498
30
0
11
1305.04892078986
21
-94.9882414972901
31
0
0
LINE
8
layer0
10
1305.04892078986
20
-94.9882414972901
30
0
11
790.629830941902
21
53.5117585027098
31
0
0
LINE
8
layer0
10
790.629830941902
20
53.5117585027098
30
0
11
790.629830941902
21
-435.792594635498
31
0
0
LINE
8
layer0
10
800.629830941902
20
-427.132340597654
30
0
11
790.629830941902
21
-435.792594635498
31
0
0
LINE
8
layer0
10
790.629830941902
20
-435.792594635498
30
0
11
790.629830941902
21
53.5117585027098
31
0
0
LINE
8
layer0
10
790.629830941902
20
53.5117585027098
30
0
11
800.629830941902
21
62.1720125405542
31
0
0
LINE
8
layer0
10
800.629830941902
20
62.1720125405542
30
0
11
800.629830941902
21
-427.132340597654
31
0
0
LINE
8
layer0
10
1305.04892078986
20
-584.292594635498
30
0
11
1315.04892078986
21
-575.632340597654
31
0
0
LINE
8
layer0
10
1315.04892078986
20
-575.632340597654
30
0
11
1315.04892078986
21
-86.3279874594458
31
0
0
LINE
8
layer0
10
1315.04892078986
20
-86.3279874594458
30
0
11
1305.04892078986
21
-94.9882414972901
31
0
0
LINE
8
layer0
10
1305.04892078986
20
-94.9882414972901
30
0
11
1305.04892078986
21
-584.292594635498
31
0
0
LINE
8
layer0
10
1315.04892078986
20
-86.3279874594458
30
0
11
800.629830941902
21
62.1720125405542
31
0
0
LINE
8
layer0
10
800.629830941902
20
62.1720125405542
30
0
11
790.629830941902
21
53.5117585027098
31
0
0
LINE
8
layer0
10
790.629830941902
20
53.5117585027098
30
0
11
1305.04892078986
21
-94.9882414972901
31
0
0
LINE
8
layer0
10
1305.04892078986
20
-94.9882414972901
30
0
11
1315.04892078986
21
-86.3279874594458
31
0
0
LINE
8
layer0
10
800.629830941902
20
-427.132340597654
30
0
11
1315.04892078986
21
-575.632340597654
31
0
0
LINE
8
layer0
10
1315.04892078986
20
-575.632340597654
30
0
11
1305.04892078986
21
-584.292594635498
31
0
0
LINE
8
layer0
10
1305.04892078986
20
-584.292594635498
30
0
11
790.629830941902
21
-435.792594635498
31
0
0
LINE
8
layer0
10
790.629830941902
20
-435.792594635498
30
0
11
800.629830941902
21
-427.132340597654
31
0
0
ENDBLK
0
BLOCK
8
layer0
2
PF_OBJECT29
70
0
10
0
20
0
30
0
0
LINE
8
layer0
10
1325.39552606771
20
-144.544794630147
30
0
11
1323.62775911474
21
-144.807460878943
31
0
0
LINE
8
layer0
10
1323.62775911474
20
-144.807460878943
30
0
11
1451.79951887484
21
-181.807460878943
31
0
0
LINE
8
layer0
10
1451.79951887484
20
-181.807460878943
30
0
11
1453.56728582781
21
-181.544794630147
31
0
0
LINE
8
layer0
10
1453.56728582781
20
-181.544794630147
30
0
11
1325.39552606771
21
-144.544794630147
31
0
0
LINE
8
layer0
10
1326.12775911474
20
-146.972524388404
30
0
11
1325.39552606771
21
-144.544794630147
31
0
0
LINE
8
layer0
10
1325.39552606771
20
-144.544794630147
30
0
11
1453.56728582781
21
-181.544794630147
31
0
0
LINE
8
layer0
10
1453.56728582781
20
-181.544794630147
30
0
11
1454.29951887484
21
-183.972524388404
31
0
0
LINE
8
layer0
10
1454.29951887484
20
-183.972524388404
30
0
11
1326.12775911474
21
-146.972524388404
31
0
0
LINE
8
layer0
10
1325.39552606771
20
-150.668518987105
30
0
11
1326.12775911474
21
-146.972524388404
31
0
0
LINE
8
layer0
10
1326.12775911474
20
-146.972524388404
30
0
11
1454.29951887484
21
-183.972524388404
31
0
0
LINE
8
layer0
10
1454.29951887484
20
-183.972524388404
30
0
11
1453.56728582781
21
-187.668518987105
31
0
0
LINE
8
layer0
10
1453.56728582781
20
-187.668518987105
30
0
11
1325.39552606771
21
-150.668518987105
31
0
0
LINE
8
layer0
10
1323.62775911474
20
-153.467714916788
30
0
11
1325.39552606771
21
-150.668518987105
31
0
0
LINE
8
layer0
10
1325.39552606771
20
-150.668518987105
30
0
11
1453.56728582781
21
-187.668518987105
31
0
0
LINE
8
layer0
10
1453.56728582781
20
-187.668518987105
30
0
11
1451.79951887484
21
-190.467714916788
31
0
0
LINE
8
layer0
10
1451.79951887484
20
-190.467714916788
30
0
11
1323.62775911474
21
-153.467714916788
31
0
0
LINE
8
layer0
10
1321.85999216178
20
-153.730381165584
30
0
11
1323.62775911474
21
-153.467714916788
31
0
0
LINE
8
layer0
10
1323.62775911474
20
-153.467714916788
30
0
11
1451.79951887484
21
-190.467714916788
31
0
0
LINE
8
layer0
10
1451.79951887484
20
-190.467714916788
30
0
11
1450.03175192188
21
-190.730381165584
31
0
0
LINE
8
layer0
10
1450.03175192188
20
-190.730381165584
30
0
11
1321.85999216178
21
-153.730381165584
31
0
0
LINE
8
layer0
10
1321.12775911474
20
-151.302651407326
30
0
11
1321.85999216178
21
-153.730381165584
31
0
0
LINE
8
layer0
10
1321.85999216178
20
-153.730381165584
30
0
11
1450.03175192188
21
-190.730381165584
31
0
0
LINE
8
layer0
10
1450.03175192188
20
-190.730381165584
30
0
11
1449.29951887484
21
-188.302651407326
31
0
0
LINE
8
layer0
10
1449.29951887484
20
-188.302651407326
30
0
11
1321.12775911474
21
-151.302651407326
31
0
0
LINE
8
layer0
10
1321.85999216178
20
-147.606656808626
30
0
11
1321.12775911474
21
-151.302651407326
31
0
0
LINE
8
layer0
10
1321.12775911474
20
-151.302651407326
30
0
11
1449.29951887484
21
-188.302651407326
31
0
0
LINE
8
layer0
10
1449.29951887484
20
-188.302651407326
30
0
11
1450.03175192188
21
-184.606656808626
31
0
0
LINE
8
layer0
10
1450.03175192188
20
-184.606656808626
30
0
11
1321.85999216178
21
-147.606656808626
31
0
0
LINE
8
layer0
10
1323.62775911474
20
-144.807460878943
30
0
11
1321.85999216178
21
-147.606656808626
31
0
0
LINE
8
layer0
10
1321.85999216178
20
-147.606656808626
30
0
11
1450.03175192188
21
-184.606656808626
31
0
0
LINE
8
layer0
10
1450.03175192188
20
-184.606656808626
30
0
11
1451.79951887484
21
-181.807460878943
31
0
0
LINE
8
layer0
10
1451.79951887484
20
-181.807460878943
30
0
11
1323.62775911474
21
-144.807460878943
31
0
0
LINE
8
layer0
10
1451.79951887484
20
-181.807460878943
30
0
11
1450.03175192188
21
-184.606656808626
31
0
0
LINE
8
layer0
10
1450.03175192188
20
-184.606656808626
30
0
11
1449.29951887484
21
-188.302651407326
31
0
0
LINE
8
layer0
10
1449.29951887484
20
-188.302651407326
30
0
11
1450.03175192188
21
-190.730381165584
31
0
0
LINE
8
layer0
10
1450.03175192188
20
-190.730381165584
30
0
11
1451.79951887484
21
-190.467714916788
31
0
0
LINE
8
layer0
10
1451.79951887484
20
-190.467714916788
30
0
11
1453.56728582781
21
-187.668518987105
31
0
0
LINE
8
layer0
10
1453.56728582781
20
-187.668518987105
30
0
11
1454.29951887484
21
-183.972524388404
31
0
0
LINE
8
layer0
10
1454.29951887484
20
-183.972524388404
30
0
11
1453.56728582781
21
-181.544794630147
31
0
0
LINE
8
layer0
10
1453.56728582781
20
-181.544794630147
30
0
11
1451.79951887484
21
-181.807460878943
31
0
0
LINE
8
layer0
10
1321.85999216178
20
-147.606656808626
30
0
11
1323.62775911474
21
-144.807460878943
31
0
0
LINE
8
layer0
10
1323.62775911474
20
-144.807460878943
30
0
11
1325.39552606771
21
-144.544794630147
31
0
0
LINE
8
layer0
10
1325.39552606771
20
-144.544794630147
30
0
11
1326.12775911474
21
-146.972524388404
31
0
0
LINE
8
layer0
10
1326.12775911474
20
-146.972524388404
30
0
11
1325.39552606771
21
-150.668518987105
31
0
0
LINE
8
layer0
10
1325.39552606771
20
-150.668518987105
30
0
11
1323.62775911474
21
-153.467714916788
31
0
0
LINE
8
layer0
10
1323.62775911474
20
-153.467714916788
30
0
11
1321.85999216178
21
-153.730381165584
31
0
0
LINE
8
layer0
10
1321.85999216178
20
-153.730381165584
30
0
11
1321.12775911474
21
-151.302651407326
31
0
0
LINE
8
layer0
10
1321.12775911474
20
-151.302651407326
30
0
11
1321.85999216178
21
-147.606656808626
31
0
0
ENDBLK
0
BLOCK
8
layer0
2
PF_OBJECT30
70
0
10
0
20
0
30
0
0
LINE
8
layer0
10
1350.94826719043
20
-149.807460878943
30
0
11
1333.62775911474
21
-144.807460878943
31
0
0
LINE
8
layer0
10
1333.62775911474
20
-144.807460878943
30
0
11
1333.62775911474
21
-136.147206841099
31
0
0
LINE
8
layer0
10
1333.62775911474
20
-136.147206841099
30
0
11
1350.94826719043
21
-141.147206841099
31
0
0
LINE
8
layer0
10
1350.94826719043
20
-141.147206841099
30
0
11
1350.94826719043
21
-149.807460878943
31
0
0
LINE
8
layer0
10
1323.62775911474
20
-153.467714916788
30
0
11
1340.94826719043
21
-158.467714916788
31
0
0
LINE
8
layer0
10
1340.94826719043
20
-158.467714916788
30
0
11
1340.94826719043
21
-149.807460878943
31
0
0
LINE
8
layer0
10
1340.94826719043
20
-149.807460878943
30
0
11
1323.62775911474
21
-144.807460878943
31
0
0
LINE
8
layer0
10
1323.62775911474
20
-144.807460878943
30
0
11
1323.62775911474
21
-153.467714916788
31
0
0
LINE
8
layer0
10
1333.62775911474
20
-144.807460878943
30
0
11
1323.62775911474
21
-153.467714916788
31
0
0
LINE
8
layer0
10
1323.62775911474
20
-153.467714916788
30
0
11
1323.62775911474
21
-144.807460878943
31
0
0
LINE
8
layer0
10
1323.62775911474
20
-144.807460878943
30
0
11
1333.62775911474
21
-136.147206841099
31
0
0
LINE
8
layer0
10
1333.62775911474
20
-136.147206841099
30
0
11
1333.62775911474
21
-144.807460878943
31
0
0
LINE
8
layer0
10
1340.94826719043
20
-158.467714916788
30
0
11
1350.94826719043
21
-149.807460878943
31
0
0
LINE
8
layer0
10
1350.94826719043
20
-149.807460878943
30
0
11
1350.94826719043
21
-141.147206841099
31
0
0
LINE
8
layer0
10
1350.94826719043
20
-141.147206841099
30
0
11
1340.94826719043
21
-149.807460878943
31
0
0
LINE
8
layer0
10
1340.94826719043
20
-149.807460878943
30
0
11
1340.94826719043
21
-158.467714916788
31
0
0
LINE
8
layer0
10
1350.94826719043
20
-141.147206841099
30
0
11
1333.62775911474
21
-136.147206841099
31
0
0
LINE
8
layer0
10
1333.62775911474
20
-136.147206841099
30
0
11
1323.62775911474
21
-144.807460878943
31
0
0
LINE
8
layer0
10
1323.62775911474
20
-144.807460878943
30
0
11
1340.94826719043
21
-149.807460878943
31
0
0
LINE
8
layer0
10
1340.94826719043
20
-149.807460878943
30
0
11
1350.94826719043
21
-141.147206841099
31
0
0
LINE
8
layer0
10
1333.62775911474
20
-144.807460878943
30
0
11
1350.94826719043
21
-149.807460878943
31
0
0
LINE
8
layer0
10
1350.94826719043
20
-149.807460878943
30
0
11
1340.94826719043
21
-158.467714916788
31
0
0
LINE
8
layer0
10
1340.94826719043
20
-158.467714916788
30
0
11
1323.62775911474
21
-153.467714916788
31
0
0
LINE
8
layer0
10
1323.62775911474
20
-153.467714916788
30
0
11
1333.62775911474
21
-144.807460878943
31
0
0
ENDBLK
0
BLOCK
8
layer0
2
PF_OBJECT31
70
0
10
0
20
0
30
0
0
LINE
8
layer0
10
1461.79951887484
20
-181.807460878943
30
0
11
1444.47901079915
21
-176.807460878943
31
0
0
LINE
8
layer0
10
1444.47901079915
20
-176.807460878943
30
0
11
1444.47901079915
21
-168.147206841099
31
0
0
LINE
8
layer0
10
1444.47901079915
20
-168.147206841099
30
0
11
1461.79951887484
21
-173.147206841099
31
0
0
LINE
8
layer0
10
1461.79951887484
20
-173.147206841099
30
0
11
1461.79951887484
21
-181.807460878943
31
0
0
LINE
8
layer0
10
1434.47901079915
20
-185.467714916788
30
0
11
1451.79951887484
21
-190.467714916788
31
0
0
LINE
8
layer0
10
1451.79951887484
20
-190.467714916788
30
0
11
1451.79951887484
21
-181.807460878943
31
0
0
LINE
8
layer0
10
1451.79951887484
20
-181.807460878943
30
0
11
1434.47901079915
21
-176.807460878943
31
0
0
LINE
8
layer0
10
1434.47901079915
20
-176.807460878943
30
0
11
1434.47901079915
21
-185.467714916788
31
0
0
LINE
8
layer0
10
1444.47901079915
20
-176.807460878943
30
0
11
1434.47901079915
21
-185.467714916788
31
0
0
LINE
8
layer0
10
1434.47901079915
20
-185.467714916788
30
0
11
1434.47901079915
21
-176.807460878943
31
0
0
LINE
8
layer0
10
1434.47901079915
20
-176.807460878943
30
0
11
1444.47901079915
21
-168.147206841099
31
0
0
LINE
8
layer0
10
1444.47901079915
20
-168.147206841099
30
0
11
1444.47901079915
21
-176.807460878943
31
0
0
LINE
8
layer0
10
1451.79951887484
20
-190.467714916788
30
0
11
1461.79951887484
21
-181.807460878943
31
0
0
LINE
8
layer0
10
1461.79951887484
20
-181.807460878943
30
0
11
1461.79951887484
21
-173.147206841099
31
0
0
LINE
8
layer0
10
1461.79951887484
20
-173.147206841099
30
0
11
1451.79951887484
21
-181.807460878943
31
0
0
LINE
8
layer0
10
1451.79951887484
20
-181.807460878943
30
0
11
1451.79951887484
21
-190.467714916788
31
0
0
LINE
8
layer0
10
1461.79951887484
20
-173.147206841099
30
0
11
1444.47901079915
21
-168.147206841099
31
0
0
LINE
8
layer0
10
1444.47901079915
20
-168.147206841099
30
0
11
1434.47901079915
21
-176.807460878943
31
0
0
LINE
8
layer0
10
1434.47901079915
20
-176.807460878943
30
0
11
1451.79951887484
21
-181.807460878943
31
0
0
LINE
8
layer0
10
1451.79951887484
20
-181.807460878943
30
0
11
1461.79951887484
21
-173.147206841099
31
0
0
LINE
8
layer0
10
1444.47901079915
20
-176.807460878943
30
0
11
1461.79951887484
21
-181.807460878943
31
0
0
LINE
8
layer0
10
1461.79951887484
20
-181.807460878943
30
0
11
1451.79951887484
21
-190.467714916788
31
0
0
LINE
8
layer0
10
1451.79951887484
20
-190.467714916788
30
0
11
1434.47901079915
21
-185.467714916788
31
0
0
LINE
8
layer0
10
1434.47901079915
20
-185.467714916788
30
0
11
1444.47901079915
21
-176.807460878943
31
0
0
ENDBLK
0
BLOCK
8
layer0
2
PF_OBJECT32
70
0
10
0
20
0
30
0
0
LINE
8
layer0
10
1834.66416306052
20
-725.632340597654
30
0
11
1320.24507321256
21
-577.132340597654
31
0
0
LINE
8
layer0
10
1320.24507321256
20
-577.132340597654
30
0
11
1320.24507321256
21
-87.8279874594458
31
0
0
LINE
8
layer0
10
1320.24507321256
20
-87.8279874594458
30
0
11
1834.66416306052
21
-236.327987459446
31
0
0
LINE
8
layer0
10
1834.66416306052
20
-236.327987459446
30
0
11
1834.66416306052
21
-725.632340597654
31
0
0
LINE
8
layer0
10
1310.24507321256
20
-585.792594635498
30
0
11
1824.66416306052
21
-734.292594635498
31
0
0
LINE
8
layer0
10
1824.66416306052
20
-734.292594635498
30
0
11
1824.66416306052
21
-244.98824149729
31
0
0
LINE
8
layer0
10
1824.66416306052
20
-244.98824149729
30
0
11
1310.24507321256
21
-96.4882414972901
31
0
0
LINE
8
layer0
10
1310.24507321256
20
-96.4882414972901
30
0
11
1310.24507321256
21
-585.792594635498
31
0
0
LINE
8
layer0
10
1320.24507321256
20
-577.132340597654
30
0
11
1310.24507321256
21
-585.792594635498
31
0
0
LINE
8
layer0
10
1310.24507321256
20
-585.792594635498
30
0
11
1310.24507321256
21
-96.4882414972901
31
0
0
LINE
8
layer0
10
1310.24507321256
20
-96.4882414972901
30
0
11
1320.24507321256
21
-87.8279874594458
31
0
0
LINE
8
layer0
10
1320.24507321256
20
-87.8279874594458
30
0
11
1320.24507321256
21
-577.132340597654
31
0
0
LINE
8
layer0
10
1824.66416306052
20
-734.292594635498
30
0
11
1834.66416306052
21
-725.632340597654
31
0
0
LINE
8
layer0
10
1834.66416306052
20
-725.632340597654
30
0
11
1834.66416306052
21
-236.327987459446
31
0
0
LINE
8
layer0
10
1834.66416306052
20
-236.327987459446
30
0
11
1824.66416306052
21
-244.98824149729
31
0
0
LINE
8
layer0
10
1824.66416306052
20
-244.98824149729
30
0
11
1824.66416306052
21
-734.292594635498
31
0
0
LINE
8
layer0
10
1834.66416306052
20
-236.327987459446
30
0
11
1320.24507321256
21
-87.8279874594458
31
0
0
LINE
8
layer0
10
1320.24507321256
20
-87.8279874594458
30
0
11
1310.24507321256
21
-96.4882414972901
31
0
0
LINE
8
layer0
10
1310.24507321256
20
-96.4882414972901
30
0
11
1824.66416306052
21
-244.98824149729
31
0
0
LINE
8
layer0
10
1824.66416306052
20
-244.98824149729
30
0
11
1834.66416306052
21
-236.327987459446
31
0
0
LINE
8
layer0
10
1320.24507321256
20
-577.132340597654
30
0
11
1834.66416306052
21
-725.632340597654
31
0
0
LINE
8
layer0
10
1834.66416306052
20
-725.632340597654
30
0
11
1824.66416306052
21
-734.292594635498
31
0
0
LINE
8
layer0
10
1824.66416306052
20
-734.292594635498
30
0
11
1310.24507321256
21
-585.792594635498
31
0
0
LINE
8
layer0
10
1310.24507321256
20
-585.792594635498
30
0
11
1320.24507321256
21
-577.132340597654
31
0
0
ENDBLK
0
BLOCK
8
layer0
2
PF_OBJECT33
70
0
10
0
20
0
30
0
0
LINE
8
layer0
10
1110.47404107115
20
-378.301270189222
30
0
11
1075.83302491977
21
-368.301270189222
31
0
0
LINE
8
layer0
10
1075.83302491977
20
-368.301270189222
30
0
11
1075.83302491977
21
-238.397459621556
31
0
0
LINE
8
layer0
10
1075.83302491977
20
-238.397459621556
30
0
11
1110.47404107115
21
-248.397459621556
31
0
0
LINE
8
layer0
10
1110.47404107115
20
-248.397459621556
30
0
11
1110.47404107115
21
-378.301270189222
31
0
0
LINE
8
layer0
10
1055.83302491977
20
-385.621778264911
30
0
11
1090.47404107115
21
-395.621778264911
31
0
0
LINE
8
layer0
10
1090.47404107115
20
-395.621778264911
30
0
11
1090.47404107115
21
-265.717967697245
31
0
0
LINE
8
layer0
10
1090.47404107115
20
-265.717967697245
30
0
11
1055.83302491977
21
-255.717967697245
31
0
0
LINE
8
layer0
10
1055.83302491977
20
-255.717967697245
30
0
11
1055.83302491977
21
-385.621778264911
31
0
0
LINE
8
layer0
10
1075.83302491977
20
-368.301270189222
30
0
11
1055.83302491977
21
-385.621778264911
31
0
0
LINE
8
layer0
10
1055.83302491977
20
-385.621778264911
30
0
11
1055.83302491977
21
-255.717967697245
31
0
0
LINE
8
layer0
10
1055.83302491977
20
-255.717967697245
30
0
11
1075.83302491977
21
-238.397459621556
31
0
0
LINE
8
layer0
10
1075.83302491977
20
-238.397459621556
30
0
11
1075.83302491977
21
-368.301270189222
31
0
0
LINE
8
layer0
10
1090.47404107115
20
-395.621778264911
30
0
11
1110.47404107115
21
-378.301270189222
31
0
0
LINE
8
layer0
10
1110.47404107115
20
-378.301270189222
30
0
11
1110.47404107115
21
-248.397459621556
31
0
0
LINE
8
layer0
10
1110.47404107115
20
-248.397459621556
30
0
11
1090.47404107115
21
-265.717967697245
31
0
0
LINE
8
layer0
10
1090.47404107115
20
-265.717967697245
30
0
11
1090.47404107115
21
-395.621778264911
31
0
0
LINE
8
layer0
10
1110.47404107115
20
-248.397459621556
30
0
11
1075.83302491977
21
-238.397459621556
31
0
0
LINE
8
layer0
10
1075.83302491977
20
-238.397459621556
30
0
11
1055.83302491977
21
-255.717967697245
31
0
0
LINE
8
layer0
10
1055.83302491977
20
-255.717967697245
30
0
11
1090.47404107115
21
-265.717967697245
31
0
0
LINE
8
layer0
10
1090.47404107115
20
-265.717967697245
30
0
11
1110.47404107115
21
-248.397459621556
31
0
0
LINE
8
layer0
10
1075.83302491977
20
-368.301270189222
30
0
11
1110.47404107115
21
-378.301270189222
31
0
0
LINE
8
layer0
10
1110.47404107115
20
-378.301270189222
30
0
11
1090.47404107115
21
-395.621778264911
31
0
0
LINE
8
layer0
10
1090.47404107115
20
-395.621778264911
30
0
11
1055.83302491977
21
-385.621778264911
31
0
0
LINE
8
layer0
10
1055.83302491977
20
-385.621778264911
30
0
11
1075.83302491977
21
-368.301270189222
31
0
0
ENDBLK
0
BLOCK
8
layer0
2
PF_OBJECT34
70
0
10
0
20
0
30
0
0
LINE
8
layer0
10
952.474041071148
20
-515.133283987163
30
0
11
917.83302491977
21
-505.133283987163
31
0
0
LINE
8
layer0
10
917.83302491977
20
-505.133283987163
30
0
11
917.83302491977
21
-375.229473419497
31
0
0
LINE
8
layer0
10
917.83302491977
20
-375.229473419497
30
0
11
952.474041071148
21
-385.229473419497
31
0
0
LINE
8
layer0
10
952.474041071148
20
-385.229473419497
30
0
11
952.474041071148
21
-515.133283987163
31
0
0
LINE
8
layer0
10
897.83302491977
20
-522.453792062852
30
0
11
932.474041071148
21
-532.453792062852
31
0
0
LINE
8
layer0
10
932.474041071148
20
-532.453792062852
30
0
11
932.474041071148
21
-402.549981495186
31
0
0
LINE
8
layer0
10
932.474041071148
20
-402.549981495186
30
0
11
897.83302491977
21
-392.549981495186
31
0
0
LINE
8
layer0
10
897.83302491977
20
-392.549981495186
30
0
11
897.83302491977
21
-522.453792062852
31
0
0
LINE
8
layer0
10
917.83302491977
20
-505.133283987163
30
0
11
897.83302491977
21
-522.453792062852
31
0
0
LINE
8
layer0
10
897.83302491977
20
-522.453792062852
30
0
11
897.83302491977
21
-392.549981495186
31
0
0
LINE
8
layer0
10
897.83302491977
20
-392.549981495186
30
0
11
917.83302491977
21
-375.229473419497
31
0
0
LINE
8
layer0
10
917.83302491977
20
-375.229473419497
30
0
11
917.83302491977
21
-505.133283987163
31
0
0
LINE
8
layer0
10
932.474041071148
20
-532.453792062852
30
0
11
952.474041071148
21
-515.133283987163
31
0
0
LINE
8
layer0
10
952.474041071148
20
-515.133283987163
30
0
11
952.474041071148
21
-385.229473419497
31
0
0
LINE
8
layer0
10
952.474041071148
20
-385.229473419497
30
0
11
932.474041071148
21
-402.549981495186
31
0
0
LINE
8
layer0
10
932.474041071148
20
-402.549981495186
30
0
11
932.474041071148
21
-532.453792062852
31
0
0
LINE
8
layer0
10
952.474041071148
20
-385.229473419497
30
0
11
917.83302491977
21
-375.229473419497
31
0
0
LINE
8
layer0
10
917.83302491977
20
-375.229473419497
30
0
11
897.83302491977
21
-392.549981495186
31
0
0
LINE
8
layer0
10
897.83302491977
20
-392.549981495186
30
0
11
932.474041071148
21
-402.549981495186
31
0
0
LINE
8
layer0
10
932.474041071148
20
-402.549981495186
30
0
11
952.474041071148
21
-385.229473419497
31
0
0
LINE
8
layer0
10
917.83302491977
20
-505.133283987163
30
0
11
952.474041071148
21
-515.133283987163
31
0
0
LINE
8
layer0
10
952.474041071148
20
-515.133283987163
30
0
11
932.474041071148
21
-532.453792062852
31
0
0
LINE
8
layer0
10
932.474041071148
20
-532.453792062852
30
0
11
897.83302491977
21
-522.453792062852
31
0
0
LINE
8
layer0
10
897.83302491977
20
-522.453792062852
30
0
11
917.83302491977
21
-505.133283987163
31
0
0
ENDBLK
0
BLOCK
8
layer0
2
PF_OBJECT35
70
0
10
0
20
0
30
0
0
LINE
8
layer0
10
1411.4675050769
20
-647.633283987163
30
0
11
1376.82648892552
21
-637.633283987163
31
0
0
LINE
8
layer0
10
1376.82648892552
20
-637.633283987163
30
0
11
1376.82648892552
21
-507.729473419497
31
0
0
LINE
8
layer0
10
1376.82648892552
20
-507.729473419497
30
0
11
1411.4675050769
21
-517.729473419497
31
0
0
LINE
8
layer0
10
1411.4675050769
20
-517.729473419497
30
0
11
1411.4675050769
21
-647.633283987163
31
0
0
LINE
8
layer0
10
1356.82648892552
20
-654.953792062852
30
0
11
1391.4675050769
21
-664.953792062852
31
0
0
LINE
8
layer0
10
1391.4675050769
20
-664.953792062852
30
0
11
1391.4675050769
21
-535.049981495186
31
0
0
LINE
8
layer0
10
1391.4675050769
20
-535.049981495186
30
0
11
1356.82648892552
21
-525.049981495186
31
0
0
LINE
8
layer0
10
1356.82648892552
20
-525.049981495186
30
0
11
1356.82648892552
21
-654.953792062852
31
0
0
LINE
8
layer0
10
1376.82648892552
20
-637.633283987163
30
0
11
1356.82648892552
21
-654.953792062852
31
0
0
LINE
8
layer0
10
1356.82648892552
20
-654.953792062852
30
0
11
1356.82648892552
21
-525.049981495186
31
0
0
LINE
8
layer0
10
1356.82648892552
20
-525.049981495186
30
0
11
1376.82648892552
21
-507.729473419497
31
0
0
LINE
8
layer0
10
1376.82648892552
20
-507.729473419497
30
0
11
1376.82648892552
21
-637.633283987163
31
0
0
LINE
8
layer0
10
1391.4675050769
20
-664.953792062852
30
0
11
1411.4675050769
21
-647.633283987163
31
0
0
LINE
8
layer0
10
1411.4675050769
20
-647.633283987163
30
0
11
1411.4675050769
21
-517.729473419497
31
0
0
LINE
8
layer0
10
1411.4675050769
20
-517.729473419497
30
0
11
1391.4675050769
21
-535.049981495186
31
0
0
LINE
8
layer0
10
1391.4675050769
20
-535.049981495186
30
0
11
1391.4675050769
21
-664.953792062852
31
0
0
LINE
8
layer0
10
1411.4675050769
20
-517.729473419497
30
0
11
1376.82648892552
21
-507.729473419497
31
0
0
LINE
8
layer0
10
1376.82648892552
20
-507.729473419497
30
0
11
1356.82648892552
21
-525.049981495186
31
0
0
LINE
8
layer0
10
1356.82648892552
20
-525.049981495186
30
0
11
1391.4675050769
21
-535.049981495186
31
0
0
LINE
8
layer0
10
1391.4675050769
20
-535.049981495186
30
0
11
1411.4675050769
21
-517.729473419497
31
0
0
LINE
8
layer0
10
1376.82648892552
20
-637.633283987163
30
0
11
1411.4675050769
21
-647.633283987163
31
0
0
LINE
8
layer0
10
1411.4675050769
20
-647.633283987163
30
0
11
1391.4675050769
21
-664.953792062852
31
0
0
LINE
8
layer0
10
1391.4675050769
20
-664.953792062852
30
0
11
1356.82648892552
21
-654.953792062852
31
0
0
LINE
8
layer0
10
1356.82648892552
20
-654.953792062852
30
0
11
1376.82648892552
21
-637.633283987163
31
0
0
ENDBLK
0
BLOCK
8
layer0
2
PF_OBJECT36
70
0
10
0
20
0
30
0
0
LINE
8
layer0
10
2028.46096908265
20
-643.301270189222
30
0
11
1993.81995293128
21
-633.301270189222
31
0
0
LINE
8
layer0
10
1993.81995293128
20
-633.301270189222
30
0
11
1993.81995293128
21
-503.397459621556
31
0
0
LINE
8
layer0
10
1993.81995293128
20
-503.397459621556
30
0
11
2028.46096908265
21
-513.397459621556
31
0
0
LINE
8
layer0
10
2028.46096908265
20
-513.397459621556
30
0
11
2028.46096908265
21
-643.301270189222
31
0
0
LINE
8
layer0
10
1973.81995293128
20
-650.621778264911
30
0
11
2008.46096908265
21
-660.621778264911
31
0
0
LINE
8
layer0
10
2008.46096908265
20
-660.621778264911
30
0
11
2008.46096908265
21
-530.717967697245
31
0
0
LINE
8
layer0
10
2008.46096908265
20
-530.717967697245
30
0
11
1973.81995293128
21
-520.717967697245
31
0
0
LINE
8
layer0
10
1973.81995293128
20
-520.717967697245
30
0
11
1973.81995293128
21
-650.621778264911
31
0
0
LINE
8
layer0
10
1993.81995293128
20
-633.301270189222
30
0
11
1973.81995293128
21
-650.621778264911
31
0
0
LINE
8
layer0
10
1973.81995293128
20
-650.621778264911
30
0
11
1973.81995293128
21
-520.717967697245
31
0
0
LINE
8
layer0
10
1973.81995293128
20
-520.717967697245
30
0
11
1993.81995293128
21
-503.397459621556
31
0
0
LINE
8
layer0
10
1993.81995293128
20
-503.397459621556
30
0
11
1993.81995293128
21
-633.301270189222
31
0
0
LINE
8
layer0
10
2008.46096908265
20
-660.621778264911
30
0
11
2028.46096908265
21
-643.301270189222
31
0
0
LINE
8
layer0
10
2028.46096908265
20
-643.301270189222
30
0
11
2028.46096908265
21
-513.397459621556
31
0
0
LINE
8
layer0
10
2028.46096908265
20
-513.397459621556
30
0
11
2008.46096908265
21
-530.717967697245
31
0
0
LINE
8
layer0
10
2008.46096908265
20
-530.717967697245
30
0
11
2008.46096908265
21
-660.621778264911
31
0
0
LINE
8
layer0
10
2028.46096908265
20
-513.397459621556
30
0
11
1993.81995293128
21
-503.397459621556
31
0
0
LINE
8
layer0
10
1993.81995293128
20
-503.397459621556
30
0
11
1973.81995293128
21
-520.717967697245
31
0
0
LINE
8
layer0
10
1973.81995293128
20
-520.717967697245
30
0
11
2008.46096908265
21
-530.717967697245
31
0
0
LINE
8
layer0
10
2008.46096908265
20
-530.717967697245
30
0
11
2028.46096908265
21
-513.397459621556
31
0
0
LINE
8
layer0
10
1993.81995293128
20
-633.301270189222
30
0
11
2028.46096908265
21
-643.301270189222
31
0
0
LINE
8
layer0
10
2028.46096908265
20
-643.301270189222
30
0
11
2008.46096908265
21
-660.621778264911
31
0
0
LINE
8
layer0
10
2008.46096908265
20
-660.621778264911
30
0
11
1973.81995293128
21
-650.621778264911
31
0
0
LINE
8
layer0
10
1973.81995293128
20
-650.621778264911
30
0
11
1993.81995293128
21
-633.301270189222
31
0
0
ENDBLK
0
BLOCK
8
layer0
2
PF_OBJECT37
70
0
10
0
20
0
30
0
0
LINE
8
layer0
10
1870.46096908265
20
-780.133283987163
30
0
11
1835.81995293128
21
-770.133283987163
31
0
0
LINE
8
layer0
10
1835.81995293128
20
-770.133283987163
30
0
11
1835.81995293128
21
-640.229473419497
31
0
0
LINE
8
layer0
10
1835.81995293128
20
-640.229473419497
30
0
11
1870.46096908265
21
-650.229473419497
31
0
0
LINE
8
layer0
10
1870.46096908265
20
-650.229473419497
30
0
11
1870.46096908265
21
-780.133283987163
31
0
0
LINE
8
layer0
10
1815.81995293128
20
-787.453792062852
30
0
11
1850.46096908265
21
-797.453792062852
31
0
0
LINE
8
layer0
10
1850.46096908265
20
-797.453792062852
30
0
11
1850.46096908265
21
-667.549981495186
31
0
0
LINE
8
layer0
10
1850.46096908265
20
-667.549981495186
30
0
11
1815.81995293128
21
-657.549981495186
31
0
0
LINE
8
layer0
10
1815.81995293128
20
-657.549981495186
30
0
11
1815.81995293128
21
-787.453792062852
31
0
0
LINE
8
layer0
10
1835.81995293128
20
-770.133283987163
30
0
11
1815.81995293128
21
-787.453792062852
31
0
0
LINE
8
layer0
10
1815.81995293128
20
-787.453792062852
30
0
11
1815.81995293128
21
-657.549981495186
31
0
0
LINE
8
layer0
10
1815.81995293128
20
-657.549981495186
30
0
11
1835.81995293128
21
-640.229473419497
31
0
0
LINE
8
layer0
10
1835.81995293128
20
-640.229473419497
30
0
11
1835.81995293128
21
-770.133283987163
31
0
0
LINE
8
layer0
10
1850.46096908265
20
-797.453792062852
30
0
11
1870.46096908265
21
-780.133283987163
31
0
0
LINE
8
layer0
10
1870.46096908265
20
-780.133283987163
30
0
11
1870.46096908265
21
-650.229473419497
31
0
0
LINE
8
layer0
10
1870.46096908265
20
-650.229473419497
30
0
11
1850.46096908265
21
-667.549981495186
31
0
0
LINE
8
layer0
10
1850.46096908265
20
-667.549981495186
30
0
11
1850.46096908265
21
-797.453792062852
31
0
0
LINE
8
layer0
10
1870.46096908265
20
-650.229473419497
30
0
11
1835.81995293128
21
-640.229473419497
31
0
0
LINE
8
layer0
10
1835.81995293128
20
-640.229473419497
30
0
11
1815.81995293128
21
-657.549981495186
31
0
0
LINE
8
layer0
10
1815.81995293128
20
-657.549981495186
30
0
11
1850.46096908265
21
-667.549981495186
31
0
0
LINE
8
layer0
10
1850.46096908265
20
-667.549981495186
30
0
11
1870.46096908265
21
-650.229473419497
31
0
0
LINE
8
layer0
10
1835.81995293128
20
-770.133283987163
30
0
11
1870.46096908265
21
-780.133283987163
31
0
0
LINE
8
layer0
10
1870.46096908265
20
-780.133283987163
30
0
11
1850.46096908265
21
-797.453792062852
31
0
0
LINE
8
layer0
10
1850.46096908265
20
-797.453792062852
30
0
11
1815.81995293128
21
-787.453792062852
31
0
0
LINE
8
layer0
10
1815.81995293128
20
-787.453792062852
30
0
11
1835.81995293128
21
-770.133283987163
31
0
0
ENDBLK
0
BLOCK
8
layer0
70
0
10
0
20
0
30
0
2
PF_SKETCH38
0
LINE
8
layer0
10
1035.36508806388
20
274.520886198552
30
0
11
988.198421397215
21
233.673354653386
31
0
0
ENDBLK
0
BLOCK
8
layer0
70
0
10
0
20
0
30
0
2
PF_SKETCH39
0
LINE
8
layer0
10
2074.59557260521
20
-25.4791138014479
30
0
11
2027.42890593854
21
-66.3266453466139
31
0
0
ENDBLK
0
BLOCK
8
layer0
70
0
10
0
20
0
30
0
2
PF_SKETCH40
0
LINE
8
layer0
10
941.031754730548
20
192.82582310822
30
0
11
893.865088063882
21
151.978291563054
31
0
0
ENDBLK
0
BLOCK
8
layer0
70
0
10
0
20
0
30
0
2
PF_SKETCH41
0
LINE
8
layer0
10
1980.26223927187
20
-107.17417689178
30
0
11
1933.09557260521
21
-148.021708436946
31
0
0
ENDBLK
0
BLOCK
8
layer0
70
0
10
0
20
0
30
0
2
PF_SKETCH42
0
LINE
8
layer0
10
846.698421397215
20
111.130760017888
30
0
11
799.531754730548
21
70.283228472722
31
0
0
ENDBLK
0
BLOCK
8
layer0
70
0
10
0
20
0
30
0
2
PF_SKETCH43
0
LINE
8
layer0
10
1885.92890593854
20
-188.869239982112
30
0
11
1838.76223927187
21
-229.716771527278
31
0
0
ENDBLK
0
BLOCK
8
layer0
2
PF_OBJECT44
70
0
10
0
20
0
30
0
0
LINE
8
layer0
10
2600.52107508199
20
-651.978875334514
30
0
11
2108.61864573243
21
-509.978875334514
31
0
0
LINE
8
layer0
10
2108.61864573243
20
-509.978875334514
30
0
11
2108.61864573243
21
-496.122468873963
31
0
0
LINE
8
layer0
10
2108.61864573243
20
-496.122468873963
30
0
11
2600.52107508199
21
-638.122468873963
31
0
0
LINE
8
layer0
10
2600.52107508199
20
-638.122468873963
30
0
11
2600.52107508199
21
-651.978875334514
31
0
0
LINE
8
layer0
10
1853.11864573243
20
-731.248366001438
30
0
11
2345.02107508199
21
-873.248366001438
31
0
0
LINE
8
layer0
10
2345.02107508199
20
-873.248366001438
30
0
11
2345.02107508199
21
-859.391959540887
31
0
0
LINE
8
layer0
10
2345.02107508199
20
-859.391959540887
30
0
11
1853.11864573243
21
-717.391959540887
31
0
0
LINE
8
layer0
10
1853.11864573243
20
-717.391959540887
30
0
11
1853.11864573243
21
-731.248366001438
31
0
0
LINE
8
layer0
10
2108.61864573243
20
-509.978875334514
30
0
11
1853.11864573243
21
-731.248366001438
31
0
0
LINE
8
layer0
10
1853.11864573243
20
-731.248366001438
30
0
11
1853.11864573243
21
-717.391959540887
31
0
0
LINE
8
layer0
10
1853.11864573243
20
-717.391959540887
30
0
11
2108.61864573243
21
-496.122468873963
31
0
0
LINE
8
layer0
10
2108.61864573243
20
-496.122468873963
30
0
11
2108.61864573243
21
-509.978875334514
31
0
0
LINE
8
layer0
10
2345.02107508199
20
-873.248366001438
30
0
11
2600.52107508199
21
-651.978875334514
31
0
0
LINE
8
layer0
10
2600.52107508199
20
-651.978875334514
30
0
11
2600.52107508199
21
-638.122468873963
31
0
0
LINE
8
layer0
10
2600.52107508199
20
-638.122468873963
30
0
11
2345.02107508199
21
-859.391959540887
31
0
0
LINE
8
layer0
10
2345.02107508199
20
-859.391959540887
30
0
11
2345.02107508199
21
-873.248366001438
31
0
0
LINE
8
layer0
10
2600.52107508199
20
-638.122468873963
30
0
11
2108.61864573243
21
-496.122468873963
31
0
0
LINE
8
layer0
10
2108.61864573243
20
-496.122468873963
30
0
11
1853.11864573243
21
-717.391959540887
31
0
0
LINE
8
layer0
10
1853.11864573243
20
-717.391959540887
30
0
11
2345.02107508199
21
-859.391959540887
31
0
0
LINE
8
layer0
10
2345.02107508199
20
-859.391959540887
30
0
11
2600.52107508199
21
-638.122468873963
31
0
0
LINE
8
layer0
10
2108.61864573243
20
-509.978875334514
30
0
11
2600.52107508199
21
-651.978875334514
31
0
0
LINE
8
layer0
10
2600.52107508199
20
-651.978875334514
30
0
11
2345.02107508199
21
-873.248366001438
31
0
0
LINE
8
layer0
10
2345.02107508199
20
-873.248366001438
30
0
11
1853.11864573243
21
-731.248366001438
31
0
0
LINE
8
layer0
10
1853.11864573243
20
-731.248366001438
30
0
11
2108.61864573243
21
-509.978875334514
31
0
0
ENDBLK
0
BLOCK
8
layer0
2
PF_OBJECT45
70
0
10
0
20
0
30
0
0
LINE
8
layer0
10
2602.52107508199
20
-650.246824526945
30
0
11
2110.61864573243
21
-508.246824526945
31
0
0
LINE
8
layer0
10
2110.61864573243
20
-508.246824526945
30
0
11
2110.61864573243
21
-10.2822173508928
31
0
0
LINE
8
layer0
10
2110.61864573243
20
-10.2822173508928
30
0
11
2602.52107508199
21
-152.282217350893
31
0
0
LINE
8
layer0
10
2602.52107508199
20
-152.282217350893
30
0
11
2602.52107508199
21
-650.246824526945
31
0
0
LINE
8
layer0
10
2108.61864573243
20
-509.978875334514
30
0
11
2600.52107508199
21
-651.978875334514
31
0
0
LINE
8
layer0
10
2600.52107508199
20
-651.978875334514
30
0
11
2600.52107508199
21
-154.014268158462
31
0
0
LINE
8
layer0
10
2600.52107508199
20
-154.014268158462
30
0
11
2108.61864573243
21
-12.0142681584617
31
0
0
LINE
8
layer0
10
2108.61864573243
20
-12.0142681584617
30
0
11
2108.61864573243
21
-509.978875334514
31
0
0
LINE
8
layer0
10
2110.61864573243
20
-508.246824526945
30
0
11
2108.61864573243
21
-509.978875334514
31
0
0
LINE
8
layer0
10
2108.61864573243
20
-509.978875334514
30
0
11
2108.61864573243
21
-12.0142681584617
31
0
0
LINE
8
layer0
10
2108.61864573243
20
-12.0142681584617
30
0
11
2110.61864573243
21
-10.2822173508928
31
0
0
LINE
8
layer0
10
2110.61864573243
20
-10.2822173508928
30
0
11
2110.61864573243
21
-508.246824526945
31
0
0
LINE
8
layer0
10
2600.52107508199
20
-651.978875334514
30
0
11
2602.52107508199
21
-650.246824526945
31
0
0
LINE
8
layer0
10
2602.52107508199
20
-650.246824526945
30
0
11
2602.52107508199
21
-152.282217350893
31
0
0
LINE
8
layer0
10
2602.52107508199
20
-152.282217350893
30
0
11
2600.52107508199
21
-154.014268158462
31
0
0
LINE
8
layer0
10
2600.52107508199
20
-154.014268158462
30
0
11
2600.52107508199
21
-651.978875334514
31
0
0
LINE
8
layer0
10
2602.52107508199
20
-152.282217350893
30
0
11
2110.61864573243
21
-10.2822173508928
31
0
0
LINE
8
layer0
10
2110.61864573243
20
-10.2822173508928
30
0
11
2108.61864573243
21
-12.0142681584617
31
0
0
LINE
8
layer0
10
2108.61864573243
20
-12.0142681584617
30
0
11
2600.52107508199
21
-154.014268158462
31
0
0
LINE
8
layer0
10
2600.52107508199
20
-154.014268158462
30
0
11
2602.52107508199
21
-152.282217350893
31
0
0
LINE
8
layer0
10
2110.61864573243
20
-508.246824526945
30
0
11
2602.52107508199
21
-650.246824526945
31
0
0
LINE
8
layer0
10
2602.52107508199
20
-650.246824526945
30
0
11
2600.52107508199
21
-651.978875334514
31
0
0
LINE
8
layer0
10
2600.52107508199
20
-651.978875334514
30
0
11
2108.61864573243
21
-509.978875334514
31
0
0
LINE
8
layer0
10
2108.61864573243
20
-509.978875334514
30
0
11
2110.61864573243
21
-508.246824526945
31
0
0
ENDBLK
0
BLOCK
8
layer0
2
PF_OBJECT46
70
0
10
0
20
0
30
0
0
LINE
8
layer0
10
2575.52107508199
20
-175.664903253073
30
0
11
2083.61864573243
21
-33.6649032530727
31
0
0
LINE
8
layer0
10
2083.61864573243
20
-33.6649032530727
30
0
11
2083.61864573243
21
-47.5213097136237
31
0
0
LINE
8
layer0
10
2083.61864573243
20
-47.5213097136237
30
0
11
2575.52107508199
21
-189.521309713624
31
0
0
LINE
8
layer0
10
2575.52107508199
20
-189.521309713624
30
0
11
2575.52107508199
21
-175.664903253073
31
0
0
LINE
8
layer0
10
2108.61864573243
20
-12.0142681584617
30
0
11
2600.52107508199
21
-154.014268158462
31
0
0
LINE
8
layer0
10
2600.52107508199
20
-154.014268158462
30
0
11
2600.52107508199
21
-167.870674619013
31
0
0
LINE
8
layer0
10
2600.52107508199
20
-167.870674619013
30
0
11
2108.61864573243
21
-25.8706746190127
31
0
0
LINE
8
layer0
10
2108.61864573243
20
-25.8706746190127
30
0
11
2108.61864573243
21
-12.0142681584617
31
0
0
LINE
8
layer0
10
2083.61864573243
20
-33.6649032530727
30
0
11
2108.61864573243
21
-12.0142681584617
31
0
0
LINE
8
layer0
10
2108.61864573243
20
-12.0142681584617
30
0
11
2108.61864573243
21
-25.8706746190127
31
0
0
LINE
8
layer0
10
2108.61864573243
20
-25.8706746190127
30
0
11
2083.61864573243
21
-47.5213097136237
31
0
0
LINE
8
layer0
10
2083.61864573243
20
-47.5213097136237
30
0
11
2083.61864573243
21
-33.6649032530727
31
0
0
LINE
8
layer0
10
2600.52107508199
20
-154.014268158462
30
0
11
2575.52107508199
21
-175.664903253073
31
0
0
LINE
8
layer0
10
2575.52107508199
20
-175.664903253073
30
0
11
2575.52107508199
21
-189.521309713624
31
0
0
LINE
8
layer0
10
2575.52107508199
20
-189.521309713624
30
0
11
2600.52107508199
21
-167.870674619013
31
0
0
LINE
8
layer0
10
2600.52107508199
20
-167.870674619013
30
0
11
2600.52107508199
21
-154.014268158462
31
0
0
LINE
8
layer0
10
2575.52107508199
20
-189.521309713624
30
0
11
2083.61864573243
21
-47.5213097136237
31
0
0
LINE
8
layer0
10
2083.61864573243
20
-47.5213097136237
30
0
11
2108.61864573243
21
-25.8706746190127
31
0
0
LINE
8
layer0
10
2108.61864573243
20
-25.8706746190127
30
0
11
2600.52107508199
21
-167.870674619013
31
0
0
LINE
8
layer0
10
2600.52107508199
20
-167.870674619013
30
0
11
2575.52107508199
21
-189.521309713624
31
0
0
LINE
8
layer0
10
2083.61864573243
20
-33.6649032530727
30
0
11
2575.52107508199
21
-175.664903253073
31
0
0
LINE
8
layer0
10
2575.52107508199
20
-175.664903253073
30
0
11
2600.52107508199
21
-154.014268158462
31
0
0
LINE
8
layer0
10
2600.52107508199
20
-154.014268158462
30
0
11
2108.61864573243
21
-12.0142681584617
31
0
0
LINE
8
layer0
10
2108.61864573243
20
-12.0142681584617
30
0
11
2083.61864573243
21
-33.6649032530727
31
0
0
ENDBLK
0
BLOCK
8
layer0
2
PF_OBJECT47
70
0
10
0
20
0
30
0
0
LINE
8
layer0
10
1878.11864573243
20
-225.489530191326
30
0
11
2370.02107508199
21
-367.489530191326
31
0
0
LINE
8
layer0
10
2370.02107508199
20
-367.489530191326
30
0
11
2345.02107508199
21
-389.140165285937
31
0
0
LINE
8
layer0
10
2345.02107508199
20
-389.140165285937
30
0
11
1853.11864573243
21
-247.140165285937
31
0
0
LINE
8
layer0
10
1853.11864573243
20
-247.140165285937
30
0
11
1878.11864573243
21
-225.489530191326
31
0
0
LINE
8
layer0
10
2370.02107508199
20
-353.633123730775
30
0
11
1878.11864573243
21
-211.633123730775
31
0
0
LINE
8
layer0
10
1878.11864573243
20
-211.633123730775
30
0
11
1853.11864573243
21
-233.283758825386
31
0
0
LINE
8
layer0
10
1853.11864573243
20
-233.283758825386
30
0
11
2345.02107508199
21
-375.283758825386
31
0
0
LINE
8
layer0
10
2345.02107508199
20
-375.283758825386
30
0
11
2370.02107508199
21
-353.633123730775
31
0
0
LINE
8
layer0
10
2345.02107508199
20
-389.140165285937
30
0
11
2370.02107508199
21
-367.489530191326
31
0
0
LINE
8
layer0
10
2370.02107508199
20
-367.489530191326
30
0
11
2370.02107508199
21
-353.633123730775
31
0
0
LINE
8
layer0
10
2370.02107508199
20
-353.633123730775
30
0
11
2345.02107508199
21
-375.283758825386
31
0
0
LINE
8
layer0
10
2345.02107508199
20
-375.283758825386
30
0
11
2345.02107508199
21
-389.140165285937
31
0
0
LINE
8
layer0
10
1878.11864573243
20
-225.489530191326
30
0
11
1853.11864573243
21
-247.140165285937
31
0
0
LINE
8
layer0
10
1853.11864573243
20
-247.140165285937
30
0
11
1853.11864573243
21
-233.283758825386
31
0
0
LINE
8
layer0
10
1853.11864573243
20
-233.283758825386
30
0
11
1878.11864573243
21
-211.633123730775
31
0
0
LINE
8
layer0
10
1878.11864573243
20
-211.633123730775
30
0
11
1878.11864573243
21
-225.489530191326
31
0
0
LINE
8
layer0
10
1853.11864573243
20
-247.140165285937
30
0
11
2345.02107508199
21
-389.140165285937
31
0
0
LINE
8
layer0
10
2345.02107508199
20
-389.140165285937
30
0
11
2345.02107508199
21
-375.283758825386
31
0
0
LINE
8
layer0
10
2345.02107508199
20
-375.283758825386
30
0
11
1853.11864573243
21
-233.283758825386
31
0
0
LINE
8
layer0
10
1853.11864573243
20
-233.283758825386
30
0
11
1853.11864573243
21
-247.140165285937
31
0
0
LINE
8
layer0
10
2370.02107508199
20
-367.489530191326
30
0
11
1878.11864573243
21
-225.489530191326
31
0
0
LINE
8
layer0
10
1878.11864573243
20
-225.489530191326
30
0
11
1878.11864573243
21
-211.633123730775
31
0
0
LINE
8
layer0
10
1878.11864573243
20
-211.633123730775
30
0
11
2370.02107508199
21
-353.633123730775
31
0
0
LINE
8
layer0
10
2370.02107508199
20
-353.633123730775
30
0
11
2370.02107508199
21
-367.489530191326
31
0
0
LINE
8
layer0
10
2627.52107508199
20
-628.596189432334
30
0
11
2641.37748154254
21
-632.596189432334
31
0
0
LINE
8
layer0
10
2641.37748154254
20
-632.596189432334
30
0
11
2358.37748154254
21
-877.68137870333
31
0
0
LINE
8
layer0
10
2358.37748154254
20
-877.68137870333
30
0
11
2344.52107508199
21
-873.68137870333
31
0
0
LINE
8
layer0
10
2344.52107508199
20
-873.68137870333
30
0
11
2627.52107508199
21
-628.596189432334
31
0
0
LINE
8
layer0
10
2641.37748154254
20
-134.631582256282
30
0
11
2627.52107508199
21
-130.631582256282
31
0
0
LINE
8
layer0
10
2627.52107508199
20
-130.631582256282
30
0
11
2344.52107508199
21
-375.716771527278
31
0
0
LINE
8
layer0
10
2344.52107508199
20
-375.716771527278
30
0
11
2358.37748154254
21
-379.716771527278
31
0
0
LINE
8
layer0
10
2358.37748154254
20
-379.716771527278
30
0
11
2641.37748154254
21
-134.631582256282
31
0
0
LINE
8
layer0
10
2358.37748154254
20
-877.68137870333
30
0
11
2641.37748154254
21
-632.596189432334
31
0
0
LINE
8
layer0
10
2641.37748154254
20
-632.596189432334
30
0
11
2641.37748154254
21
-134.631582256282
31
0
0
LINE
8
layer0
10
2641.37748154254
20
-134.631582256282
30
0
11
2358.37748154254
21
-379.716771527278
31
0
0
LINE
8
layer0
10
2358.37748154254
20
-379.716771527278
30
0
11
2358.37748154254
21
-877.68137870333
31
0
0
LINE
8
layer0
10
2627.52107508199
20
-628.596189432334
30
0
11
2344.52107508199
21
-873.68137870333
31
0
0
LINE
8
layer0
10
2344.52107508199
20
-873.68137870333
30
0
11
2344.52107508199
21
-375.716771527278
31
0
0
LINE
8
layer0
10
2344.52107508199
20
-375.716771527278
30
0
11
2627.52107508199
21
-130.631582256282
31
0
0
LINE
8
layer0
10
2627.52107508199
20
-130.631582256282
30
0
11
2627.52107508199
21
-628.596189432334
31
0
0
LINE
8
layer0
10
2344.52107508199
20
-873.68137870333
30
0
11
2358.37748154254
21
-877.68137870333
31
0
0
LINE
8
layer0
10
2358.37748154254
20
-877.68137870333
30
0
11
2358.37748154254
21
-379.716771527278
31
0
0
LINE
8
layer0
10
2358.37748154254
20
-379.716771527278
30
0
11
2344.52107508199
21
-375.716771527278
31
0
0
LINE
8
layer0
10
2344.52107508199
20
-375.716771527278
30
0
11
2344.52107508199
21
-873.68137870333
31
0
0
LINE
8
layer0
10
2641.37748154254
20
-632.596189432334
30
0
11
2627.52107508199
21
-628.596189432334
31
0
0
LINE
8
layer0
10
2627.52107508199
20
-628.596189432334
30
0
11
2627.52107508199
21
-130.631582256282
31
0
0
LINE
8
layer0
10
2627.52107508199
20
-130.631582256282
30
0
11
2641.37748154254
21
-134.631582256282
31
0
0
LINE
8
layer0
10
2641.37748154254
20
-134.631582256282
30
0
11
2641.37748154254
21
-632.596189432334
31
0
0
LINE
8
layer0
10
2121.76223927187
20
-482.596189432334
30
0
11
2135.61864573243
21
-486.596189432334
31
0
0
LINE
8
layer0
10
2135.61864573243
20
-486.596189432334
30
0
11
1852.61864573243
21
-731.68137870333
31
0
0
LINE
8
layer0
10
1852.61864573243
20
-731.68137870333
30
0
11
1838.76223927187
21
-727.68137870333
31
0
0
LINE
8
layer0
10
1838.76223927187
20
-727.68137870333
30
0
11
2121.76223927187
21
-482.596189432334
31
0
0
LINE
8
layer0
10
2135.61864573243
20
11.3684177437182
30
0
11
2121.76223927187
21
15.3684177437182
31
0
0
LINE
8
layer0
10
2121.76223927187
20
15.3684177437182
30
0
11
1838.76223927187
21
-229.716771527278
31
0
0
LINE
8
layer0
10
1838.76223927187
20
-229.716771527278
30
0
11
1852.61864573243
21
-233.716771527278
31
0
0
LINE
8
layer0
10
1852.61864573243
20
-233.716771527278
30
0
11
2135.61864573243
21
11.3684177437182
31
0
0
LINE
8
layer0
10
1852.61864573243
20
-731.68137870333
30
0
11
2135.61864573243
21
-486.596189432334
31
0
0
LINE
8
layer0
10
2135.61864573243
20
-486.596189432334
30
0
11
2135.61864573243
21
11.3684177437182
31
0
0
LINE
8
layer0
10
2135.61864573243
20
11.3684177437182
30
0
11
1852.61864573243
21
-233.716771527278
31
0
0
LINE
8
layer0
10
1852.61864573243
20
-233.716771527278
30
0
11
1852.61864573243
21
-731.68137870333
31
0
0
LINE
8
layer0
10
2121.76223927187
20
-482.596189432334
30
0
11
1838.76223927187
21
-727.68137870333
31
0
0
LINE
8
layer0
10
1838.76223927187
20
-727.68137870333
30
0
11
1838.76223927187
21
-229.716771527278
31
0
0
LINE
8
layer0
10
1838.76223927187
20
-229.716771527278
30
0
11
2121.76223927187
21
15.3684177437182
31
0
0
LINE
8
layer0
10
2121.76223927187
20
15.3684177437182
30
0
11
2121.76223927187
21
-482.596189432334
31
0
0
LINE
8
layer0
10
1838.76223927187
20
-727.68137870333
30
0
11
1852.61864573243
21
-731.68137870333
31
0
0
LINE
8
layer0
10
1852.61864573243
20
-731.68137870333
30
0
11
1852.61864573243
21
-233.716771527278
31
0
0
LINE
8
layer0
10
1852.61864573243
20
-233.716771527278
30
0
11
1838.76223927187
21
-229.716771527278
31
0
0
LINE
8
layer0
10
1838.76223927187
20
-229.716771527278
30
0
11
1838.76223927187
21
-727.68137870333
31
0
0
LINE
8
layer0
10
2135.61864573243
20
-486.596189432334
30
0
11
2121.76223927187
21
-482.596189432334
31
0
0
LINE
8
layer0
10
2121.76223927187
20
-482.596189432334
30
0
11
2121.76223927187
21
15.3684177437182
31
0
0
LINE
8
layer0
10
2121.76223927187
20
15.3684177437182
30
0
11
2135.61864573243
21
11.3684177437182
31
0
0
LINE
8
layer0
10
2135.61864573243
20
11.3684177437182
30
0
11
2135.61864573243
21
-486.596189432334
31
0
0
ENDBLK
0
BLOCK
8
layer0
2
PF_OBJECT48
70
0
10
0
20
0
30
0
0
LINE
8
layer0
10
1845.01076833837
20
-294.544794630147
30
0
11
1843.24300138541
21
-294.807460878943
31
0
0
LINE
8
layer0
10
1843.24300138541
20
-294.807460878943
30
0
11
1971.41476114551
21
-331.807460878943
31
0
0
LINE
8
layer0
10
1971.41476114551
20
-331.807460878943
30
0
11
1973.18252809847
21
-331.544794630147
31
0
0
LINE
8
layer0
10
1973.18252809847
20
-331.544794630147
30
0
11
1845.01076833837
21
-294.544794630147
31
0
0
LINE
8
layer0
10
1845.74300138541
20
-296.972524388404
30
0
11
1845.01076833837
21
-294.544794630147
31
0
0
LINE
8
layer0
10
1845.01076833837
20
-294.544794630147
30
0
11
1973.18252809847
21
-331.544794630147
31
0
0
LINE
8
layer0
10
1973.18252809847
20
-331.544794630147
30
0
11
1973.91476114551
21
-333.972524388404
31
0
0
LINE
8
layer0
10
1973.91476114551
20
-333.972524388404
30
0
11
1845.74300138541
21
-296.972524388404
31
0
0
LINE
8
layer0
10
1845.01076833837
20
-300.668518987105
30
0
11
1845.74300138541
21
-296.972524388404
31
0
0
LINE
8
layer0
10
1845.74300138541
20
-296.972524388404
30
0
11
1973.91476114551
21
-333.972524388404
31
0
0
LINE
8
layer0
10
1973.91476114551
20
-333.972524388404
30
0
11
1973.18252809847
21
-337.668518987105
31
0
0
LINE
8
layer0
10
1973.18252809847
20
-337.668518987105
30
0
11
1845.01076833837
21
-300.668518987105
31
0
0
LINE
8
layer0
10
1843.24300138541
20
-303.467714916788
30
0
11
1845.01076833837
21
-300.668518987105
31
0
0
LINE
8
layer0
10
1845.01076833837
20
-300.668518987105
30
0
11
1973.18252809847
21
-337.668518987105
31
0
0
LINE
8
layer0
10
1973.18252809847
20
-337.668518987105
30
0
11
1971.41476114551
21
-340.467714916788
31
0
0
LINE
8
layer0
10
1971.41476114551
20
-340.467714916788
30
0
11
1843.24300138541
21
-303.467714916788
31
0
0
LINE
8
layer0
10
1841.47523443244
20
-303.730381165584
30
0
11
1843.24300138541
21
-303.467714916788
31
0
0
LINE
8
layer0
10
1843.24300138541
20
-303.467714916788
30
0
11
1971.41476114551
21
-340.467714916788
31
0
0
LINE
8
layer0
10
1971.41476114551
20
-340.467714916788
30
0
11
1969.64699419254
21
-340.730381165584
31
0
0
LINE
8
layer0
10
1969.64699419254
20
-340.730381165584
30
0
11
1841.47523443244
21
-303.730381165584
31
0
0
LINE
8
layer0
10
1840.74300138541
20
-301.302651407326
30
0
11
1841.47523443244
21
-303.730381165584
31
0
0
LINE
8
layer0
10
1841.47523443244
20
-303.730381165584
30
0
11
1969.64699419254
21
-340.730381165584
31
0
0
LINE
8
layer0
10
1969.64699419254
20
-340.730381165584
30
0
11
1968.91476114551
21
-338.302651407326
31
0
0
LINE
8
layer0
10
1968.91476114551
20
-338.302651407326
30
0
11
1840.74300138541
21
-301.302651407326
31
0
0
LINE
8
layer0
10
1841.47523443244
20
-297.606656808626
30
0
11
1840.74300138541
21
-301.302651407326
31
0
0
LINE
8
layer0
10
1840.74300138541
20
-301.302651407326
30
0
11
1968.91476114551
21
-338.302651407326
31
0
0
LINE
8
layer0
10
1968.91476114551
20
-338.302651407326
30
0
11
1969.64699419254
21
-334.606656808626
31
0
0
LINE
8
layer0
10
1969.64699419254
20
-334.606656808626
30
0
11
1841.47523443244
21
-297.606656808626
31
0
0
LINE
8
layer0
10
1843.24300138541
20
-294.807460878943
30
0
11
1841.47523443244
21
-297.606656808626
31
0
0
LINE
8
layer0
10
1841.47523443244
20
-297.606656808626
30
0
11
1969.64699419254
21
-334.606656808626
31
0
0
LINE
8
layer0
10
1969.64699419254
20
-334.606656808626
30
0
11
1971.41476114551
21
-331.807460878943
31
0
0
LINE
8
layer0
10
1971.41476114551
20
-331.807460878943
30
0
11
1843.24300138541
21
-294.807460878943
31
0
0
LINE
8
layer0
10
1971.41476114551
20
-331.807460878943
30
0
11
1969.64699419254
21
-334.606656808626
31
0
0
LINE
8
layer0
10
1969.64699419254
20
-334.606656808626
30
0
11
1968.91476114551
21
-338.302651407326
31
0
0
LINE
8
layer0
10
1968.91476114551
20
-338.302651407326
30
0
11
1969.64699419254
21
-340.730381165584
31
0
0
LINE
8
layer0
10
1969.64699419254
20
-340.730381165584
30
0
11
1971.41476114551
21
-340.467714916788
31
0
0
LINE
8
layer0
10
1971.41476114551
20
-340.467714916788
30
0
11
1973.18252809847
21
-337.668518987105
31
0
0
LINE
8
layer0
10
1973.18252809847
20
-337.668518987105
30
0
11
1973.91476114551
21
-333.972524388404
31
0
0
LINE
8
layer0
10
1973.91476114551
20
-333.972524388404
30
0
11
1973.18252809847
21
-331.544794630147
31
0
0
LINE
8
layer0
10
1973.18252809847
20
-331.544794630147
30
0
11
1971.41476114551
21
-331.807460878943
31
0
0
LINE
8
layer0
10
1841.47523443244
20
-297.606656808626
30
0
11
1843.24300138541
21
-294.807460878943
31
0
0
LINE
8
layer0
10
1843.24300138541
20
-294.807460878943
30
0
11
1845.01076833837
21
-294.544794630147
31
0
0
LINE
8
layer0
10
1845.01076833837
20
-294.544794630147
30
0
11
1845.74300138541
21
-296.972524388404
31
0
0
LINE
8
layer0
10
1845.74300138541
20
-296.972524388404
30
0
11
1845.01076833837
21
-300.668518987105
31
0
0
LINE
8
layer0
10
1845.01076833837
20
-300.668518987105
30
0
11
1843.24300138541
21
-303.467714916788
31
0
0
LINE
8
layer0
10
1843.24300138541
20
-303.467714916788
30
0
11
1841.47523443244
21
-303.730381165584
31
0
0
LINE
8
layer0
10
1841.47523443244
20
-303.730381165584
30
0
11
1840.74300138541
21
-301.302651407326
31
0
0
LINE
8
layer0
10
1840.74300138541
20
-301.302651407326
30
0
11
1841.47523443244
21
-297.606656808626
31
0
0
ENDBLK
0
BLOCK
8
layer0
2
PF_OBJECT49
70
0
10
0
20
0
30
0
0
LINE
8
layer0
10
1870.5635094611
20
-299.807460878943
30
0
11
1853.24300138541
21
-294.807460878943
31
0
0
LINE
8
layer0
10
1853.24300138541
20
-294.807460878943
30
0
11
1853.24300138541
21
-286.147206841099
31
0
0
LINE
8
layer0
10
1853.24300138541
20
-286.147206841099
30
0
11
1870.5635094611
21
-291.147206841099
31
0
0
LINE
8
layer0
10
1870.5635094611
20
-291.147206841099
30
0
11
1870.5635094611
21
-299.807460878943
31
0
0
LINE
8
layer0
10
1843.24300138541
20
-303.467714916788
30
0
11
1860.5635094611
21
-308.467714916788
31
0
0
LINE
8
layer0
10
1860.5635094611
20
-308.467714916788
30
0
11
1860.5635094611
21
-299.807460878943
31
0
0
LINE
8
layer0
10
1860.5635094611
20
-299.807460878943
30
0
11
1843.24300138541
21
-294.807460878943
31
0
0
LINE
8
layer0
10
1843.24300138541
20
-294.807460878943
30
0
11
1843.24300138541
21
-303.467714916788
31
0
0
LINE
8
layer0
10
1853.24300138541
20
-294.807460878943
30
0
11
1843.24300138541
21
-303.467714916788
31
0
0
LINE
8
layer0
10
1843.24300138541
20
-303.467714916788
30
0
11
1843.24300138541
21
-294.807460878943
31
0
0
LINE
8
layer0
10
1843.24300138541
20
-294.807460878943
30
0
11
1853.24300138541
21
-286.147206841099
31
0
0
LINE
8
layer0
10
1853.24300138541
20
-286.147206841099
30
0
11
1853.24300138541
21
-294.807460878943
31
0
0
LINE
8
layer0
10
1860.5635094611
20
-308.467714916788
30
0
11
1870.5635094611
21
-299.807460878943
31
0
0
LINE
8
layer0
10
1870.5635094611
20
-299.807460878943
30
0
11
1870.5635094611
21
-291.147206841099
31
0
0
LINE
8
layer0
10
1870.5635094611
20
-291.147206841099
30
0
11
1860.5635094611
21
-299.807460878943
31
0
0
LINE
8
layer0
10
1860.5635094611
20
-299.807460878943
30
0
11
1860.5635094611
21
-308.467714916788
31
0
0
LINE
8
layer0
10
1870.5635094611
20
-291.147206841099
30
0
11
1853.24300138541
21
-286.147206841099
31
0
0
LINE
8
layer0
10
1853.24300138541
20
-286.147206841099
30
0
11
1843.24300138541
21
-294.807460878943
31
0
0
LINE
8
layer0
10
1843.24300138541
20
-294.807460878943
30
0
11
1860.5635094611
21
-299.807460878943
31
0
0
LINE
8
layer0
10
1860.5635094611
20
-299.807460878943
30
0
11
1870.5635094611
21
-291.147206841099
31
0
0
LINE
8
layer0
10
1853.24300138541
20
-294.807460878943
30
0
11
1870.5635094611
21
-299.807460878943
31
0
0
LINE
8
layer0
10
1870.5635094611
20
-299.807460878943
30
0
11
1860.5635094611
21
-308.467714916788
31
0
0
LINE
8
layer0
10
1860.5635094611
20
-308.467714916788
30
0
11
1843.24300138541
21
-303.467714916788
31
0
0
LINE
8
layer0
10
1843.24300138541
20
-303.467714916788
30
0
11
1853.24300138541
21
-294.807460878943
31
0
0
ENDBLK
0
BLOCK
8
layer0
2
PF_OBJECT50
70
0
10
0
20
0
30
0
0
LINE
8
layer0
10
1981.41476114551
20
-331.807460878943
30
0
11
1964.09425306982
21
-326.807460878943
31
0
0
LINE
8
layer0
10
1964.09425306982
20
-326.807460878943
30
0
11
1964.09425306982
21
-318.147206841099
31
0
0
LINE
8
layer0
10
1964.09425306982
20
-318.147206841099
30
0
11
1981.41476114551
21
-323.147206841099
31
0
0
LINE
8
layer0
10
1981.41476114551
20
-323.147206841099
30
0
11
1981.41476114551
21
-331.807460878943
31
0
0
LINE
8
layer0
10
1954.09425306982
20
-335.467714916788
30
0
11
1971.41476114551
21
-340.467714916788
31
0
0
LINE
8
layer0
10
1971.41476114551
20
-340.467714916788
30
0
11
1971.41476114551
21
-331.807460878943
31
0
0
LINE
8
layer0
10
1971.41476114551
20
-331.807460878943
30
0
11
1954.09425306982
21
-326.807460878943
31
0
0
LINE
8
layer0
10
1954.09425306982
20
-326.807460878943
30
0
11
1954.09425306982
21
-335.467714916788
31
0
0
LINE
8
layer0
10
1964.09425306982
20
-326.807460878943
30
0
11
1954.09425306982
21
-335.467714916788
31
0
0
LINE
8
layer0
10
1954.09425306982
20
-335.467714916788
30
0
11
1954.09425306982
21
-326.807460878943
31
0
0
LINE
8
layer0
10
1954.09425306982
20
-326.807460878943
30
0
11
1964.09425306982
21
-318.147206841099
31
0
0
LINE
8
layer0
10
1964.09425306982
20
-318.147206841099
30
0
11
1964.09425306982
21
-326.807460878943
31
0
0
LINE
8
layer0
10
1971.41476114551
20
-340.467714916788
30
0
11
1981.41476114551
21
-331.807460878943
31
0
0
LINE
8
layer0
10
1981.41476114551
20
-331.807460878943
30
0
11
1981.41476114551
21
-323.147206841099
31
0
0
LINE
8
layer0
10
1981.41476114551
20
-323.147206841099
30
0
11
1971.41476114551
21
-331.807460878943
31
0
0
LINE
8
layer0
10
1971.41476114551
20
-331.807460878943
30
0
11
1971.41476114551
21
-340.467714916788
31
0
0
LINE
8
layer0
10
1981.41476114551
20
-323.147206841099
30
0
11
1964.09425306982
21
-318.147206841099
31
0
0
LINE
8
layer0
10
1964.09425306982
20
-318.147206841099
30
0
11
1954.09425306982
21
-326.807460878943
31
0
0
LINE
8
layer0
10
1954.09425306982
20
-326.807460878943
30
0
11
1971.41476114551
21
-331.807460878943
31
0
0
LINE
8
layer0
10
1971.41476114551
20
-331.807460878943
30
0
11
1981.41476114551
21
-323.147206841099
31
0
0
LINE
8
layer0
10
1964.09425306982
20
-326.807460878943
30
0
11
1981.41476114551
21
-331.807460878943
31
0
0
LINE
8
layer0
10
1981.41476114551
20
-331.807460878943
30
0
11
1971.41476114551
21
-340.467714916788
31
0
0
LINE
8
layer0
10
1971.41476114551
20
-340.467714916788
30
0
11
1954.09425306982
21
-335.467714916788
31
0
0
LINE
8
layer0
10
1954.09425306982
20
-335.467714916788
30
0
11
1964.09425306982
21
-326.807460878943
31
0
0
ENDBLK
0
BLOCK
8
layer0
2
PF_OBJECT51
70
0
10
0
20
0
30
0
0
LINE
8
layer0
10
2354.27940533119
20
-875.632340597654
30
0
11
1839.86031548323
21
-727.132340597654
31
0
0
LINE
8
layer0
10
1839.86031548323
20
-727.132340597654
30
0
11
1839.86031548323
21
-237.827987459446
31
0
0
LINE
8
layer0
10
1839.86031548323
20
-237.827987459446
30
0
11
2354.27940533119
21
-386.327987459446
31
0
0
LINE
8
layer0
10
2354.27940533119
20
-386.327987459446
30
0
11
2354.27940533119
21
-875.632340597654
31
0
0
LINE
8
layer0
10
1829.86031548323
20
-735.792594635498
30
0
11
2344.27940533119
21
-884.292594635498
31
0
0
LINE
8
layer0
10
2344.27940533119
20
-884.292594635498
30
0
11
2344.27940533119
21
-394.98824149729
31
0
0
LINE
8
layer0
10
2344.27940533119
20
-394.98824149729
30
0
11
1829.86031548323
21
-246.48824149729
31
0
0
LINE
8
layer0
10
1829.86031548323
20
-246.48824149729
30
0
11
1829.86031548323
21
-735.792594635498
31
0
0
LINE
8
layer0
10
1839.86031548323
20
-727.132340597654
30
0
11
1829.86031548323
21
-735.792594635498
31
0
0
LINE
8
layer0
10
1829.86031548323
20
-735.792594635498
30
0
11
1829.86031548323
21
-246.48824149729
31
0
0
LINE
8
layer0
10
1829.86031548323
20
-246.48824149729
30
0
11
1839.86031548323
21
-237.827987459446
31
0
0
LINE
8
layer0
10
1839.86031548323
20
-237.827987459446
30
0
11
1839.86031548323
21
-727.132340597654
31
0
0
LINE
8
layer0
10
2344.27940533119
20
-884.292594635498
30
0
11
2354.27940533119
21
-875.632340597654
31
0
0
LINE
8
layer0
10
2354.27940533119
20
-875.632340597654
30
0
11
2354.27940533119
21
-386.327987459446
31
0
0
LINE
8
layer0
10
2354.27940533119
20
-386.327987459446
30
0
11
2344.27940533119
21
-394.98824149729
31
0
0
LINE
8
layer0
10
2344.27940533119
20
-394.98824149729
30
0
11
2344.27940533119
21
-884.292594635498
31
0
0
LINE
8
layer0
10
2354.27940533119
20
-386.327987459446
30
0
11
1839.86031548323
21
-237.827987459446
31
0
0
LINE
8
layer0
10
1839.86031548323
20
-237.827987459446
30
0
11
1829.86031548323
21
-246.48824149729
31
0
0
LINE
8
layer0
10
1829.86031548323
20
-246.48824149729
30
0
11
2344.27940533119
21
-394.98824149729
31
0
0
LINE
8
layer0
10
2344.27940533119
20
-394.98824149729
30
0
11
2354.27940533119
21
-386.327987459446
31
0
0
LINE
8
layer0
10
1839.86031548323
20
-727.132340597654
30
0
11
2354.27940533119
21
-875.632340597654
31
0
0
LINE
8
layer0
10
2354.27940533119
20
-875.632340597654
30
0
11
2344.27940533119
21
-884.292594635498
31
0
0
LINE
8
layer0
10
2344.27940533119
20
-884.292594635498
30
0
11
1829.86031548323
21
-735.792594635498
31
0
0
LINE
8
layer0
10
1829.86031548323
20
-735.792594635498
30
0
11
1839.86031548323
21
-727.132340597654
31
0
0
ENDBLK
0
BLOCK
8
layer0
2
PF_OBJECT52
70
0
10
0
20
0
30
0
0
LINE
8
layer0
10
2149.70452561247
20
-678.301270189222
30
0
11
2115.0635094611
21
-668.301270189222
31
0
0
LINE
8
layer0
10
2115.0635094611
20
-668.301270189222
30
0
11
2115.0635094611
21
-538.397459621556
31
0
0
LINE
8
layer0
10
2115.0635094611
20
-538.397459621556
30
0
11
2149.70452561247
21
-548.397459621556
31
0
0
LINE
8
layer0
10
2149.70452561247
20
-548.397459621556
30
0
11
2149.70452561247
21
-678.301270189222
31
0
0
LINE
8
layer0
10
2095.0635094611
20
-685.621778264911
30
0
11
2129.70452561247
21
-695.621778264911
31
0
0
LINE
8
layer0
10
2129.70452561247
20
-695.621778264911
30
0
11
2129.70452561247
21
-565.717967697245
31
0
0
LINE
8
layer0
10
2129.70452561247
20
-565.717967697245
30
0
11
2095.0635094611
21
-555.717967697245
31
0
0
LINE
8
layer0
10
2095.0635094611
20
-555.717967697245
30
0
11
2095.0635094611
21
-685.621778264911
31
0
0
LINE
8
layer0
10
2115.0635094611
20
-668.301270189222
30
0
11
2095.0635094611
21
-685.621778264911
31
0
0
LINE
8
layer0
10
2095.0635094611
20
-685.621778264911
30
0
11
2095.0635094611
21
-555.717967697245
31
0
0
LINE
8
layer0
10
2095.0635094611
20
-555.717967697245
30
0
11
2115.0635094611
21
-538.397459621556
31
0
0
LINE
8
layer0
10
2115.0635094611
20
-538.397459621556
30
0
11
2115.0635094611
21
-668.301270189222
31
0
0
LINE
8
layer0
10
2129.70452561247
20
-695.621778264911
30
0
11
2149.70452561247
21
-678.301270189222
31
0
0
LINE
8
layer0
10
2149.70452561247
20
-678.301270189222
30
0
11
2149.70452561247
21
-548.397459621556
31
0
0
LINE
8
layer0
10
2149.70452561247
20
-548.397459621556
30
0
11
2129.70452561247
21
-565.717967697245
31
0
0
LINE
8
layer0
10
2129.70452561247
20
-565.717967697245
30
0
11
2129.70452561247
21
-695.621778264911
31
0
0
LINE
8
layer0
10
2149.70452561247
20
-548.397459621556
30
0
11
2115.0635094611
21
-538.397459621556
31
0
0
LINE
8
layer0
10
2115.0635094611
20
-538.397459621556
30
0
11
2095.0635094611
21
-555.717967697245
31
0
0
LINE
8
layer0
10
2095.0635094611
20
-555.717967697245
30
0
11
2129.70452561247
21
-565.717967697245
31
0
0
LINE
8
layer0
10
2129.70452561247
20
-565.717967697245
30
0
11
2149.70452561247
21
-548.397459621556
31
0
0
LINE
8
layer0
10
2115.0635094611
20
-668.301270189222
30
0
11
2149.70452561247
21
-678.301270189222
31
0
0
LINE
8
layer0
10
2149.70452561247
20
-678.301270189222
30
0
11
2129.70452561247
21
-695.621778264911
31
0
0
LINE
8
layer0
10
2129.70452561247
20
-695.621778264911
30
0
11
2095.0635094611
21
-685.621778264911
31
0
0
LINE
8
layer0
10
2095.0635094611
20
-685.621778264911
30
0
11
2115.0635094611
21
-668.301270189222
31
0
0
ENDBLK
0
BLOCK
8
layer0
2
PF_OBJECT53
70
0
10
0
20
0
30
0
0
LINE
8
layer0
10
1991.70452561247
20
-815.133283987163
30
0
11
1957.0635094611
21
-805.133283987163
31
0
0
LINE
8
layer0
10
1957.0635094611
20
-805.133283987163
30
0
11
1957.0635094611
21
-675.229473419497
31
0
0
LINE
8
layer0
10
1957.0635094611
20
-675.229473419497
30
0
11
1991.70452561247
21
-685.229473419497
31
0
0
LINE
8
layer0
10
1991.70452561247
20
-685.229473419497
30
0
11
1991.70452561247
21
-815.133283987163
31
0
0
LINE
8
layer0
10
1937.0635094611
20
-822.453792062852
30
0
11
1971.70452561247
21
-832.453792062852
31
0
0
LINE
8
layer0
10
1971.70452561247
20
-832.453792062852
30
0
11
1971.70452561247
21
-702.549981495186
31
0
0
LINE
8
layer0
10
1971.70452561247
20
-702.549981495186
30
0
11
1937.0635094611
21
-692.549981495186
31
0
0
LINE
8
layer0
10
1937.0635094611
20
-692.549981495186
30
0
11
1937.0635094611
21
-822.453792062852
31
0
0
LINE
8
layer0
10
1957.0635094611
20
-805.133283987163
30
0
11
1937.0635094611
21
-822.453792062852
31
0
0
LINE
8
layer0
10
1937.0635094611
20
-822.453792062852
30
0
11
1937.0635094611
21
-692.549981495186
31
0
0
LINE
8
layer0
10
1937.0635094611
20
-692.549981495186
30
0
11
1957.0635094611
21
-675.229473419497
31
0
0
LINE
8
layer0
10
1957.0635094611
20
-675.229473419497
30
0
11
1957.0635094611
21
-805.133283987163
31
0
0
LINE
8
layer0
10
1971.70452561247
20
-832.453792062852
30
0
11
1991.70452561247
21
-815.133283987163
31
0
0
LINE
8
layer0
10
1991.70452561247
20
-815.133283987163
30
0
11
1991.70452561247
21
-685.229473419497
31
0
0
LINE
8
layer0
10
1991.70452561247
20
-685.229473419497
30
0
11
1971.70452561247
21
-702.549981495186
31
0
0
LINE
8
layer0
10
1971.70452561247
20
-702.549981495186
30
0
11
1971.70452561247
21
-832.453792062852
31
0
0
LINE
8
layer0
10
1991.70452561247
20
-685.229473419497
30
0
11
1957.0635094611
21
-675.229473419497
31
0
0
LINE
8
layer0
10
1957.0635094611
20
-675.229473419497
30
0
11
1937.0635094611
21
-692.549981495186
31
0
0
LINE
8
layer0
10
1937.0635094611
20
-692.549981495186
30
0
11
1971.70452561247
21
-702.549981495186
31
0
0
LINE
8
layer0
10
1971.70452561247
20
-702.549981495186
30
0
11
1991.70452561247
21
-685.229473419497
31
0
0
LINE
8
layer0
10
1957.0635094611
20
-805.133283987163
30
0
11
1991.70452561247
21
-815.133283987163
31
0
0
LINE
8
layer0
10
1991.70452561247
20
-815.133283987163
30
0
11
1971.70452561247
21
-832.453792062852
31
0
0
LINE
8
layer0
10
1971.70452561247
20
-832.453792062852
30
0
11
1937.0635094611
21
-822.453792062852
31
0
0
LINE
8
layer0
10
1937.0635094611
20
-822.453792062852
30
0
11
1957.0635094611
21
-805.133283987163
31
0
0
ENDBLK
0
BLOCK
8
layer0
2
PF_OBJECT54
70
0
10
0
20
0
30
0
0
LINE
8
layer0
10
2548.07621135332
20
-793.301270189222
30
0
11
2513.43519520194
21
-783.301270189222
31
0
0
LINE
8
layer0
10
2513.43519520194
20
-783.301270189222
30
0
11
2513.43519520194
21
-653.397459621556
31
0
0
LINE
8
layer0
10
2513.43519520194
20
-653.397459621556
30
0
11
2548.07621135332
21
-663.397459621556
31
0
0
LINE
8
layer0
10
2548.07621135332
20
-663.397459621556
30
0
11
2548.07621135332
21
-793.301270189222
31
0
0
LINE
8
layer0
10
2493.43519520194
20
-800.621778264911
30
0
11
2528.07621135332
21
-810.621778264911
31
0
0
LINE
8
layer0
10
2528.07621135332
20
-810.621778264911
30
0
11
2528.07621135332
21
-680.717967697245
31
0
0
LINE
8
layer0
10
2528.07621135332
20
-680.717967697245
30
0
11
2493.43519520194
21
-670.717967697245
31
0
0
LINE
8
layer0
10
2493.43519520194
20
-670.717967697245
30
0
11
2493.43519520194
21
-800.621778264911
31
0
0
LINE
8
layer0
10
2513.43519520194
20
-783.301270189222
30
0
11
2493.43519520194
21
-800.621778264911
31
0
0
LINE
8
layer0
10
2493.43519520194
20
-800.621778264911
30
0
11
2493.43519520194
21
-670.717967697245
31
0
0
LINE
8
layer0
10
2493.43519520194
20
-670.717967697245
30
0
11
2513.43519520194
21
-653.397459621556
31
0
0
LINE
8
layer0
10
2513.43519520194
20
-653.397459621556
30
0
11
2513.43519520194
21
-783.301270189222
31
0
0
LINE
8
layer0
10
2528.07621135332
20
-810.621778264911
30
0
11
2548.07621135332
21
-793.301270189222
31
0
0
LINE
8
layer0
10
2548.07621135332
20
-793.301270189222
30
0
11
2548.07621135332
21
-663.397459621556
31
0
0
LINE
8
layer0
10
2548.07621135332
20
-663.397459621556
30
0
11
2528.07621135332
21
-680.717967697245
31
0
0
LINE
8
layer0
10
2528.07621135332
20
-680.717967697245
30
0
11
2528.07621135332
21
-810.621778264911
31
0
0
LINE
8
layer0
10
2548.07621135332
20
-663.397459621556
30
0
11
2513.43519520194
21
-653.397459621556
31
0
0
LINE
8
layer0
10
2513.43519520194
20
-653.397459621556
30
0
11
2493.43519520194
21
-670.717967697245
31
0
0
LINE
8
layer0
10
2493.43519520194
20
-670.717967697245
30
0
11
2528.07621135332
21
-680.717967697245
31
0
0
LINE
8
layer0
10
2528.07621135332
20
-680.717967697245
30
0
11
2548.07621135332
21
-663.397459621556
31
0
0
LINE
8
layer0
10
2513.43519520194
20
-783.301270189222
30
0
11
2548.07621135332
21
-793.301270189222
31
0
0
LINE
8
layer0
10
2548.07621135332
20
-793.301270189222
30
0
11
2528.07621135332
21
-810.621778264911
31
0
0
LINE
8
layer0
10
2528.07621135332
20
-810.621778264911
30
0
11
2493.43519520194
21
-800.621778264911
31
0
0
LINE
8
layer0
10
2493.43519520194
20
-800.621778264911
30
0
11
2513.43519520194
21
-783.301270189222
31
0
0
ENDBLK
0
BLOCK
8
layer0
2
PF_OBJECT55
70
0
10
0
20
0
30
0
0
LINE
8
layer0
10
2390.07621135332
20
-930.133283987163
30
0
11
2355.43519520194
21
-920.133283987163
31
0
0
LINE
8
layer0
10
2355.43519520194
20
-920.133283987163
30
0
11
2355.43519520194
21
-790.229473419497
31
0
0
LINE
8
layer0
10
2355.43519520194
20
-790.229473419497
30
0
11
2390.07621135332
21
-800.229473419497
31
0
0
LINE
8
layer0
10
2390.07621135332
20
-800.229473419497
30
0
11
2390.07621135332
21
-930.133283987163
31
0
0
LINE
8
layer0
10
2335.43519520194
20
-937.453792062852
30
0
11
2370.07621135332
21
-947.453792062852
31
0
0
LINE
8
layer0
10
2370.07621135332
20
-947.453792062852
30
0
11
2370.07621135332
21
-817.549981495186
31
0
0
LINE
8
layer0
10
2370.07621135332
20
-817.549981495186
30
0
11
2335.43519520194
21
-807.549981495186
31
0
0
LINE
8
layer0
10
2335.43519520194
20
-807.549981495186
30
0
11
2335.43519520194
21
-937.453792062852
31
0
0
LINE
8
layer0
10
2355.43519520194
20
-920.133283987163
30
0
11
2335.43519520194
21
-937.453792062852
31
0
0
LINE
8
layer0
10
2335.43519520194
20
-937.453792062852
30
0
11
2335.43519520194
21
-807.549981495186
31
0
0
LINE
8
layer0
10
2335.43519520194
20
-807.549981495186
30
0
11
2355.43519520194
21
-790.229473419497
31
0
0
LINE
8
layer0
10
2355.43519520194
20
-790.229473419497
30
0
11
2355.43519520194
21
-920.133283987163
31
0
0
LINE
8
layer0
10
2370.07621135332
20
-947.453792062852
30
0
11
2390.07621135332
21
-930.133283987163
31
0
0
LINE
8
layer0
10
2390.07621135332
20
-930.133283987163
30
0
11
2390.07621135332
21
-800.229473419497
31
0
0
LINE
8
layer0
10
2390.07621135332
20
-800.229473419497
30
0
11
2370.07621135332
21
-817.549981495186
31
0
0
LINE
8
layer0
10
2370.07621135332
20
-817.549981495186
30
0
11
2370.07621135332
21
-947.453792062852
31
0
0
LINE
8
layer0
10
2390.07621135332
20
-800.229473419497
30
0
11
2355.43519520194
21
-790.229473419497
31
0
0
LINE
8
layer0
10
2355.43519520194
20
-790.229473419497
30
0
11
2335.43519520194
21
-807.549981495186
31
0
0
LINE
8
layer0
10
2335.43519520194
20
-807.549981495186
30
0
11
2370.07621135332
21
-817.549981495186
31
0
0
LINE
8
layer0
10
2370.07621135332
20
-817.549981495186
30
0
11
2390.07621135332
21
-800.229473419497
31
0
0
LINE
8
layer0
10
2355.43519520194
20
-920.133283987163
30
0
11
2390.07621135332
21
-930.133283987163
31
0
0
LINE
8
layer0
10
2390.07621135332
20
-930.133283987163
30
0
11
2370.07621135332
21
-947.453792062852
31
0
0
LINE
8
layer0
10
2370.07621135332
20
-947.453792062852
30
0
11
2335.43519520194
21
-937.453792062852
31
0
0
LINE
8
layer0
10
2335.43519520194
20
-937.453792062852
30
0
11
2355.43519520194
21
-920.133283987163
31
0
0
ENDBLK
0
BLOCK
8
layer0
70
0
10
0
20
0
30
0
2
PF_SKETCH56
0
LINE
8
layer0
10
2074.59557260521
20
-25.4791138014479
30
0
11
2027.42890593854
21
-66.3266453466139
31
0
0
ENDBLK
0
BLOCK
8
layer0
70
0
10
0
20
0
30
0
2
PF_SKETCH57
0
LINE
8
layer0
10
2594.21081487587
20
-175.479113801448
30
0
11
2547.0441482092
21
-216.326645346614
31
0
0
ENDBLK
0
BLOCK
8
layer0
70
0
10
0
20
0
30
0
2
PF_SKETCH58
0
LINE
8
layer0
10
1980.26223927187
20
-107.17417689178
30
0
11
1933.09557260521
21
-148.021708436946
31
0
0
ENDBLK
0
BLOCK
8
layer0
70
0
10
0
20
0
30
0
2
PF_SKETCH59
0
LINE
8
layer0
10
2499.87748154254
20
-257.17417689178
30
0
11
2452.71081487587
21
-298.021708436946
31
0
0
ENDBLK
0
BLOCK
8
layer0
70
0
10
0
20
0
30
0
2
PF_SKETCH60
0
LINE
8
layer0
10
1885.92890593854
20
-188.869239982112
30
0
11
1838.76223927187
21
-229.716771527278
31
0
0
ENDBLK
0
BLOCK
8
layer0
70
0
10
0
20
0
30
0
2
PF_SKETCH61
0
LINE
8
layer0
10
2405.5441482092
20
-338.869239982112
30
0
11
2358.37748154254
21
-379.716771527278
31
0
0
ENDBLK
0
BLOCK
8
layer0
2
PF_OBJECT62
70
0
10
0
20
0
30
0
0
LINE
8
layer0
10
2650.03773558038
20
-137.131582256282
30
0
11
1429.65844929919
21
215.161572467663
31
0
0
LINE
8
layer0
10
1429.65844929919
20
215.161572467663
30
0
11
1429.65844929919
21
242.874385388765
31
0
0
LINE
8
layer0
10
1429.65844929919
20
242.874385388765
30
0
11
2650.03773558038
21
-109.41876933518
31
0
0
LINE
8
layer0
10
2650.03773558038
20
-109.41876933518
30
0
11
2650.03773558038
21
-137.131582256282
31
0
0
LINE
8
layer0
10
1356.48148966803
20
263.99875405953
30
0
11
1356.48148966803
21
236.285941138428
31
0
0
LINE
8
layer0
10
1356.48148966803
20
236.285941138428
30
0
11
554.256258422041
21
467.868417743718
31
0
0
LINE
8
layer0
10
554.256258422041
20
467.868417743718
30
0
11
554.256258422041
21
495.58123066482
31
0
0
LINE
8
layer0
10
554.256258422041
20
495.58123066482
30
0
11
1356.48148966803
21
263.99875405953
31
0
0
LINE
8
layer0
10
1429.65844929919
20
242.874385388765
30
0
11
1429.65844929919
21
215.161572467663
31
0
0
LINE
8
layer0
10
1429.65844929919
20
215.161572467663
30
0
11
1356.48148966803
21
236.285941138428
31
0
0
LINE
8
layer0
10
1356.48148966803
20
236.285941138428
30
0
11
1356.48148966803
21
263.99875405953
31
0
0
LINE
8
layer0
10
1356.48148966803
20
263.99875405953
30
0
11
1429.65844929919
21
242.874385388765
31
0
0
LINE
8
layer0
10
254.256258422041
20
208.060796608386
30
0
11
2350.03773558038
21
-396.939203391613
31
0
0
LINE
8
layer0
10
2350.03773558038
20
-396.939203391613
30
0
11
2350.03773558038
21
-369.226390470511
31
0
0
LINE
8
layer0
10
2350.03773558038
20
-369.226390470511
30
0
11
254.256258422041
21
235.773609529488
31
0
0
LINE
8
layer0
10
254.256258422041
20
235.773609529488
30
0
11
254.256258422041
21
208.060796608386
31
0
0
LINE
8
layer0
10
554.256258422041
20
467.868417743718
30
0
11
480.756258422041
21
404.215550565562
31
0
0
LINE
8
layer0
10
480.756258422041
20
404.215550565562
30
0
11
480.756258422041
21
431.928363486664
31
0
0
LINE
8
layer0
10
480.756258422041
20
431.928363486664
30
0
11
554.256258422041
21
495.58123066482
31
0
0
LINE
8
layer0
10
554.256258422041
20
495.58123066482
30
0
11
554.256258422041
21
467.868417743718
31
0
0
LINE
8
layer0
10
304.256258422041
20
279.07487971871
30
0
11
304.256258422041
21
251.362066797608
31
0
0
LINE
8
layer0
10
304.256258422041
20
251.362066797608
30
0
11
254.256258422041
21
208.060796608386
31
0
0
LINE
8
layer0
10
254.256258422041
20
208.060796608386
30
0
11
254.256258422041
21
235.773609529488
31
0
0
LINE
8
layer0
10
254.256258422041
20
235.773609529488
30
0
11
304.256258422041
21
279.07487971871
31
0
0
LINE
8
layer0
10
480.756258422041
20
431.928363486664
30
0
11
480.756258422041
21
404.215550565562
31
0
0
LINE
8
layer0
10
480.756258422041
20
404.215550565562
30
0
11
304.256258422041
21
251.362066797608
31
0
0
LINE
8
layer0
10
304.256258422041
20
251.362066797608
30
0
11
304.256258422041
21
279.07487971871
31
0
0
LINE
8
layer0
10
304.256258422041
20
279.07487971871
30
0
11
480.756258422041
21
431.928363486664
31
0
0
LINE
8
layer0
10
2576.53773558038
20
-173.071636513336
30
0
11
2576.53773558038
21
-200.784449434438
31
0
0
LINE
8
layer0
10
2576.53773558038
20
-200.784449434438
30
0
11
2650.03773558038
21
-137.131582256282
31
0
0
LINE
8
layer0
10
2650.03773558038
20
-137.131582256282
30
0
11
2650.03773558038
21
-109.41876933518
31
0
0
LINE
8
layer0
10
2650.03773558038
20
-109.41876933518
30
0
11
2576.53773558038
21
-173.071636513336
31
0
0
LINE
8
layer0
10
2350.03773558038
20
-396.939203391613
30
0
11
2400.03773558038
21
-353.637933202392
31
0
0
LINE
8
layer0
10
2400.03773558038
20
-353.637933202392
30
0
11
2400.03773558038
21
-325.92512028129
31
0
0
LINE
8
layer0
10
2400.03773558038
20
-325.92512028129
30
0
11
2350.03773558038
21
-369.226390470511
31
0
0
LINE
8
layer0
10
2350.03773558038
20
-369.226390470511
30
0
11
2350.03773558038
21
-396.939203391613
31
0
0
LINE
8
layer0
10
2400.03773558038
20
-325.92512028129
30
0
11
2400.03773558038
21
-353.637933202392
31
0
0
LINE
8
layer0
10
2400.03773558038
20
-353.637933202392
30
0
11
2576.53773558038
21
-200.784449434438
31
0
0
LINE
8
layer0
10
2576.53773558038
20
-200.784449434438
30
0
11
2576.53773558038
21
-173.071636513336
31
0
0
LINE
8
layer0
10
2576.53773558038
20
-173.071636513336
30
0
11
2400.03773558038
21
-325.92512028129
31
0
0
LINE
8
layer0
10
1663.50167975007
20
62.7863568722956
30
0
11
1429.65844929919
21
215.161572467663
31
0
0
LINE
8
layer0
10
1429.65844929919
20
215.161572467663
30
0
11
2650.03773558038
21
-137.131582256282
31
0
0
LINE
8
layer0
10
2650.03773558038
20
-137.131582256282
30
0
11
2576.53773558038
21
-200.784449434438
31
0
0
LINE
8
layer0
10
2576.53773558038
20
-200.784449434438
30
0
11
1663.50167975007
21
62.7863568722956
31
0
0
LINE
8
layer0
10
1560.66225654498
20
92.4735412076781
30
0
11
1569.05069896127
21
124.331814199143
31
0
0
LINE
8
layer0
10
1569.05069896127
20
124.331814199143
30
0
11
1663.50167975007
21
62.7863568722956
31
0
0
LINE
8
layer0
10
1663.50167975007
20
62.7863568722956
30
0
11
1560.66225654498
21
92.4735412076781
31
0
0
LINE
8
layer0
10
1526.9426265899
20
102.207559923446
30
0
11
1567.30244156744
21
117.692147554496
31
0
0
LINE
8
layer0
10
1567.30244156744
20
117.692147554496
30
0
11
1560.66225654498
21
92.4735412076781
31
0
0
LINE
8
layer0
10
1560.66225654498
20
92.4735412076781
30
0
11
1526.9426265899
21
102.207559923446
31
0
0
LINE
8
layer0
10
1466.96927388352
20
119.520375588064
30
0
11
1556.67633029051
21
113.615296574467
31
0
0
LINE
8
layer0
10
1556.67633029051
20
113.615296574467
30
0
11
1526.9426265899
21
102.207559923446
31
0
0
LINE
8
layer0
10
1526.9426265899
20
102.207559923446
30
0
11
1466.96927388352
21
119.520375588064
31
0
0
LINE
8
layer0
10
554.256258422041
20
467.868417743718
30
0
11
1356.48148966803
21
236.285941138428
31
0
0
LINE
8
layer0
10
1356.48148966803
20
236.285941138428
30
0
11
1543.39699700121
21
114.489425271382
31
0
0
LINE
8
layer0
10
1543.39699700121
20
114.489425271382
30
0
11
1466.96927388352
21
119.520375588064
31
0
0
LINE
8
layer0
10
1466.96927388352
20
119.520375588064
30
0
11
480.756258422041
21
404.215550565562
31
0
0
LINE
8
layer0
10
480.756258422041
20
404.215550565562
30
0
11
554.256258422041
21
467.868417743718
31
0
0
LINE
8
layer0
10
1541.21221914569
20
142.471720817639
30
0
11
1535.24329504115
21
119.802480909849
31
0
0
LINE
8
layer0
10
1535.24329504115
20
119.802480909849
30
0
11
1356.48148966803
21
236.285941138428
31
0
0
LINE
8
layer0
10
1356.48148966803
20
236.285941138428
30
0
11
1429.65844929919
21
215.161572467663
31
0
0
LINE
8
layer0
10
1429.65844929919
20
215.161572467663
30
0
11
1541.21221914569
21
142.471720817639
31
0
0
LINE
8
layer0
10
1555.13145905348
20
133.401767508391
30
0
11
1536.99155243498
21
126.442147554496
31
0
0
LINE
8
layer0
10
1536.99155243498
20
126.442147554496
30
0
11
1541.21221914569
21
142.471720817639
31
0
0
LINE
8
layer0
10
1541.21221914569
20
142.471720817639
30
0
11
1555.13145905348
21
133.401767508391
31
0
0
LINE
8
layer0
10
1560.89699700121
20
129.64486983761
30
0
11
1547.61766371192
21
130.518998534526
31
0
0
LINE
8
layer0
10
1547.61766371192
20
130.518998534526
30
0
11
1555.13145905348
21
133.401767508391
31
0
0
LINE
8
layer0
10
1555.13145905348
20
133.401767508391
30
0
11
1560.89699700121
21
129.64486983761
31
0
0
LINE
8
layer0
10
304.256258422041
20
251.362066797608
30
0
11
2400.03773558038
21
-353.637933202392
31
0
0
LINE
8
layer0
10
2400.03773558038
20
-353.637933202392
30
0
11
2350.03773558038
21
-396.939203391613
31
0
0
LINE
8
layer0
10
2350.03773558038
20
-396.939203391613
30
0
11
254.256258422041
21
208.060796608386
31
0
0
LINE
8
layer0
10
254.256258422041
20
208.060796608386
30
0
11
304.256258422041
21
251.362066797608
31
0
0
LINE
8
layer0
10
480.756258422041
20
404.215550565562
30
0
11
1353.70986543676
21
152.215550565562
31
0
0
LINE
8
layer0
10
1353.70986543676
20
152.215550565562
30
0
11
1177.20986543676
21
-0.637933202391594
31
0
0
LINE
8
layer0
10
1177.20986543676
20
-0.637933202391594
30
0
11
304.256258422041
21
251.362066797608
31
0
0
LINE
8
layer0
10
304.256258422041
20
251.362066797608
30
0
11
480.756258422041
21
404.215550565562
31
0
0
LINE
8
layer0
10
1527.95015396945
20
-101.887933202392
30
0
11
1704.45015396945
21
50.9655505655619
31
0
0
LINE
8
layer0
10
1704.45015396945
20
50.9655505655619
30
0
11
2576.53773558038
21
-200.784449434438
31
0
0
LINE
8
layer0
10
2576.53773558038
20
-200.784449434438
30
0
11
2400.03773558038
21
-353.637933202392
31
0
0
LINE
8
layer0
10
2400.03773558038
20
-353.637933202392
30
0
11
1527.95015396945
21
-101.887933202392
31
0
0
LINE
8
layer0
10
1560.89699700121
20
129.64486983761
30
0
11
1569.05069896127
21
124.331814199143
31
0
0
LINE
8
layer0
10
1569.05069896127
20
124.331814199143
30
0
11
1569.05069896127
21
152.044627120245
31
0
0
LINE
8
layer0
10
1569.05069896127
20
152.044627120245
30
0
11
1560.89699700121
21
157.357682758712
31
0
0
LINE
8
layer0
10
1560.89699700121
20
157.357682758712
30
0
11
1560.89699700121
21
129.64486983761
31
0
0
LINE
8
layer0
10
1569.05069896127
20
124.331814199143
30
0
11
1567.30244156744
21
117.692147554496
31
0
0
LINE
8
layer0
10
1567.30244156744
20
117.692147554496
30
0
11
1567.30244156744
21
145.404960475598
31
0
0
LINE
8
layer0
10
1567.30244156744
20
145.404960475598
30
0
11
1569.05069896127
21
152.044627120245
31
0
0
LINE
8
layer0
10
1569.05069896127
20
152.044627120245
30
0
11
1569.05069896127
21
124.331814199143
31
0
0
LINE
8
layer0
10
1567.30244156744
20
117.692147554496
30
0
11
1556.67633029051
21
113.615296574467
31
0
0
LINE
8
layer0
10
1556.67633029051
20
113.615296574467
30
0
11
1556.67633029051
21
141.328109495569
31
0
0
LINE
8
layer0
10
1556.67633029051
20
141.328109495569
30
0
11
1567.30244156744
21
145.404960475598
31
0
0
LINE
8
layer0
10
1567.30244156744
20
145.404960475598
30
0
11
1567.30244156744
21
117.692147554496
31
0
0
LINE
8
layer0
10
1556.67633029051
20
113.615296574467
30
0
11
1543.39699700121
21
114.489425271382
31
0
0
LINE
8
layer0
10
1543.39699700121
20
114.489425271382
30
0
11
1543.39699700121
21
142.202238192484
31
0
0
LINE
8
layer0
10
1543.39699700121
20
142.202238192484
30
0
11
1556.67633029051
21
141.328109495569
31
0
0
LINE
8
layer0
10
1556.67633029051
20
141.328109495569
30
0
11
1556.67633029051
21
113.615296574467
31
0
0
LINE
8
layer0
10
1547.61766371192
20
130.518998534526
30
0
11
1560.89699700121
21
129.64486983761
31
0
0
LINE
8
layer0
10
1560.89699700121
20
129.64486983761
30
0
11
1560.89699700121
21
157.357682758712
31
0
0
LINE
8
layer0
10
1560.89699700121
20
157.357682758712
30
0
11
1547.61766371192
21
158.231811455628
31
0
0
LINE
8
layer0
10
1547.61766371192
20
158.231811455628
30
0
11
1547.61766371192
21
130.518998534526
31
0
0
LINE
8
layer0
10
1536.99155243498
20
126.442147554496
30
0
11
1547.61766371192
21
130.518998534526
31
0
0
LINE
8
layer0
10
1547.61766371192
20
130.518998534526
30
0
11
1547.61766371192
21
158.231811455628
31
0
0
LINE
8
layer0
10
1547.61766371192
20
158.231811455628
30
0
11
1536.99155243498
21
154.154960475598
31
0
0
LINE
8
layer0
10
1536.99155243498
20
154.154960475598
30
0
11
1536.99155243498
21
126.442147554496
31
0
0
LINE
8
layer0
10
1535.24329504115
20
119.802480909849
30
0
11
1536.99155243498
21
126.442147554496
31
0
0
LINE
8
layer0
10
1536.99155243498
20
126.442147554496
30
0
11
1536.99155243498
21
154.154960475598
31
0
0
LINE
8
layer0
10
1536.99155243498
20
154.154960475598
30
0
11
1535.24329504115
21
147.515293830951
31
0
0
LINE
8
layer0
10
1535.24329504115
20
147.515293830951
30
0
11
1535.24329504115
21
119.802480909849
31
0
0
LINE
8
layer0
10
1543.39699700121
20
114.489425271382
30
0
11
1535.24329504115
21
119.802480909849
31
0
0
LINE
8
layer0
10
1535.24329504115
20
119.802480909849
30
0
11
1535.24329504115
21
147.515293830951
31
0
0
LINE
8
layer0
10
1535.24329504115
20
147.515293830951
30
0
11
1543.39699700121
21
142.202238192484
31
0
0
LINE
8
layer0
10
1543.39699700121
20
142.202238192484
30
0
11
1543.39699700121
21
114.489425271382
31
0
0
LINE
8
layer0
10
1663.50167975007
20
90.4991697933976
30
0
11
1663.50167975007
21
62.7863568722956
31
0
0
LINE
8
layer0
10
1663.50167975007
20
62.7863568722956
30
0
11
1704.45015396945
21
50.9655505655619
31
0
0
LINE
8
layer0
10
1704.45015396945
20
50.9655505655619
30
0
11
1704.45015396945
21
78.6783634866639
31
0
0
LINE
8
layer0
10
1704.45015396945
20
78.6783634866639
30
0
11
1663.50167975007
21
90.4991697933976
31
0
0
LINE
8
layer0
10
1560.66225654498
20
120.18635412878
30
0
11
1560.66225654498
21
92.4735412076781
31
0
0
LINE
8
layer0
10
1560.66225654498
20
92.4735412076781
30
0
11
1663.50167975007
21
62.7863568722956
31
0
0
LINE
8
layer0
10
1663.50167975007
20
62.7863568722956
30
0
11
1663.50167975007
21
90.4991697933976
31
0
0
LINE
8
layer0
10
1663.50167975007
20
90.4991697933976
30
0
11
1560.66225654498
21
120.18635412878
31
0
0
LINE
8
layer0
10
1526.9426265899
20
129.920372844548
30
0
11
1526.9426265899
21
102.207559923446
31
0
0
LINE
8
layer0
10
1526.9426265899
20
102.207559923446
30
0
11
1560.66225654498
21
92.4735412076781
31
0
0
LINE
8
layer0
10
1560.66225654498
20
92.4735412076781
30
0
11
1560.66225654498
21
120.18635412878
31
0
0
LINE
8
layer0
10
1560.66225654498
20
120.18635412878
30
0
11
1526.9426265899
21
129.920372844548
31
0
0
LINE
8
layer0
10
1466.96927388352
20
147.233188509166
30
0
11
1466.96927388352
21
119.520375588064
31
0
0
LINE
8
layer0
10
1466.96927388352
20
119.520375588064
30
0
11
1526.9426265899
21
102.207559923446
31
0
0
LINE
8
layer0
10
1526.9426265899
20
102.207559923446
30
0
11
1526.9426265899
21
129.920372844548
31
0
0
LINE
8
layer0
10
1526.9426265899
20
129.920372844548
30
0
11
1466.96927388352
21
147.233188509166
31
0
0
LINE
8
layer0
10
1353.70986543676
20
152.215550565562
30
0
11
1466.96927388352
21
119.520375588064
31
0
0
LINE
8
layer0
10
1466.96927388352
20
119.520375588064
30
0
11
1466.96927388352
21
147.233188509166
31
0
0
LINE
8
layer0
10
1466.96927388352
20
147.233188509166
30
0
11
1353.70986543676
21
179.928363486664
31
0
0
LINE
8
layer0
10
1353.70986543676
20
179.928363486664
30
0
11
1353.70986543676
21
152.215550565562
31
0
0
LINE
8
layer0
10
1527.95015396945
20
-101.887933202392
30
0
11
1177.20986543676
21
-0.637933202391594
31
0
0
LINE
8
layer0
10
1177.20986543676
20
-0.637933202391594
30
0
11
1177.20986543676
21
27.0748797187105
31
0
0
LINE
8
layer0
10
1177.20986543676
20
27.0748797187105
30
0
11
1527.95015396945
21
-74.1751202812895
31
0
0
LINE
8
layer0
10
1527.95015396945
20
-74.1751202812895
30
0
11
1527.95015396945
21
-101.887933202392
31
0
0
LINE
8
layer0
10
1704.45015396945
20
50.9655505655619
30
0
11
1527.95015396945
21
-101.887933202392
31
0
0
LINE
8
layer0
10
1527.95015396945
20
-101.887933202392
30
0
11
1527.95015396945
21
-74.1751202812895
31
0
0
LINE
8
layer0
10
1527.95015396945
20
-74.1751202812895
30
0
11
1704.45015396945
21
78.6783634866639
31
0
0
LINE
8
layer0
10
1704.45015396945
20
78.6783634866639
30
0
11
1704.45015396945
21
50.9655505655619
31
0
0
LINE
8
layer0
10
1177.20986543676
20
-0.637933202391594
30
0
11
1353.70986543676
21
152.215550565562
31
0
0
LINE
8
layer0
10
1353.70986543676
20
152.215550565562
30
0
11
1353.70986543676
21
179.928363486664
31
0
0
LINE
8
layer0
10
1353.70986543676
20
179.928363486664
30
0
11
1177.20986543676
21
27.0748797187105
31
0
0
LINE
8
layer0
10
1177.20986543676
20
27.0748797187105
30
0
11
1177.20986543676
21
-0.637933202391594
31
0
0
LINE
8
layer0
10
2650.03773558038
20
-109.41876933518
30
0
11
1429.65844929919
21
242.874385388765
31
0
0
LINE
8
layer0
10
1429.65844929919
20
242.874385388765
30
0
11
1663.50167975007
21
90.4991697933976
31
0
0
LINE
8
layer0
10
1663.50167975007
20
90.4991697933976
30
0
11
2576.53773558038
21
-173.071636513336
31
0
0
LINE
8
layer0
10
2576.53773558038
20
-173.071636513336
30
0
11
2650.03773558038
21
-109.41876933518
31
0
0
LINE
8
layer0
10
1663.50167975007
20
90.4991697933976
30
0
11
1569.05069896127
21
152.044627120245
31
0
0
LINE
8
layer0
10
1569.05069896127
20
152.044627120245
30
0
11
1560.66225654498
21
120.18635412878
31
0
0
LINE
8
layer0
10
1560.66225654498
20
120.18635412878
30
0
11
1663.50167975007
21
90.4991697933976
31
0
0
LINE
8
layer0
10
1560.66225654498
20
120.18635412878
30
0
11
1567.30244156744
21
145.404960475598
31
0
0
LINE
8
layer0
10
1567.30244156744
20
145.404960475598
30
0
11
1526.9426265899
21
129.920372844548
31
0
0
LINE
8
layer0
10
1526.9426265899
20
129.920372844548
30
0
11
1560.66225654498
21
120.18635412878
31
0
0
LINE
8
layer0
10
1526.9426265899
20
129.920372844548
30
0
11
1556.67633029051
21
141.328109495569
31
0
0
LINE
8
layer0
10
1556.67633029051
20
141.328109495569
30
0
11
1466.96927388352
21
147.233188509166
31
0
0
LINE
8
layer0
10
1466.96927388352
20
147.233188509166
30
0
11
1526.9426265899
21
129.920372844548
31
0
0
LINE
8
layer0
10
1466.96927388352
20
147.233188509166
30
0
11
1543.39699700121
21
142.202238192484
31
0
0
LINE
8
layer0
10
1543.39699700121
20
142.202238192484
30
0
11
1356.48148966803
21
263.99875405953
31
0
0
LINE
8
layer0
10
1356.48148966803
20
263.99875405953
30
0
11
554.256258422041
21
495.58123066482
31
0
0
LINE
8
layer0
10
554.256258422041
20
495.58123066482
30
0
11
480.756258422041
21
431.928363486664
31
0
0
LINE
8
layer0
10
480.756258422041
20
431.928363486664
30
0
11
1466.96927388352
21
147.233188509166
31
0
0
LINE
8
layer0
10
1356.48148966803
20
263.99875405953
30
0
11
1535.24329504115
21
147.515293830951
31
0
0
LINE
8
layer0
10
1535.24329504115
20
147.515293830951
30
0
11
1541.21221914569
21
170.184533738741
31
0
0
LINE
8
layer0
10
1541.21221914569
20
170.184533738741
30
0
11
1429.65844929919
21
242.874385388765
31
0
0
LINE
8
layer0
10
1429.65844929919
20
242.874385388765
30
0
11
1356.48148966803
21
263.99875405953
31
0
0
LINE
8
layer0
10
1541.21221914569
20
170.184533738741
30
0
11
1536.99155243498
21
154.154960475598
31
0
0
LINE
8
layer0
10
1536.99155243498
20
154.154960475598
30
0
11
1555.13145905348
21
161.114580429493
31
0
0
LINE
8
layer0
10
1555.13145905348
20
161.114580429493
30
0
11
1541.21221914569
21
170.184533738741
31
0
0
LINE
8
layer0
10
1555.13145905348
20
161.114580429493
30
0
11
1547.61766371192
21
158.231811455628
31
0
0
LINE
8
layer0
10
1547.61766371192
20
158.231811455628
30
0
11
1560.89699700121
21
157.357682758712
31
0
0
LINE
8
layer0
10
1560.89699700121
20
157.357682758712
30
0
11
1555.13145905348
21
161.114580429493
31
0
0
LINE
8
layer0
10
2400.03773558038
20
-325.92512028129
30
0
11
304.256258422041
21
279.07487971871
31
0
0
LINE
8
layer0
10
304.256258422041
20
279.07487971871
30
0
11
254.256258422041
21
235.773609529488
31
0
0
LINE
8
layer0
10
254.256258422041
20
235.773609529488
30
0
11
2350.03773558038
21
-369.226390470511
31
0
0
LINE
8
layer0
10
2350.03773558038
20
-369.226390470511
30
0
11
2400.03773558038
21
-325.92512028129
31
0
0
LINE
8
layer0
10
1177.20986543676
20
27.0748797187105
30
0
11
1353.70986543676
21
179.928363486664
31
0
0
LINE
8
layer0
10
1353.70986543676
20
179.928363486664
30
0
11
480.756258422041
21
431.928363486664
31
0
0
LINE
8
layer0
10
480.756258422041
20
431.928363486664
30
0
11
304.256258422041
21
279.07487971871
31
0
0
LINE
8
layer0
10
304.256258422041
20
279.07487971871
30
0
11
1177.20986543676
21
27.0748797187105
31
0
0
LINE
8
layer0
10
2576.53773558038
20
-173.071636513336
30
0
11
1704.45015396945
21
78.6783634866639
31
0
0
LINE
8
layer0
10
1704.45015396945
20
78.6783634866639
30
0
11
1527.95015396945
21
-74.1751202812895
31
0
0
LINE
8
layer0
10
1527.95015396945
20
-74.1751202812895
30
0
11
2400.03773558038
21
-325.92512028129
31
0
0
LINE
8
layer0
10
2400.03773558038
20
-325.92512028129
30
0
11
2576.53773558038
21
-173.071636513336
31
0
0
ENDBLK
0
BLOCK
8
layer0
2
PF_OBJECT63
70
0
10
0
20
0
30
0
0
LINE
8
layer0
10
1371.93710677271
20
186.213617524508
30
0
11
1705.35688722972
21
89.9636175245083
31
0
0
LINE
8
layer0
10
1705.35688722972
20
89.9636175245083
30
0
11
1712.65123199404
21
87.0101955631246
31
0
0
LINE
8
layer0
10
1712.65123199404
20
87.0101955631246
30
0
11
1717.76325095899
21
83.0742861138787
31
0
0
LINE
8
layer0
10
1717.76325095899
20
83.0742861138787
30
0
11
1720.19254409076
21
78.5411634167565
31
0
0
LINE
8
layer0
10
1720.19254409076
20
78.5411634167565
30
0
11
1719.70131525173
21
73.8545611054753
31
0
0
LINE
8
layer0
10
1719.70131525173
20
73.8545611054753
30
0
11
1716.33764934325
21
69.4732364677417
31
0
0
LINE
8
layer0
10
1716.33764934325
20
69.4732364677417
30
0
11
1716.33764934325
21
69.4732364677417
31
0
0
LINE
8
layer0
10
1716.33764934325
20
69.4732364677417
30
0
11
1330.95634465917
21
180.723236467742
31
0
0
LINE
8
layer0
10
1330.95634465917
20
180.723236467742
30
0
11
1336.86318858194
21
184.370408849903
31
0
0
LINE
8
layer0
10
1336.86318858194
20
184.370408849903
30
0
11
1344.73500748043
21
186.926418332381
31
0
0
LINE
8
layer0
10
1344.73500748043
20
186.926418332381
30
0
11
1353.80125287468
21
188.141064898266
31
0
0
LINE
8
layer0
10
1353.80125287468
20
188.141064898266
30
0
11
1363.17445749724
21
187.895450478749
31
0
0
LINE
8
layer0
10
1363.17445749724
20
187.895450478749
30
0
11
1371.93710677271
21
186.213617524508
31
0
0
LINE
8
layer0
10
1330.95634465917
20
180.723236467742
30
0
11
1382.91786888624
21
165.723236467742
31
0
0
LINE
8
layer0
10
1382.91786888624
20
165.723236467742
30
0
11
1326.20481144944
21
176.608288001185
31
0
0
LINE
8
layer0
10
1326.20481144944
20
176.608288001185
30
0
11
1330.95634465917
21
180.723236467742
31
0
0
LINE
8
layer0
10
1330.95634465917
20
180.723236467742
30
0
11
1330.95634465917
21
180.723236467742
31
0
0
LINE
8
layer0
10
1326.20481144944
20
176.608288001185
30
0
11
1374.15521961077
21
167.405069421982
31
0
0
LINE
8
layer0
10
1374.15521961077
20
167.405069421982
30
0
11
1317.29820926317
21
168.894944246478
31
0
0
LINE
8
layer0
10
1317.29820926317
20
168.894944246478
30
0
11
1326.20481144944
21
176.608288001185
31
0
0
LINE
8
layer0
10
1317.29820926317
20
168.894944246478
30
0
11
1364.78201498821
21
167.650683841499
31
0
0
LINE
8
layer0
10
1364.78201498821
20
167.650683841499
30
0
11
1306.90837835919
21
159.897086742599
31
0
0
LINE
8
layer0
10
1306.90837835919
20
159.897086742599
30
0
11
1317.29820926317
21
168.894944246478
31
0
0
LINE
8
layer0
10
1306.90837835919
20
159.897086742599
30
0
11
1355.71576959397
21
166.436037275614
31
0
0
LINE
8
layer0
10
1355.71576959397
20
166.436037275614
30
0
11
1289.71158706279
21
145.004228616345
31
0
0
LINE
8
layer0
10
1289.71158706279
20
145.004228616345
30
0
11
1306.90837835919
21
159.897086742599
31
0
0
LINE
8
layer0
10
1289.71158706279
20
145.004228616345
30
0
11
1347.84395069547
21
163.880027793136
31
0
0
LINE
8
layer0
10
1347.84395069547
20
163.880027793136
30
0
11
1221.25007193905
21
85.7148173376091
31
0
0
LINE
8
layer0
10
1221.25007193905
20
85.7148173376091
30
0
11
1289.71158706279
21
145.004228616345
31
0
0
LINE
8
layer0
10
1221.25007193905
20
85.7148173376091
30
0
11
1341.93710677271
21
160.232855410975
31
0
0
LINE
8
layer0
10
1341.93710677271
20
160.232855410975
30
0
11
1175.43710677271
21
16.039625680866
31
0
0
LINE
8
layer0
10
1175.43710677271
20
16.039625680866
30
0
11
1168.14276200839
21
18.9930476422497
31
0
0
LINE
8
layer0
10
1168.14276200839
20
18.9930476422497
30
0
11
1163.03074304343
21
22.9289570914956
31
0
0
LINE
8
layer0
10
1163.03074304343
20
22.9289570914956
30
0
11
1160.60144991166
21
27.4620797886179
31
0
0
LINE
8
layer0
10
1160.60144991166
20
27.4620797886179
30
0
11
1161.09267875069
21
32.148682099899
31
0
0
LINE
8
layer0
10
1161.09267875069
20
32.148682099899
30
0
11
1164.45634465917
21
36.5300067376327
31
0
0
LINE
8
layer0
10
1164.45634465917
20
36.5300067376327
30
0
11
1221.25007193905
21
85.7148173376091
31
0
0
LINE
8
layer0
10
1175.43710677271
20
16.039625680866
30
0
11
1205.43710677271
21
42.0203877943992
31
0
0
LINE
8
layer0
10
1205.43710677271
20
42.0203877943992
30
0
11
1183.66700370582
21
13.6638590759981
31
0
0
LINE
8
layer0
10
1183.66700370582
20
13.6638590759981
30
0
11
1175.43710677271
21
16.039625680866
31
0
0
LINE
8
layer0
10
1175.43710677271
20
16.039625680866
30
0
11
1175.43710677271
21
16.039625680866
31
0
0
LINE
8
layer0
10
1183.66700370582
20
13.6638590759981
30
0
11
1202.07344086423
21
37.6390631566657
31
0
0
LINE
8
layer0
10
1202.07344086423
20
37.6390631566657
30
0
11
1199.09369121524
21
9.21055798286574
31
0
0
LINE
8
layer0
10
1199.09369121524
20
9.21055798286574
30
0
11
1183.66700370582
21
13.6638590759981
31
0
0
LINE
8
layer0
10
1199.09369121524
20
9.21055798286574
30
0
11
1201.58221202519
21
32.9524608453844
31
0
0
LINE
8
layer0
10
1201.58221202519
20
32.9524608453844
30
0
11
1217.08940622299
21
4.01564253087173
31
0
0
LINE
8
layer0
10
1217.08940622299
20
4.01564253087173
30
0
11
1199.09369121524
21
9.21055798286574
31
0
0
LINE
8
layer0
10
1217.08940622299
20
4.01564253087173
30
0
11
1204.01150515696
21
28.4193381482622
31
0
0
LINE
8
layer0
10
1204.01150515696
20
28.4193381482622
30
0
11
1246.8751224755
21
-4.5827531173241
31
0
0
LINE
8
layer0
10
1246.8751224755
20
-4.5827531173241
30
0
11
1217.08940622299
21
4.01564253087173
31
0
0
LINE
8
layer0
10
1246.8751224755
20
-4.5827531173241
30
0
11
1209.12352412192
21
24.4834286990164
31
0
0
LINE
8
layer0
10
1209.12352412192
20
24.4834286990164
30
0
11
1365.45394503297
21
-38.8135106791967
31
0
0
LINE
8
layer0
10
1365.45394503297
20
-38.8135106791967
30
0
11
1246.8751224755
21
-4.5827531173241
31
0
0
LINE
8
layer0
10
1365.45394503297
20
-38.8135106791967
30
0
11
1216.41786888624
21
21.5300067376327
31
0
0
LINE
8
layer0
10
1216.41786888624
20
21.5300067376327
30
0
11
1549.83764934325
21
-74.7199932623673
31
0
0
LINE
8
layer0
10
1549.83764934325
20
-74.7199932623673
30
0
11
1543.93080542048
21
-78.3671656445283
31
0
0
LINE
8
layer0
10
1543.93080542048
20
-78.3671656445283
30
0
11
1536.05898652199
21
-80.9231751270064
31
0
0
LINE
8
layer0
10
1536.05898652199
20
-80.9231751270064
30
0
11
1526.99274112775
21
-82.1378216928914
31
0
0
LINE
8
layer0
10
1526.99274112775
20
-82.1378216928914
30
0
11
1517.61953650518
21
-81.8922072733744
31
0
0
LINE
8
layer0
10
1517.61953650518
20
-81.8922072733744
30
0
11
1508.85688722972
21
-80.210374319134
31
0
0
LINE
8
layer0
10
1508.85688722972
20
-80.210374319134
30
0
11
1365.45394503297
21
-38.8135106791967
31
0
0
LINE
8
layer0
10
1549.83764934325
20
-74.7199932623673
30
0
11
1497.87612511618
21
-59.7199932623673
31
0
0
LINE
8
layer0
10
1497.87612511618
20
-59.7199932623673
30
0
11
1554.58918255299
21
-70.6050447958105
31
0
0
LINE
8
layer0
10
1554.58918255299
20
-70.6050447958105
30
0
11
1549.83764934325
21
-74.7199932623673
31
0
0
LINE
8
layer0
10
1549.83764934325
20
-74.7199932623673
30
0
11
1549.83764934325
21
-74.7199932623673
31
0
0
LINE
8
layer0
10
1554.58918255299
20
-70.6050447958105
30
0
11
1506.63877439165
21
-61.4018262166079
31
0
0
LINE
8
layer0
10
1506.63877439165
20
-61.4018262166079
30
0
11
1563.49578473925
21
-62.8917010411034
31
0
0
LINE
8
layer0
10
1563.49578473925
20
-62.8917010411034
30
0
11
1554.58918255299
21
-70.6050447958105
31
0
0
LINE
8
layer0
10
1563.49578473925
20
-62.8917010411034
30
0
11
1516.01197901421
21
-61.6474406361249
31
0
0
LINE
8
layer0
10
1516.01197901421
20
-61.6474406361249
30
0
11
1573.88561564324
21
-53.8938435372249
31
0
0
LINE
8
layer0
10
1573.88561564324
20
-53.8938435372249
30
0
11
1563.49578473925
21
-62.8917010411034
31
0
0
LINE
8
layer0
10
1573.88561564324
20
-53.8938435372249
30
0
11
1525.07822440846
21
-60.4327940702397
31
0
0
LINE
8
layer0
10
1525.07822440846
20
-60.4327940702397
30
0
11
1591.08240693963
21
-39.0009854109707
31
0
0
LINE
8
layer0
10
1591.08240693963
20
-39.0009854109707
30
0
11
1573.88561564324
21
-53.8938435372249
31
0
0
LINE
8
layer0
10
1591.08240693963
20
-39.0009854109707
30
0
11
1532.95004330695
21
-57.8767845877617
31
0
0
LINE
8
layer0
10
1532.95004330695
20
-57.8767845877617
30
0
11
1659.54392206338
21
20.2884258677655
31
0
0
LINE
8
layer0
10
1659.54392206338
20
20.2884258677655
30
0
11
1591.08240693963
21
-39.0009854109707
31
0
0
LINE
8
layer0
10
1659.54392206338
20
20.2884258677655
30
0
11
1538.85688722972
21
-54.2296122056007
31
0
0
LINE
8
layer0
10
1538.85688722972
20
-54.2296122056007
30
0
11
1690.35688722972
21
76.9732364677417
31
0
0
LINE
8
layer0
10
1690.35688722972
20
76.9732364677417
30
0
11
1716.33764934325
21
69.4732364677417
31
0
0
LINE
8
layer0
10
1716.33764934325
20
69.4732364677417
30
0
11
1659.54392206338
21
20.2884258677655
31
0
0
LINE
8
layer0
10
1690.35688722972
20
76.9732364677417
30
0
11
1675.35688722972
21
63.9828554109751
31
0
0
LINE
8
layer0
10
1675.35688722972
20
63.9828554109751
30
0
11
1686.24193876316
21
78.1611197701758
31
0
0
LINE
8
layer0
10
1686.24193876316
20
78.1611197701758
30
0
11
1690.35688722972
21
76.9732364677417
31
0
0
LINE
8
layer0
10
1686.24193876316
20
78.1611197701758
30
0
11
1678.7205531382
21
68.3641800487089
31
0
0
LINE
8
layer0
10
1678.7205531382
20
68.3641800487089
30
0
11
1679.93816228129
21
79.9808632945339
31
0
0
LINE
8
layer0
10
1679.93816228129
20
79.9808632945339
30
0
11
1686.24193876316
21
78.1611197701758
31
0
0
LINE
8
layer0
10
1679.93816228129
20
79.9808632945339
30
0
11
1679.21178197723
21
73.05078235999
31
0
0
LINE
8
layer0
10
1679.21178197723
20
73.05078235999
30
0
11
1674.68534989296
21
81.4972196177361
31
0
0
LINE
8
layer0
10
1674.68534989296
20
81.4972196177361
30
0
11
1679.93816228129
21
79.9808632945339
31
0
0
LINE
8
layer0
10
1674.68534989296
20
81.4972196177361
30
0
11
1676.78248884546
21
77.5839050571121
31
0
0
LINE
8
layer0
10
1676.78248884546
20
77.5839050571121
30
0
11
1669.90898819197
21
82.8760364746433
31
0
0
LINE
8
layer0
10
1669.90898819197
20
82.8760364746433
30
0
11
1674.68534989296
21
81.4972196177361
31
0
0
LINE
8
layer0
10
1669.90898819197
20
82.8760364746433
30
0
11
1671.6704698805
21
81.519814506358
31
0
0
LINE
8
layer0
10
1671.6704698805
20
81.519814506358
30
0
11
1664.37612511618
21
84.4732364677417
31
0
0
LINE
8
layer0
10
1664.37612511618
20
84.4732364677417
30
0
11
1669.90898819197
21
82.8760364746433
31
0
0
LINE
8
layer0
10
1705.35688722972
20
93.4277191396461
30
0
11
1705.35688722972
21
89.9636175245083
31
0
0
LINE
8
layer0
10
1705.35688722972
20
89.9636175245083
30
0
11
1371.93710677271
21
186.213617524508
31
0
0
LINE
8
layer0
10
1371.93710677271
20
186.213617524508
30
0
11
1371.93710677271
21
189.677719139646
31
0
0
LINE
8
layer0
10
1371.93710677271
20
189.677719139646
30
0
11
1705.35688722972
21
93.4277191396461
31
0
0
LINE
8
layer0
10
1371.93710677271
20
189.677719139646
30
0
11
1371.93710677271
21
186.213617524508
31
0
0
LINE
8
layer0
10
1371.93710677271
20
186.213617524508
30
0
11
1363.17445749724
21
187.895450478749
31
0
0
LINE
8
layer0
10
1363.17445749724
20
187.895450478749
30
0
11
1363.17445749724
21
191.359552093887
31
0
0
LINE
8
layer0
10
1363.17445749724
20
191.359552093887
30
0
11
1371.93710677271
21
189.677719139646
31
0
0
LINE
8
layer0
10
1363.17445749724
20
191.359552093887
30
0
11
1363.17445749724
21
187.895450478749
31
0
0
LINE
8
layer0
10
1363.17445749724
20
187.895450478749
30
0
11
1353.80125287468
21
188.141064898266
31
0
0
LINE
8
layer0
10
1353.80125287468
20
188.141064898266
30
0
11
1353.80125287468
21
191.605166513404
31
0
0
LINE
8
layer0
10
1353.80125287468
20
191.605166513404
30
0
11
1363.17445749724
21
191.359552093887
31
0
0
LINE
8
layer0
10
1353.80125287468
20
191.605166513404
30
0
11
1353.80125287468
21
188.141064898266
31
0
0
LINE
8
layer0
10
1353.80125287468
20
188.141064898266
30
0
11
1344.73500748043
21
186.926418332381
31
0
0
LINE
8
layer0
10
1344.73500748043
20
186.926418332381
30
0
11
1344.73500748043
21
190.390519947518
31
0
0
LINE
8
layer0
10
1344.73500748043
20
190.390519947518
30
0
11
1353.80125287468
21
191.605166513404
31
0
0
LINE
8
layer0
10
1344.73500748043
20
190.390519947518
30
0
11
1344.73500748043
21
186.926418332381
31
0
0
LINE
8
layer0
10
1344.73500748043
20
186.926418332381
30
0
11
1336.86318858194
21
184.370408849903
31
0
0
LINE
8
layer0
10
1336.86318858194
20
184.370408849903
30
0
11
1336.86318858194
21
187.83451046504
31
0
0
LINE
8
layer0
10
1336.86318858194
20
187.83451046504
30
0
11
1344.73500748043
21
190.390519947518
31
0
0
LINE
8
layer0
10
1336.86318858194
20
187.83451046504
30
0
11
1336.86318858194
21
184.370408849903
31
0
0
LINE
8
layer0
10
1336.86318858194
20
184.370408849903
30
0
11
1330.95634465917
21
180.723236467742
31
0
0
LINE
8
layer0
10
1330.95634465917
20
180.723236467742
30
0
11
1330.95634465917
21
184.187338082879
31
0
0
LINE
8
layer0
10
1330.95634465917
20
184.187338082879
30
0
11
1336.86318858194
21
187.83451046504
31
0
0
LINE
8
layer0
10
1330.95634465917
20
184.187338082879
30
0
11
1330.95634465917
21
180.723236467742
31
0
0
LINE
8
layer0
10
1330.95634465917
20
180.723236467742
30
0
11
1326.20481144944
21
176.608288001185
31
0
0
LINE
8
layer0
10
1326.20481144944
20
176.608288001185
30
0
11
1326.20481144944
21
180.072389616323
31
0
0
LINE
8
layer0
10
1326.20481144944
20
180.072389616323
30
0
11
1330.95634465917
21
184.187338082879
31
0
0
LINE
8
layer0
10
1326.20481144944
20
180.072389616323
30
0
11
1326.20481144944
21
176.608288001185
31
0
0
LINE
8
layer0
10
1326.20481144944
20
176.608288001185
30
0
11
1317.29820926317
21
168.894944246478
31
0
0
LINE
8
layer0
10
1317.29820926317
20
168.894944246478
30
0
11
1317.29820926317
21
172.359045861615
31
0
0
LINE
8
layer0
10
1317.29820926317
20
172.359045861615
30
0
11
1326.20481144944
21
180.072389616323
31
0
0
LINE
8
layer0
10
1317.29820926317
20
172.359045861615
30
0
11
1317.29820926317
21
168.894944246478
31
0
0
LINE
8
layer0
10
1317.29820926317
20
168.894944246478
30
0
11
1306.90837835919
21
159.897086742599
31
0
0
LINE
8
layer0
10
1306.90837835919
20
159.897086742599
30
0
11
1306.90837835919
21
163.361188357737
31
0
0
LINE
8
layer0
10
1306.90837835919
20
163.361188357737
30
0
11
1317.29820926317
21
172.359045861615
31
0
0
LINE
8
layer0
10
1306.90837835919
20
163.361188357737
30
0
11
1306.90837835919
21
159.897086742599
31
0
0
LINE
8
layer0
10
1306.90837835919
20
159.897086742599
30
0
11
1289.71158706279
21
145.004228616345
31
0
0
LINE
8
layer0
10
1289.71158706279
20
145.004228616345
30
0
11
1289.71158706279
21
148.468330231483
31
0
0
LINE
8
layer0
10
1289.71158706279
20
148.468330231483
30
0
11
1306.90837835919
21
163.361188357737
31
0
0
LINE
8
layer0
10
1289.71158706279
20
148.468330231483
30
0
11
1289.71158706279
21
145.004228616345
31
0
0
LINE
8
layer0
10
1289.71158706279
20
145.004228616345
30
0
11
1221.25007193905
21
85.7148173376091
31
0
0
LINE
8
layer0
10
1221.25007193905
20
85.7148173376091
30
0
11
1221.25007193905
21
89.1789189527469
31
0
0
LINE
8
layer0
10
1221.25007193905
20
89.1789189527469
30
0
11
1289.71158706279
21
148.468330231483
31
0
0
LINE
8
layer0
10
1221.25007193905
20
89.1789189527469
30
0
11
1221.25007193905
21
85.7148173376091
31
0
0
LINE
8
layer0
10
1221.25007193905
20
85.7148173376091
30
0
11
1164.45634465917
21
36.5300067376327
31
0
0
LINE
8
layer0
10
1164.45634465917
20
36.5300067376327
30
0
11
1164.45634465917
21
39.9941083527704
31
0
0
LINE
8
layer0
10
1164.45634465917
20
39.9941083527704
30
0
11
1221.25007193905
21
89.1789189527469
31
0
0
LINE
8
layer0
10
1164.45634465917
20
39.9941083527704
30
0
11
1164.45634465917
21
36.5300067376327
31
0
0
LINE
8
layer0
10
1164.45634465917
20
36.5300067376327
30
0
11
1161.09267875069
21
32.148682099899
31
0
0
LINE
8
layer0
10
1161.09267875069
20
32.148682099899
30
0
11
1161.09267875069
21
35.6127837150368
31
0
0
LINE
8
layer0
10
1161.09267875069
20
35.6127837150368
30
0
11
1164.45634465917
21
39.9941083527704
31
0
0
LINE
8
layer0
10
1161.09267875069
20
35.6127837150368
30
0
11
1161.09267875069
21
32.148682099899
31
0
0
LINE
8
layer0
10
1161.09267875069
20
32.148682099899
30
0
11
1160.60144991166
21
27.4620797886179
31
0
0
LINE
8
layer0
10
1160.60144991166
20
27.4620797886179
30
0
11
1160.60144991166
21
30.9261814037556
31
0
0
LINE
8
layer0
10
1160.60144991166
20
30.9261814037556
30
0
11
1161.09267875069
21
35.6127837150368
31
0
0
LINE
8
layer0
10
1160.60144991166
20
30.9261814037556
30
0
11
1160.60144991166
21
27.4620797886179
31
0
0
LINE
8
layer0
10
1160.60144991166
20
27.4620797886179
30
0
11
1163.03074304343
21
22.9289570914956
31
0
0
LINE
8
layer0
10
1163.03074304343
20
22.9289570914956
30
0
11
1163.03074304343
21
26.3930587066334
31
0
0
LINE
8
layer0
10
1163.03074304343
20
26.3930587066334
30
0
11
1160.60144991166
21
30.9261814037556
31
0
0
LINE
8
layer0
10
1163.03074304343
20
26.3930587066334
30
0
11
1163.03074304343
21
22.9289570914956
31
0
0
LINE
8
layer0
10
1163.03074304343
20
22.9289570914956
30
0
11
1168.14276200839
21
18.9930476422497
31
0
0
LINE
8
layer0
10
1168.14276200839
20
18.9930476422497
30
0
11
1168.14276200839
21
22.4571492573875
31
0
0
LINE
8
layer0
10
1168.14276200839
20
22.4571492573875
30
0
11
1163.03074304343
21
26.3930587066334
31
0
0
LINE
8
layer0
10
1168.14276200839
20
22.4571492573875
30
0
11
1168.14276200839
21
18.9930476422497
31
0
0
LINE
8
layer0
10
1168.14276200839
20
18.9930476422497
30
0
11
1175.43710677271
21
16.039625680866
31
0
0
LINE
8
layer0
10
1175.43710677271
20
16.039625680866
30
0
11
1175.43710677271
21
19.5037272960038
31
0
0
LINE
8
layer0
10
1175.43710677271
20
19.5037272960038
30
0
11
1168.14276200839
21
22.4571492573875
31
0
0
LINE
8
layer0
10
1175.43710677271
20
19.5037272960038
30
0
11
1175.43710677271
21
16.039625680866
31
0
0
LINE
8
layer0
10
1175.43710677271
20
16.039625680866
30
0
11
1183.66700370582
21
13.6638590759981
31
0
0
LINE
8
layer0
10
1183.66700370582
20
13.6638590759981
30
0
11
1183.66700370582
21
17.1279606911359
31
0
0
LINE
8
layer0
10
1183.66700370582
20
17.1279606911359
30
0
11
1175.43710677271
21
19.5037272960038
31
0
0
LINE
8
layer0
10
1183.66700370582
20
17.1279606911359
30
0
11
1183.66700370582
21
13.6638590759981
31
0
0
LINE
8
layer0
10
1183.66700370582
20
13.6638590759981
30
0
11
1199.09369121524
21
9.21055798286574
31
0
0
LINE
8
layer0
10
1199.09369121524
20
9.21055798286574
30
0
11
1199.09369121524
21
12.6746595980035
31
0
0
LINE
8
layer0
10
1199.09369121524
20
12.6746595980035
30
0
11
1183.66700370582
21
17.1279606911359
31
0
0
LINE
8
layer0
10
1199.09369121524
20
12.6746595980035
30
0
11
1199.09369121524
21
9.21055798286574
31
0
0
LINE
8
layer0
10
1199.09369121524
20
9.21055798286574
30
0
11
1217.08940622299
21
4.01564253087173
31
0
0
LINE
8
layer0
10
1217.08940622299
20
4.01564253087173
30
0
11
1217.08940622299
21
7.47974414600947
31
0
0
LINE
8
layer0
10
1217.08940622299
20
7.47974414600947
30
0
11
1199.09369121524
21
12.6746595980035
31
0
0
LINE
8
layer0
10
1217.08940622299
20
7.47974414600947
30
0
11
1217.08940622299
21
4.01564253087173
31
0
0
LINE
8
layer0
10
1217.08940622299
20
4.01564253087173
30
0
11
1246.8751224755
21
-4.5827531173241
31
0
0
LINE
8
layer0
10
1246.8751224755
20
-4.5827531173241
30
0
11
1246.8751224755
21
-1.11865150218637
31
0
0
LINE
8
layer0
10
1246.8751224755
20
-1.11865150218637
30
0
11
1217.08940622299
21
7.47974414600947
31
0
0
LINE
8
layer0
10
1246.8751224755
20
-1.11865150218637
30
0
11
1246.8751224755
21
-4.5827531173241
31
0
0
LINE
8
layer0
10
1246.8751224755
20
-4.5827531173241
30
0
11
1365.45394503297
21
-38.8135106791967
31
0
0
LINE
8
layer0
10
1365.45394503297
20
-38.8135106791967
30
0
11
1365.45394503297
21
-35.349409064059
31
0
0
LINE
8
layer0
10
1365.45394503297
20
-35.349409064059
30
0
11
1246.8751224755
21
-1.11865150218637
31
0
0
LINE
8
layer0
10
1365.45394503297
20
-35.349409064059
30
0
11
1365.45394503297
21
-38.8135106791967
31
0
0
LINE
8
layer0
10
1365.45394503297
20
-38.8135106791967
30
0
11
1508.85688722972
21
-80.210374319134
31
0
0
LINE
8
layer0
10
1508.85688722972
20
-80.210374319134
30
0
11
1508.85688722972
21
-76.7462727039962
31
0
0
LINE
8
layer0
10
1508.85688722972
20
-76.7462727039962
30
0
11
1365.45394503297
21
-35.349409064059
31
0
0
LINE
8
layer0
10
1508.85688722972
20
-76.7462727039962
30
0
11
1508.85688722972
21
-80.210374319134
31
0
0
LINE
8
layer0
10
1508.85688722972
20
-80.210374319134
30
0
11
1517.61953650518
21
-81.8922072733744
31
0
0
LINE
8
layer0
10
1517.61953650518
20
-81.8922072733744
30
0
11
1517.61953650518
21
-78.4281056582367
31
0
0
LINE
8
layer0
10
1517.61953650518
20
-78.4281056582367
30
0
11
1508.85688722972
21
-76.7462727039962
31
0
0
LINE
8
layer0
10
1517.61953650518
20
-78.4281056582367
30
0
11
1517.61953650518
21
-81.8922072733744
31
0
0
LINE
8
layer0
10
1517.61953650518
20
-81.8922072733744
30
0
11
1526.99274112775
21
-82.1378216928914
31
0
0
LINE
8
layer0
10
1526.99274112775
20
-82.1378216928914
30
0
11
1526.99274112775
21
-78.6737200777537
31
0
0
LINE
8
layer0
10
1526.99274112775
20
-78.6737200777537
30
0
11
1517.61953650518
21
-78.4281056582367
31
0
0
LINE
8
layer0
10
1526.99274112775
20
-78.6737200777537
30
0
11
1526.99274112775
21
-82.1378216928914
31
0
0
LINE
8
layer0
10
1526.99274112775
20
-82.1378216928914
30
0
11
1536.05898652199
21
-80.9231751270064
31
0
0
LINE
8
layer0
10
1536.05898652199
20
-80.9231751270064
30
0
11
1536.05898652199
21
-77.4590735118686
31
0
0
LINE
8
layer0
10
1536.05898652199
20
-77.4590735118686
30
0
11
1526.99274112775
21
-78.6737200777537
31
0
0
LINE
8
layer0
10
1536.05898652199
20
-77.4590735118686
30
0
11
1536.05898652199
21
-80.9231751270064
31
0
0
LINE
8
layer0
10
1536.05898652199
20
-80.9231751270064
30
0
11
1543.93080542048
21
-78.3671656445283
31
0
0
LINE
8
layer0
10
1543.93080542048
20
-78.3671656445283
30
0
11
1543.93080542048
21
-74.9030640293905
31
0
0
LINE
8
layer0
10
1543.93080542048
20
-74.9030640293905
30
0
11
1536.05898652199
21
-77.4590735118686
31
0
0
LINE
8
layer0
10
1543.93080542048
20
-74.9030640293905
30
0
11
1543.93080542048
21
-78.3671656445283
31
0
0
LINE
8
layer0
10
1543.93080542048
20
-78.3671656445283
30
0
11
1549.83764934325
21
-74.7199932623673
31
0
0
LINE
8
layer0
10
1549.83764934325
20
-74.7199932623673
30
0
11
1549.83764934325
21
-71.2558916472296
31
0
0
LINE
8
layer0
10
1549.83764934325
20
-71.2558916472296
30
0
11
1543.93080542048
21
-74.9030640293905
31
0
0
LINE
8
layer0
10
1549.83764934325
20
-71.2558916472296
30
0
11
1549.83764934325
21
-74.7199932623673
31
0
0
LINE
8
layer0
10
1549.83764934325
20
-74.7199932623673
30
0
11
1554.58918255299
21
-70.6050447958105
31
0
0
LINE
8
layer0
10
1554.58918255299
20
-70.6050447958105
30
0
11
1554.58918255299
21
-67.1409431806727
31
0
0
LINE
8
layer0
10
1554.58918255299
20
-67.1409431806727
30
0
11
1549.83764934325
21
-71.2558916472296
31
0
0
LINE
8
layer0
10
1554.58918255299
20
-67.1409431806727
30
0
11
1554.58918255299
21
-70.6050447958105
31
0
0
LINE
8
layer0
10
1554.58918255299
20
-70.6050447958105
30
0
11
1563.49578473925
21
-62.8917010411034
31
0
0
LINE
8
layer0
10
1563.49578473925
20
-62.8917010411034
30
0
11
1563.49578473925
21
-59.4275994259656
31
0
0
LINE
8
layer0
10
1563.49578473925
20
-59.4275994259656
30
0
11
1554.58918255299
21
-67.1409431806727
31
0
0
LINE
8
layer0
10
1563.49578473925
20
-59.4275994259656
30
0
11
1563.49578473925
21
-62.8917010411034
31
0
0
LINE
8
layer0
10
1563.49578473925
20
-62.8917010411034
30
0
11
1573.88561564324
21
-53.8938435372249
31
0
0
LINE
8
layer0
10
1573.88561564324
20
-53.8938435372249
30
0
11
1573.88561564324
21
-50.4297419220873
31
0
0
LINE
8
layer0
10
1573.88561564324
20
-50.4297419220873
30
0
11
1563.49578473925
21
-59.4275994259656
31
0
0
LINE
8
layer0
10
1573.88561564324
20
-50.4297419220873
30
0
11
1573.88561564324
21
-53.8938435372249
31
0
0
LINE
8
layer0
10
1573.88561564324
20
-53.8938435372249
30
0
11
1591.08240693963
21
-39.0009854109707
31
0
0
LINE
8
layer0
10
1591.08240693963
20
-39.0009854109707
30
0
11
1591.08240693963
21
-35.5368837958329
31
0
0
LINE
8
layer0
10
1591.08240693963
20
-35.5368837958329
30
0
11
1573.88561564324
21
-50.4297419220873
31
0
0
LINE
8
layer0
10
1591.08240693963
20
-35.5368837958329
30
0
11
1591.08240693963
21
-39.0009854109707
31
0
0
LINE
8
layer0
10
1591.08240693963
20
-39.0009854109707
30
0
11
1659.54392206338
21
20.2884258677655
31
0
0
LINE
8
layer0
10
1659.54392206338
20
20.2884258677655
30
0
11
1659.54392206338
21
23.7525274829032
31
0
0
LINE
8
layer0
10
1659.54392206338
20
23.7525274829032
30
0
11
1591.08240693963
21
-35.5368837958329
31
0
0
LINE
8
layer0
10
1659.54392206338
20
23.7525274829032
30
0
11
1659.54392206338
21
20.2884258677655
31
0
0
LINE
8
layer0
10
1659.54392206338
20
20.2884258677655
30
0
11
1716.33764934325
21
69.4732364677417
31
0
0
LINE
8
layer0
10
1716.33764934325
20
69.4732364677417
30
0
11
1716.33764934325
21
72.9373380828795
31
0
0
LINE
8
layer0
10
1716.33764934325
20
72.9373380828795
30
0
11
1659.54392206338
21
23.7525274829032
31
0
0
LINE
8
layer0
10
1716.33764934325
20
72.9373380828795
30
0
11
1716.33764934325
21
69.4732364677417
31
0
0
LINE
8
layer0
10
1716.33764934325
20
69.4732364677417
30
0
11
1719.70131525173
21
73.8545611054753
31
0
0
LINE
8
layer0
10
1719.70131525173
20
73.8545611054753
30
0
11
1719.70131525173
21
77.3186627206131
31
0
0
LINE
8
layer0
10
1719.70131525173
20
77.3186627206131
30
0
11
1716.33764934325
21
72.9373380828795
31
0
0
LINE
8
layer0
10
1719.70131525173
20
77.3186627206131
30
0
11
1719.70131525173
21
73.8545611054753
31
0
0
LINE
8
layer0
10
1719.70131525173
20
73.8545611054753
30
0
11
1720.19254409076
21
78.5411634167565
31
0
0
LINE
8
layer0
10
1720.19254409076
20
78.5411634167565
30
0
11
1720.19254409076
21
82.0052650318942
31
0
0
LINE
8
layer0
10
1720.19254409076
20
82.0052650318942
30
0
11
1719.70131525173
21
77.3186627206131
31
0
0
LINE
8
layer0
10
1720.19254409076
20
82.0052650318942
30
0
11
1720.19254409076
21
78.5411634167565
31
0
0
LINE
8
layer0
10
1720.19254409076
20
78.5411634167565
30
0
11
1717.76325095899
21
83.0742861138787
31
0
0
LINE
8
layer0
10
1717.76325095899
20
83.0742861138787
30
0
11
1717.76325095899
21
86.5383877290164
31
0
0
LINE
8
layer0
10
1717.76325095899
20
86.5383877290164
30
0
11
1720.19254409076
21
82.0052650318942
31
0
0
LINE
8
layer0
10
1717.76325095899
20
86.5383877290164
30
0
11
1717.76325095899
21
83.0742861138787
31
0
0
LINE
8
layer0
10
1717.76325095899
20
83.0742861138787
30
0
11
1712.65123199404
21
87.0101955631246
31
0
0
LINE
8
layer0
10
1712.65123199404
20
87.0101955631246
30
0
11
1712.65123199404
21
90.4742971782623
31
0
0
LINE
8
layer0
10
1712.65123199404
20
90.4742971782623
30
0
11
1717.76325095899
21
86.5383877290164
31
0
0
LINE
8
layer0
10
1712.65123199404
20
90.4742971782623
30
0
11
1712.65123199404
21
87.0101955631246
31
0
0
LINE
8
layer0
10
1712.65123199404
20
87.0101955631246
30
0
11
1705.35688722972
21
89.9636175245083
31
0
0
LINE
8
layer0
10
1705.35688722972
20
89.9636175245083
30
0
11
1705.35688722972
21
93.4277191396461
31
0
0
LINE
8
layer0
10
1705.35688722972
20
93.4277191396461
30
0
11
1712.65123199404
21
90.4742971782623
31
0
0
LINE
8
layer0
10
1664.37612511618
20
84.4732364677417
30
0
11
1664.37612511618
21
87.9373380828795
31
0
0
LINE
8
layer0
10
1664.37612511618
20
87.9373380828795
30
0
11
1382.91786888624
21
169.187338082879
31
0
0
LINE
8
layer0
10
1382.91786888624
20
169.187338082879
30
0
11
1382.91786888624
21
165.723236467742
31
0
0
LINE
8
layer0
10
1382.91786888624
20
165.723236467742
30
0
11
1664.37612511618
21
84.4732364677417
31
0
0
LINE
8
layer0
10
1382.91786888624
20
165.723236467742
30
0
11
1382.91786888624
21
169.187338082879
31
0
0
LINE
8
layer0
10
1382.91786888624
20
169.187338082879
30
0
11
1374.15521961077
21
170.86917103712
31
0
0
LINE
8
layer0
10
1374.15521961077
20
170.86917103712
30
0
11
1374.15521961077
21
167.405069421982
31
0
0
LINE
8
layer0
10
1374.15521961077
20
167.405069421982
30
0
11
1382.91786888624
21
165.723236467742
31
0
0
LINE
8
layer0
10
1374.15521961077
20
167.405069421982
30
0
11
1374.15521961077
21
170.86917103712
31
0
0
LINE
8
layer0
10
1374.15521961077
20
170.86917103712
30
0
11
1364.78201498821
21
171.114785456637
31
0
0
LINE
8
layer0
10
1364.78201498821
20
171.114785456637
30
0
11
1364.78201498821
21
167.650683841499
31
0
0
LINE
8
layer0
10
1364.78201498821
20
167.650683841499
30
0
11
1374.15521961077
21
167.405069421982
31
0
0
LINE
8
layer0
10
1364.78201498821
20
167.650683841499
30
0
11
1364.78201498821
21
171.114785456637
31
0
0
LINE
8
layer0
10
1364.78201498821
20
171.114785456637
30
0
11
1355.71576959397
21
169.900138890752
31
0
0
LINE
8
layer0
10
1355.71576959397
20
169.900138890752
30
0
11
1355.71576959397
21
166.436037275614
31
0
0
LINE
8
layer0
10
1355.71576959397
20
166.436037275614
30
0
11
1364.78201498821
21
167.650683841499
31
0
0
LINE
8
layer0
10
1355.71576959397
20
166.436037275614
30
0
11
1355.71576959397
21
169.900138890752
31
0
0
LINE
8
layer0
10
1355.71576959397
20
169.900138890752
30
0
11
1347.84395069547
21
167.344129408274
31
0
0
LINE
8
layer0
10
1347.84395069547
20
167.344129408274
30
0
11
1347.84395069547
21
163.880027793136
31
0
0
LINE
8
layer0
10
1347.84395069547
20
163.880027793136
30
0
11
1355.71576959397
21
166.436037275614
31
0
0
LINE
8
layer0
10
1347.84395069547
20
163.880027793136
30
0
11
1347.84395069547
21
167.344129408274
31
0
0
LINE
8
layer0
10
1347.84395069547
20
167.344129408274
30
0
11
1341.93710677271
21
163.696957026113
31
0
0
LINE
8
layer0
10
1341.93710677271
20
163.696957026113
30
0
11
1341.93710677271
21
160.232855410975
31
0
0
LINE
8
layer0
10
1341.93710677271
20
160.232855410975
30
0
11
1347.84395069547
21
163.880027793136
31
0
0
LINE
8
layer0
10
1341.93710677271
20
160.232855410975
30
0
11
1341.93710677271
21
163.696957026113
31
0
0
LINE
8
layer0
10
1341.93710677271
20
163.696957026113
30
0
11
1205.43710677271
21
45.484489409537
31
0
0
LINE
8
layer0
10
1205.43710677271
20
45.484489409537
30
0
11
1205.43710677271
21
42.0203877943992
31
0
0
LINE
8
layer0
10
1205.43710677271
20
42.0203877943992
30
0
11
1341.93710677271
21
160.232855410975
31
0
0
LINE
8
layer0
10
1205.43710677271
20
42.0203877943992
30
0
11
1205.43710677271
21
45.484489409537
31
0
0
LINE
8
layer0
10
1205.43710677271
20
45.484489409537
30
0
11
1202.07344086423
21
41.1031647718033
31
0
0
LINE
8
layer0
10
1202.07344086423
20
41.1031647718033
30
0
11
1202.07344086423
21
37.6390631566656
31
0
0
LINE
8
layer0
10
1202.07344086423
20
37.6390631566656
30
0
11
1205.43710677271
21
42.0203877943992
31
0
0
LINE
8
layer0
10
1202.07344086423
20
37.6390631566656
30
0
11
1202.07344086423
21
41.1031647718033
31
0
0
LINE
8
layer0
10
1202.07344086423
20
41.1031647718033
30
0
11
1201.58221202519
21
36.4165624605222
31
0
0
LINE
8
layer0
10
1201.58221202519
20
36.4165624605222
30
0
11
1201.58221202519
21
32.9524608453844
31
0
0
LINE
8
layer0
10
1201.58221202519
20
32.9524608453844
30
0
11
1202.07344086423
21
37.6390631566656
31
0
0
LINE
8
layer0
10
1201.58221202519
20
32.9524608453844
30
0
11
1201.58221202519
21
36.4165624605222
31
0
0
LINE
8
layer0
10
1201.58221202519
20
36.4165624605222
30
0
11
1204.01150515696
21
31.8834397634
31
0
0
LINE
8
layer0
10
1204.01150515696
20
31.8834397634
30
0
11
1204.01150515696
21
28.4193381482622
31
0
0
LINE
8
layer0
10
1204.01150515696
20
28.4193381482622
30
0
11
1201.58221202519
21
32.9524608453844
31
0
0
LINE
8
layer0
10
1204.01150515696
20
28.4193381482622
30
0
11
1204.01150515696
21
31.8834397634
31
0
0
LINE
8
layer0
10
1204.01150515696
20
31.8834397634
30
0
11
1209.12352412192
21
27.9475303141541
31
0
0
LINE
8
layer0
10
1209.12352412192
20
27.9475303141541
30
0
11
1209.12352412192
21
24.4834286990164
31
0
0
LINE
8
layer0
10
1209.12352412192
20
24.4834286990164
30
0
11
1204.01150515696
21
28.4193381482622
31
0
0
LINE
8
layer0
10
1209.12352412192
20
24.4834286990164
30
0
11
1209.12352412192
21
27.9475303141542
31
0
0
LINE
8
layer0
10
1209.12352412192
20
27.9475303141542
30
0
11
1216.41786888624
21
24.9941083527704
31
0
0
LINE
8
layer0
10
1216.41786888624
20
24.9941083527704
30
0
11
1216.41786888624
21
21.5300067376327
31
0
0
LINE
8
layer0
10
1216.41786888624
20
21.5300067376327
30
0
11
1209.12352412192
21
24.4834286990164
31
0
0
LINE
8
layer0
10
1216.41786888624
20
21.5300067376327
30
0
11
1216.41786888624
21
24.9941083527705
31
0
0
LINE
8
layer0
10
1216.41786888624
20
24.9941083527705
30
0
11
1497.87612511618
21
-56.2558916472296
31
0
0
LINE
8
layer0
10
1497.87612511618
20
-56.2558916472296
30
0
11
1497.87612511618
21
-59.7199932623673
31
0
0
LINE
8
layer0
10
1497.87612511618
20
-59.7199932623673
30
0
11
1216.41786888624
21
21.5300067376327
31
0
0
LINE
8
layer0
10
1497.87612511618
20
-59.7199932623673
30
0
11
1497.87612511618
21
-56.2558916472296
31
0
0
LINE
8
layer0
10
1497.87612511618
20
-56.2558916472296
30
0
11
1506.63877439165
21
-57.9377246014701
31
0
0
LINE
8
layer0
10
1506.63877439165
20
-57.9377246014701
30
0
11
1506.63877439165
21
-61.4018262166078
31
0
0
LINE
8
layer0
10
1506.63877439165
20
-61.4018262166078
30
0
11
1497.87612511618
21
-59.7199932623673
31
0
0
LINE
8
layer0
10
1506.63877439165
20
-61.4018262166078
30
0
11
1506.63877439165
21
-57.9377246014701
31
0
0
LINE
8
layer0
10
1506.63877439165
20
-57.9377246014701
30
0
11
1516.01197901421
21
-58.1833390209871
31
0
0
LINE
8
layer0
10
1516.01197901421
20
-58.1833390209871
30
0
11
1516.01197901421
21
-61.6474406361249
31
0
0
LINE
8
layer0
10
1516.01197901421
20
-61.6474406361249
30
0
11
1506.63877439165
21
-61.4018262166078
31
0
0
LINE
8
layer0
10
1516.01197901421
20
-61.6474406361249
30
0
11
1516.01197901421
21
-58.1833390209871
31
0
0
LINE
8
layer0
10
1516.01197901421
20
-58.1833390209871
30
0
11
1525.07822440846
21
-56.9686924551021
31
0
0
LINE
8
layer0
10
1525.07822440846
20
-56.9686924551021
30
0
11
1525.07822440846
21
-60.4327940702398
31
0
0
LINE
8
layer0
10
1525.07822440846
20
-60.4327940702398
30
0
11
1516.01197901421
21
-61.6474406361249
31
0
0
LINE
8
layer0
10
1525.07822440846
20
-60.4327940702398
30
0
11
1525.07822440846
21
-56.9686924551021
31
0
0
LINE
8
layer0
10
1525.07822440846
20
-56.9686924551021
30
0
11
1532.95004330695
21
-54.412682972624
31
0
0
LINE
8
layer0
10
1532.95004330695
20
-54.412682972624
30
0
11
1532.95004330695
21
-57.8767845877617
31
0
0
LINE
8
layer0
10
1532.95004330695
20
-57.8767845877617
30
0
11
1525.07822440846
21
-60.4327940702398
31
0
0
LINE
8
layer0
10
1532.95004330695
20
-57.8767845877617
30
0
11
1532.95004330695
21
-54.412682972624
31
0
0
LINE
8
layer0
10
1532.95004330695
20
-54.412682972624
30
0
11
1538.85688722972
21
-50.765510590463
31
0
0
LINE
8
layer0
10
1538.85688722972
20
-50.765510590463
30
0
11
1538.85688722972
21
-54.2296122056007
31
0
0
LINE
8
layer0
10
1538.85688722972
20
-54.2296122056007
30
0
11
1532.95004330695
21
-57.8767845877617
31
0
0
LINE
8
layer0
10
1538.85688722972
20
-54.2296122056007
30
0
11
1538.85688722972
21
-50.765510590463
31
0
0
LINE
8
layer0
10
1538.85688722972
20
-50.765510590463
30
0
11
1675.35688722972
21
67.4469570261129
31
0
0
LINE
8
layer0
10
1675.35688722972
20
67.4469570261129
30
0
11
1675.35688722972
21
63.9828554109752
31
0
0
LINE
8
layer0
10
1675.35688722972
20
63.9828554109752
30
0
11
1538.85688722972
21
-54.2296122056007
31
0
0
LINE
8
layer0
10
1675.35688722972
20
63.9828554109752
30
0
11
1675.35688722972
21
67.4469570261129
31
0
0
LINE
8
layer0
10
1675.35688722972
20
67.4469570261129
30
0
11
1678.7205531382
21
71.8282816638465
31
0
0
LINE
8
layer0
10
1678.7205531382
20
71.8282816638465
30
0
11
1678.7205531382
21
68.3641800487088
31
0
0
LINE
8
layer0
10
1678.7205531382
20
68.3641800487088
30
0
11
1675.35688722972
21
63.9828554109752
31
0
0
LINE
8
layer0
10
1678.7205531382
20
68.3641800487088
30
0
11
1678.7205531382
21
71.8282816638465
31
0
0
LINE
8
layer0
10
1678.7205531382
20
71.8282816638465
30
0
11
1679.21178197723
21
76.5148839751276
31
0
0
LINE
8
layer0
10
1679.21178197723
20
76.5148839751276
30
0
11
1679.21178197723
21
73.0507823599899
31
0
0
LINE
8
layer0
10
1679.21178197723
20
73.0507823599899
30
0
11
1678.7205531382
21
68.3641800487088
31
0
0
LINE
8
layer0
10
1679.21178197723
20
73.0507823599899
30
0
11
1679.21178197723
21
76.5148839751276
31
0
0
LINE
8
layer0
10
1679.21178197723
20
76.5148839751276
30
0
11
1676.78248884546
21
81.0480066722499
31
0
0
LINE
8
layer0
10
1676.78248884546
20
81.0480066722499
30
0
11
1676.78248884546
21
77.5839050571121
31
0
0
LINE
8
layer0
10
1676.78248884546
20
77.5839050571121
30
0
11
1679.21178197723
21
73.0507823599899
31
0
0
LINE
8
layer0
10
1676.78248884546
20
77.5839050571121
30
0
11
1676.78248884546
21
81.0480066722499
31
0
0
LINE
8
layer0
10
1676.78248884546
20
81.0480066722499
30
0
11
1671.6704698805
21
84.9839161214957
31
0
0
LINE
8
layer0
10
1671.6704698805
20
84.9839161214957
30
0
11
1671.6704698805
21
81.519814506358
31
0
0
LINE
8
layer0
10
1671.6704698805
20
81.519814506358
30
0
11
1676.78248884546
21
77.5839050571121
31
0
0
LINE
8
layer0
10
1671.6704698805
20
81.519814506358
30
0
11
1671.6704698805
21
84.9839161214957
31
0
0
LINE
8
layer0
10
1671.6704698805
20
84.9839161214957
30
0
11
1664.37612511618
21
87.9373380828795
31
0
0
LINE
8
layer0
10
1664.37612511618
20
87.9373380828795
30
0
11
1664.37612511618
21
84.4732364677417
31
0
0
LINE
8
layer0
10
1664.37612511618
20
84.4732364677417
30
0
11
1671.6704698805
21
81.519814506358
31
0
0
LINE
8
layer0
10
1705.35688722972
20
93.4277191396461
30
0
11
1371.93710677271
21
189.677719139646
31
0
0
LINE
8
layer0
10
1371.93710677271
20
189.677719139646
30
0
11
1363.17445749724
21
191.359552093887
31
0
0
LINE
8
layer0
10
1363.17445749724
20
191.359552093887
30
0
11
1353.80125287468
21
191.605166513404
31
0
0
LINE
8
layer0
10
1353.80125287468
20
191.605166513404
30
0
11
1344.73500748043
21
190.390519947518
31
0
0
LINE
8
layer0
10
1344.73500748043
20
190.390519947518
30
0
11
1336.86318858194
21
187.83451046504
31
0
0
LINE
8
layer0
10
1336.86318858194
20
187.83451046504
30
0
11
1330.95634465917
21
184.187338082879
31
0
0
LINE
8
layer0
10
1330.95634465917
20
184.187338082879
30
0
11
1330.95634465917
21
184.187338082879
31
0
0
LINE
8
layer0
10
1330.95634465917
20
184.187338082879
30
0
11
1716.33764934325
21
72.9373380828795
31
0
0
LINE
8
layer0
10
1716.33764934325
20
72.9373380828795
30
0
11
1719.70131525173
21
77.3186627206131
31
0
0
LINE
8
layer0
10
1719.70131525173
20
77.3186627206131
30
0
11
1720.19254409076
21
82.0052650318942
31
0
0
LINE
8
layer0
10
1720.19254409076
20
82.0052650318942
30
0
11
1717.76325095899
21
86.5383877290164
31
0
0
LINE
8
layer0
10
1717.76325095899
20
86.5383877290164
30
0
11
1712.65123199404
21
90.4742971782623
31
0
0
LINE
8
layer0
10
1712.65123199404
20
90.4742971782623
30
0
11
1705.35688722972
21
93.4277191396461
31
0
0
LINE
8
layer0
10
1326.20481144944
20
180.072389616323
30
0
11
1382.91786888624
21
169.187338082879
31
0
0
LINE
8
layer0
10
1382.91786888624
20
169.187338082879
30
0
11
1330.95634465917
21
184.187338082879
31
0
0
LINE
8
layer0
10
1330.95634465917
20
184.187338082879
30
0
11
1326.20481144944
21
180.072389616323
31
0
0
LINE
8
layer0
10
1317.29820926317
20
172.359045861615
30
0
11
1374.15521961077
21
170.86917103712
31
0
0
LINE
8
layer0
10
1374.15521961077
20
170.86917103712
30
0
11
1326.20481144944
21
180.072389616323
31
0
0
LINE
8
layer0
10
1326.20481144944
20
180.072389616323
30
0
11
1317.29820926317
21
172.359045861615
31
0
0
LINE
8
layer0
10
1306.90837835919
20
163.361188357737
30
0
11
1364.78201498821
21
171.114785456637
31
0
0
LINE
8
layer0
10
1364.78201498821
20
171.114785456637
30
0
11
1317.29820926317
21
172.359045861615
31
0
0
LINE
8
layer0
10
1317.29820926317
20
172.359045861615
30
0
11
1306.90837835919
21
163.361188357737
31
0
0
LINE
8
layer0
10
1289.71158706279
20
148.468330231483
30
0
11
1355.71576959397
21
169.900138890752
31
0
0
LINE
8
layer0
10
1355.71576959397
20
169.900138890752
30
0
11
1306.90837835919
21
163.361188357737
31
0
0
LINE
8
layer0
10
1306.90837835919
20
163.361188357737
30
0
11
1289.71158706279
21
148.468330231483
31
0
0
LINE
8
layer0
10
1221.25007193905
20
89.1789189527469
30
0
11
1347.84395069547
21
167.344129408274
31
0
0
LINE
8
layer0
10
1347.84395069547
20
167.344129408274
30
0
11
1289.71158706279
21
148.468330231483
31
0
0
LINE
8
layer0
10
1289.71158706279
20
148.468330231483
30
0
11
1221.25007193905
21
89.1789189527469
31
0
0
LINE
8
layer0
10
1175.43710677271
20
19.5037272960038
30
0
11
1341.93710677271
21
163.696957026113
31
0
0
LINE
8
layer0
10
1341.93710677271
20
163.696957026113
30
0
11
1221.25007193905
21
89.1789189527469
31
0
0
LINE
8
layer0
10
1221.25007193905
20
89.1789189527469
30
0
11
1164.45634465917
21
39.9941083527704
31
0
0
LINE
8
layer0
10
1164.45634465917
20
39.9941083527704
30
0
11
1161.09267875069
21
35.6127837150368
31
0
0
LINE
8
layer0
10
1161.09267875069
20
35.6127837150368
30
0
11
1160.60144991166
21
30.9261814037556
31
0
0
LINE
8
layer0
10
1160.60144991166
20
30.9261814037556
30
0
11
1163.03074304343
21
26.3930587066334
31
0
0
LINE
8
layer0
10
1163.03074304343
20
26.3930587066334
30
0
11
1168.14276200839
21
22.4571492573875
31
0
0
LINE
8
layer0
10
1168.14276200839
20
22.4571492573875
30
0
11
1175.43710677271
21
19.5037272960038
31
0
0
LINE
8
layer0
10
1175.43710677271
20
19.5037272960038
30
0
11
1175.43710677271
21
19.5037272960038
31
0
0
LINE
8
layer0
10
1183.66700370582
20
17.1279606911359
30
0
11
1205.43710677271
21
45.484489409537
31
0
0
LINE
8
layer0
10
1205.43710677271
20
45.484489409537
30
0
11
1175.43710677271
21
19.5037272960038
31
0
0
LINE
8
layer0
10
1175.43710677271
20
19.5037272960038
30
0
11
1183.66700370582
21
17.1279606911359
31
0
0
LINE
8
layer0
10
1199.09369121524
20
12.6746595980035
30
0
11
1202.07344086423
21
41.1031647718034
31
0
0
LINE
8
layer0
10
1202.07344086423
20
41.1031647718034
30
0
11
1183.66700370582
21
17.1279606911359
31
0
0
LINE
8
layer0
10
1183.66700370582
20
17.1279606911359
30
0
11
1199.09369121524
21
12.6746595980035
31
0
0
LINE
8
layer0
10
1217.08940622299
20
7.47974414600947
30
0
11
1201.58221202519
21
36.4165624605222
31
0
0
LINE
8
layer0
10
1201.58221202519
20
36.4165624605222
30
0
11
1199.09369121524
21
12.6746595980035
31
0
0
LINE
8
layer0
10
1199.09369121524
20
12.6746595980035
30
0
11
1217.08940622299
21
7.47974414600947
31
0
0
LINE
8
layer0
10
1246.8751224755
20
-1.11865150218637
30
0
11
1204.01150515696
21
31.8834397634
31
0
0
LINE
8
layer0
10
1204.01150515696
20
31.8834397634
30
0
11
1217.08940622299
21
7.47974414600947
31
0
0
LINE
8
layer0
10
1217.08940622299
20
7.47974414600947
30
0
11
1246.8751224755
21
-1.11865150218637
31
0
0
LINE
8
layer0
10
1365.45394503297
20
-35.349409064059
30
0
11
1209.12352412192
21
27.9475303141542
31
0
0
LINE
8
layer0
10
1209.12352412192
20
27.9475303141542
30
0
11
1246.8751224755
21
-1.11865150218637
31
0
0
LINE
8
layer0
10
1246.8751224755
20
-1.11865150218637
30
0
11
1365.45394503297
21
-35.349409064059
31
0
0
LINE
8
layer0
10
1549.83764934325
20
-71.2558916472296
30
0
11
1216.41786888624
21
24.9941083527705
31
0
0
LINE
8
layer0
10
1216.41786888624
20
24.9941083527705
30
0
11
1365.45394503297
21
-35.349409064059
31
0
0
LINE
8
layer0
10
1365.45394503297
20
-35.349409064059
30
0
11
1508.85688722972
21
-76.7462727039962
31
0
0
LINE
8
layer0
10
1508.85688722972
20
-76.7462727039962
30
0
11
1517.61953650518
21
-78.4281056582367
31
0
0
LINE
8
layer0
10
1517.61953650518
20
-78.4281056582367
30
0
11
1526.99274112775
21
-78.6737200777537
31
0
0
LINE
8
layer0
10
1526.99274112775
20
-78.6737200777537
30
0
11
1536.05898652199
21
-77.4590735118686
31
0
0
LINE
8
layer0
10
1536.05898652199
20
-77.4590735118686
30
0
11
1543.93080542048
21
-74.9030640293905
31
0
0
LINE
8
layer0
10
1543.93080542048
20
-74.9030640293905
30
0
11
1549.83764934325
21
-71.2558916472296
31
0
0
LINE
8
layer0
10
1549.83764934325
20
-71.2558916472296
30
0
11
1549.83764934325
21
-71.2558916472296
31
0
0
LINE
8
layer0
10
1554.58918255299
20
-67.1409431806727
30
0
11
1497.87612511618
21
-56.2558916472296
31
0
0
LINE
8
layer0
10
1497.87612511618
20
-56.2558916472296
30
0
11
1549.83764934325
21
-71.2558916472296
31
0
0
LINE
8
layer0
10
1549.83764934325
20
-71.2558916472296
30
0
11
1554.58918255299
21
-67.1409431806727
31
0
0
LINE
8
layer0
10
1563.49578473925
20
-59.4275994259656
30
0
11
1506.63877439165
21
-57.9377246014701
31
0
0
LINE
8
layer0
10
1506.63877439165
20
-57.9377246014701
30
0
11
1554.58918255299
21
-67.1409431806727
31
0
0
LINE
8
layer0
10
1554.58918255299
20
-67.1409431806727
30
0
11
1563.49578473925
21
-59.4275994259656
31
0
0
LINE
8
layer0
10
1573.88561564324
20
-50.4297419220873
30
0
11
1516.01197901421
21
-58.1833390209871
31
0
0
LINE
8
layer0
10
1516.01197901421
20
-58.1833390209871
30
0
11
1563.49578473925
21
-59.4275994259656
31
0
0
LINE
8
layer0
10
1563.49578473925
20
-59.4275994259656
30
0
11
1573.88561564324
21
-50.4297419220873
31
0
0
LINE
8
layer0
10
1591.08240693963
20
-35.5368837958329
30
0
11
1525.07822440846
21
-56.968692455102
31
0
0
LINE
8
layer0
10
1525.07822440846
20
-56.968692455102
30
0
11
1573.88561564324
21
-50.4297419220873
31
0
0
LINE
8
layer0
10
1573.88561564324
20
-50.4297419220873
30
0
11
1591.08240693963
21
-35.5368837958329
31
0
0
LINE
8
layer0
10
1659.54392206338
20
23.7525274829032
30
0
11
1532.95004330695
21
-54.4126829726239
31
0
0
LINE
8
layer0
10
1532.95004330695
20
-54.4126829726239
30
0
11
1591.08240693963
21
-35.5368837958329
31
0
0
LINE
8
layer0
10
1591.08240693963
20
-35.5368837958329
30
0
11
1659.54392206338
21
23.7525274829032
31
0
0
LINE
8
layer0
10
1716.33764934325
20
72.9373380828795
30
0
11
1690.35688722972
21
80.4373380828795
31
0
0
LINE
8
layer0
10
1690.35688722972
20
80.4373380828795
30
0
11
1538.85688722972
21
-50.7655105904629
31
0
0
LINE
8
layer0
10
1538.85688722972
20
-50.7655105904629
30
0
11
1659.54392206338
21
23.7525274829032
31
0
0
LINE
8
layer0
10
1659.54392206338
20
23.7525274829032
30
0
11
1716.33764934325
21
72.9373380828795
31
0
0
LINE
8
layer0
10
1716.33764934325
20
72.9373380828795
30
0
11
1716.33764934325
21
72.9373380828795
31
0
0
LINE
8
layer0
10
1686.24193876316
20
81.6252213853135
30
0
11
1675.35688722972
21
67.4469570261128
31
0
0
LINE
8
layer0
10
1675.35688722972
20
67.4469570261128
30
0
11
1690.35688722972
21
80.4373380828795
31
0
0
LINE
8
layer0
10
1690.35688722972
20
80.4373380828795
30
0
11
1686.24193876316
21
81.6252213853135
31
0
0
LINE
8
layer0
10
1679.93816228129
20
83.4449649096717
30
0
11
1678.7205531382
21
71.8282816638465
31
0
0
LINE
8
layer0
10
1678.7205531382
20
71.8282816638465
30
0
11
1686.24193876316
21
81.6252213853135
31
0
0
LINE
8
layer0
10
1686.24193876316
20
81.6252213853135
30
0
11
1679.93816228129
21
83.4449649096717
31
0
0
LINE
8
layer0
10
1674.68534989296
20
84.9613212328738
30
0
11
1679.21178197723
21
76.5148839751276
31
0
0
LINE
8
layer0
10
1679.21178197723
20
76.5148839751276
30
0
11
1679.93816228129
21
83.4449649096717
31
0
0
LINE
8
layer0
10
1679.93816228129
20
83.4449649096717
30
0
11
1674.68534989296
21
84.9613212328738
31
0
0
LINE
8
layer0
10
1669.90898819197
20
86.340138089781
30
0
11
1676.78248884546
21
81.0480066722498
31
0
0
LINE
8
layer0
10
1676.78248884546
20
81.0480066722498
30
0
11
1674.68534989296
21
84.9613212328738
31
0
0
LINE
8
layer0
10
1674.68534989296
20
84.9613212328738
30
0
11
1669.90898819197
21
86.340138089781
31
0
0
LINE
8
layer0
10
1664.37612511618
20
87.9373380828795
30
0
11
1671.6704698805
21
84.9839161214957
31
0
0
LINE
8
layer0
10
1671.6704698805
20
84.9839161214957
30
0
11
1669.90898819197
21
86.340138089781
31
0
0
LINE
8
layer0
10
1669.90898819197
20
86.340138089781
30
0
11
1664.37612511618
21
87.9373380828795
31
0
0
ENDBLK
0
BLOCK
8
layer0
2
PF_OBJECT64
70
0
10
0
20
0
30
0
0
LINE
8
layer0
10
1382.00280537678
20
37.5269576548065
30
0
11
1672.12131564457
21
-46.2230423451936
31
0
0
LINE
8
layer0
10
1672.12131564457
20
-46.2230423451936
30
0
11
1679.41566040889
21
-49.1764643065773
31
0
0
LINE
8
layer0
10
1679.41566040889
20
-49.1764643065773
30
0
11
1684.52767937384
21
-53.1123737558231
31
0
0
LINE
8
layer0
10
1684.52767937384
20
-53.1123737558231
30
0
11
1686.95697250561
21
-57.6454964529453
31
0
0
LINE
8
layer0
10
1686.95697250561
20
-57.6454964529453
30
0
11
1686.46574366658
21
-62.3320987642265
31
0
0
LINE
8
layer0
10
1686.46574366658
20
-62.3320987642265
30
0
11
1683.1020777581
21
-66.7134234019601
31
0
0
LINE
8
layer0
10
1683.1020777581
20
-66.7134234019601
30
0
11
1541.6020777581
21
-189.256018037458
31
0
0
LINE
8
layer0
10
1541.6020777581
20
-189.256018037458
30
0
11
1535.69523383533
21
-192.903190419619
31
0
0
LINE
8
layer0
10
1535.69523383533
20
-192.903190419619
30
0
11
1527.82341493684
21
-195.459199902097
31
0
0
LINE
8
layer0
10
1527.82341493684
20
-195.459199902097
30
0
11
1518.7571695426
21
-196.673846467982
31
0
0
LINE
8
layer0
10
1518.7571695426
20
-196.673846467982
30
0
11
1509.38396492003
21
-196.428232048465
31
0
0
LINE
8
layer0
10
1509.38396492003
20
-196.428232048465
30
0
11
1500.62131564457
21
-194.746399094225
31
0
0
LINE
8
layer0
10
1500.62131564457
20
-194.746399094225
30
0
11
1210.50280537678
21
-110.996399094225
31
0
0
LINE
8
layer0
10
1210.50280537678
20
-110.996399094225
30
0
11
1203.20846061246
21
-108.042977132841
31
0
0
LINE
8
layer0
10
1203.20846061246
20
-108.042977132841
30
0
11
1198.0964416475
21
-104.107067683595
31
0
0
LINE
8
layer0
10
1198.0964416475
20
-104.107067683595
30
0
11
1195.66714851573
21
-99.573944986473
31
0
0
LINE
8
layer0
10
1195.66714851573
20
-99.573944986473
30
0
11
1196.15837735477
21
-94.8873426751918
31
0
0
LINE
8
layer0
10
1196.15837735477
20
-94.8873426751918
30
0
11
1199.52204326325
21
-90.5060180374581
31
0
0
LINE
8
layer0
10
1199.52204326325
20
-90.5060180374581
30
0
11
1341.02204326325
21
32.0365765980399
31
0
0
LINE
8
layer0
10
1341.02204326325
20
32.0365765980399
30
0
11
1346.92888718601
21
35.6837489802008
31
0
0
LINE
8
layer0
10
1346.92888718601
20
35.6837489802008
30
0
11
1354.80070608451
21
38.2397584626788
31
0
0
LINE
8
layer0
10
1354.80070608451
20
38.2397584626788
30
0
11
1363.86695147875
21
39.4544050285639
31
0
0
LINE
8
layer0
10
1363.86695147875
20
39.4544050285639
30
0
11
1373.24015610131
21
39.2087906090469
31
0
0
LINE
8
layer0
10
1373.24015610131
20
39.2087906090469
30
0
11
1382.00280537678
21
37.5269576548065
31
0
0
LINE
8
layer0
10
1382.00280537678
20
41.8570846737287
30
0
11
1672.12131564457
21
-41.8929153262714
31
0
0
LINE
8
layer0
10
1672.12131564457
20
-41.8929153262714
30
0
11
1672.12131564457
21
-46.2230423451936
31
0
0
LINE
8
layer0
10
1672.12131564457
20
-46.2230423451936
30
0
11
1382.00280537678
21
37.5269576548065
31
0
0
LINE
8
layer0
10
1382.00280537678
20
37.5269576548065
30
0
11
1382.00280537678
21
41.8570846737287
31
0
0
LINE
8
layer0
10
1672.12131564457
20
83.6807682224723
30
0
11
1672.12131564457
21
-41.8929153262714
31
0
0
LINE
8
layer0
10
1672.12131564457
20
-41.8929153262714
30
0
11
1382.00280537678
21
41.8570846737287
31
0
0
LINE
8
layer0
10
1382.00280537678
20
41.8570846737287
30
0
11
1382.00280537678
21
167.430768222472
31
0
0
LINE
8
layer0
10
1382.00280537678
20
167.430768222472
30
0
11
1672.12131564457
21
83.6807682224723
31
0
0
LINE
8
layer0
10
1373.24015610131
20
43.5389176279691
30
0
11
1382.00280537678
21
41.8570846737287
31
0
0
LINE
8
layer0
10
1382.00280537678
20
41.8570846737287
30
0
11
1382.00280537678
21
37.5269576548065
31
0
0
LINE
8
layer0
10
1382.00280537678
20
37.5269576548065
30
0
11
1373.24015610131
21
39.2087906090469
31
0
0
LINE
8
layer0
10
1373.24015610131
20
39.2087906090469
30
0
11
1373.24015610131
21
43.5389176279691
31
0
0
LINE
8
layer0
10
1382.00280537678
20
167.430768222472
30
0
11
1382.00280537678
21
41.8570846737287
31
0
0
LINE
8
layer0
10
1382.00280537678
20
41.8570846737287
30
0
11
1373.24015610131
21
43.5389176279691
31
0
0
LINE
8
layer0
10
1373.24015610131
20
43.5389176279691
30
0
11
1373.24015610131
21
169.112601176713
31
0
0
LINE
8
layer0
10
1373.24015610131
20
169.112601176713
30
0
11
1382.00280537678
21
167.430768222472
31
0
0
LINE
8
layer0
10
1363.86695147875
20
43.7845320474862
30
0
11
1373.24015610131
21
43.5389176279691
31
0
0
LINE
8
layer0
10
1373.24015610131
20
43.5389176279691
30
0
11
1373.24015610131
21
39.2087906090469
31
0
0
LINE
8
layer0
10
1373.24015610131
20
39.2087906090469
30
0
11
1363.86695147875
21
39.4544050285639
31
0
0
LINE
8
layer0
10
1363.86695147875
20
39.4544050285639
30
0
11
1363.86695147875
21
43.7845320474862
31
0
0
LINE
8
layer0
10
1373.24015610131
20
169.112601176713
30
0
11
1373.24015610131
21
43.5389176279691
31
0
0
LINE
8
layer0
10
1373.24015610131
20
43.5389176279691
30
0
11
1370.97076591223
21
43.5983844780373
31
0
0
LINE
8
layer0
10
1370.97076591223
20
43.5983844780373
30
0
11
1370.97076591223
21
169.172068026781
31
0
0
LINE
8
layer0
10
1370.97076591223
20
169.172068026781
30
0
11
1373.24015610131
21
169.112601176713
31
0
0
LINE
8
layer0
10
1370.97076591223
20
169.172068026781
30
0
11
1370.97076591223
21
43.5983844780373
31
0
0
LINE
8
layer0
10
1370.97076591223
20
43.5983844780373
30
0
11
1363.99669339625
21
43.781132304598
31
0
0
LINE
8
layer0
10
1363.99669339625
20
43.781132304598
30
0
11
1363.99669339625
21
169.354815853342
31
0
0
LINE
8
layer0
10
1363.99669339625
20
169.354815853342
30
0
11
1370.97076591223
21
169.172068026781
31
0
0
LINE
8
layer0
10
1363.99669339625
20
169.354815853342
30
0
11
1363.99669339625
21
43.781132304598
31
0
0
LINE
8
layer0
10
1363.99669339625
20
43.781132304598
30
0
11
1363.86695147875
21
43.7845320474862
31
0
0
LINE
8
layer0
10
1363.86695147875
20
43.7845320474862
30
0
11
1363.86695147875
21
169.35821559623
31
0
0
LINE
8
layer0
10
1363.86695147875
20
169.35821559623
30
0
11
1363.99669339625
21
169.354815853342
31
0
0
LINE
8
layer0
10
1354.80070608451
20
42.569885481601
30
0
11
1363.86695147875
21
43.7845320474862
31
0
0
LINE
8
layer0
10
1363.86695147875
20
43.7845320474862
30
0
11
1363.86695147875
21
39.4544050285639
31
0
0
LINE
8
layer0
10
1363.86695147875
20
39.4544050285639
30
0
11
1354.80070608451
21
38.2397584626788
31
0
0
LINE
8
layer0
10
1354.80070608451
20
38.2397584626788
30
0
11
1354.80070608451
21
42.569885481601
31
0
0
LINE
8
layer0
10
1363.86695147875
20
169.35821559623
30
0
11
1363.86695147875
21
43.7845320474862
31
0
0
LINE
8
layer0
10
1363.86695147875
20
43.7845320474862
30
0
11
1354.80070608451
21
42.569885481601
31
0
0
LINE
8
layer0
10
1354.80070608451
20
42.569885481601
30
0
11
1354.80070608451
21
168.143569030345
31
0
0
LINE
8
layer0
10
1354.80070608451
20
168.143569030345
30
0
11
1363.86695147875
21
169.35821559623
31
0
0
LINE
8
layer0
10
1346.92888718601
20
40.013875999123
30
0
11
1354.80070608451
21
42.569885481601
31
0
0
LINE
8
layer0
10
1354.80070608451
20
42.569885481601
30
0
11
1354.80070608451
21
38.2397584626788
31
0
0
LINE
8
layer0
10
1354.80070608451
20
38.2397584626788
30
0
11
1346.92888718601
21
35.6837489802008
31
0
0
LINE
8
layer0
10
1346.92888718601
20
35.6837489802008
30
0
11
1346.92888718601
21
40.013875999123
31
0
0
LINE
8
layer0
10
1354.80070608451
20
168.143569030345
30
0
11
1354.80070608451
21
42.569885481601
31
0
0
LINE
8
layer0
10
1354.80070608451
20
42.569885481601
30
0
11
1354.1414555724
21
42.3558243374115
31
0
0
LINE
8
layer0
10
1354.1414555724
20
42.3558243374115
30
0
11
1354.1414555724
21
167.929507886155
31
0
0
LINE
8
layer0
10
1354.1414555724
20
167.929507886155
30
0
11
1354.80070608451
21
168.143569030345
31
0
0
LINE
8
layer0
10
1354.1414555724
20
167.929507886155
30
0
11
1354.1414555724
21
42.3558243374115
31
0
0
LINE
8
layer0
10
1354.1414555724
20
42.3558243374115
30
0
11
1346.92888718601
21
40.013875999123
31
0
0
LINE
8
layer0
10
1346.92888718601
20
40.013875999123
30
0
11
1346.92888718601
21
165.587559547867
31
0
0
LINE
8
layer0
10
1346.92888718601
20
165.587559547867
30
0
11
1354.1414555724
21
167.929507886155
31
0
0
LINE
8
layer0
10
1341.02204326325
20
36.3667036169621
30
0
11
1346.92888718601
21
40.013875999123
31
0
0
LINE
8
layer0
10
1346.92888718601
20
40.013875999123
30
0
11
1346.92888718601
21
35.6837489802008
31
0
0
LINE
8
layer0
10
1346.92888718601
20
35.6837489802008
30
0
11
1341.02204326325
21
32.0365765980399
31
0
0
LINE
8
layer0
10
1341.02204326325
20
32.0365765980399
30
0
11
1341.02204326325
21
36.3667036169621
31
0
0
LINE
8
layer0
10
1346.92888718601
20
165.587559547867
30
0
11
1346.92888718601
21
40.013875999123
31
0
0
LINE
8
layer0
10
1346.92888718601
20
40.013875999123
30
0
11
1346.24893064842
21
39.5940378017035
31
0
0
LINE
8
layer0
10
1346.24893064842
20
39.5940378017035
30
0
11
1346.24893064842
21
165.167721350447
31
0
0
LINE
8
layer0
10
1346.24893064842
20
165.167721350447
30
0
11
1346.92888718601
21
165.587559547867
31
0
0
LINE
8
layer0
10
1346.24893064842
20
165.167721350447
30
0
11
1346.24893064842
21
39.5940378017035
31
0
0
LINE
8
layer0
10
1346.24893064842
20
39.5940378017035
30
0
11
1341.02204326325
21
36.3667036169621
31
0
0
LINE
8
layer0
10
1341.02204326325
20
36.3667036169621
30
0
11
1341.02204326325
21
161.940387165706
31
0
0
LINE
8
layer0
10
1341.02204326325
20
161.940387165706
30
0
11
1346.24893064842
21
165.167721350447
31
0
0
LINE
8
layer0
10
1199.52204326325
20
-86.175891018536
30
0
11
1341.02204326325
21
36.3667036169621
31
0
0
LINE
8
layer0
10
1341.02204326325
20
36.3667036169621
30
0
11
1341.02204326325
21
32.0365765980399
31
0
0
LINE
8
layer0
10
1341.02204326325
20
32.0365765980399
30
0
11
1199.52204326325
21
-90.5060180374581
31
0
0
LINE
8
layer0
10
1199.52204326325
20
-90.5060180374581
30
0
11
1199.52204326325
21
-86.175891018536
31
0
0
LINE
8
layer0
10
1341.02204326325
20
161.940387165706
30
0
11
1341.02204326325
21
36.3667036169621
31
0
0
LINE
8
layer0
10
1341.02204326325
20
36.3667036169621
30
0
11
1340.51318011756
21
35.9260152057496
31
0
0
LINE
8
layer0
10
1340.51318011756
20
35.9260152057496
30
0
11
1340.51318011756
21
161.499698754493
31
0
0
LINE
8
layer0
10
1340.51318011756
20
161.499698754493
30
0
11
1341.02204326325
21
161.940387165706
31
0
0
LINE
8
layer0
10
1340.51318011756
20
161.499698754493
30
0
11
1340.51318011756
21
35.9260152057496
31
0
0
LINE
8
layer0
10
1340.51318011756
20
35.9260152057496
30
0
11
1331.8798538699
21
28.4493353561177
31
0
0
LINE
8
layer0
10
1331.8798538699
20
28.4493353561177
30
0
11
1331.8798538699
21
154.023018904861
31
0
0
LINE
8
layer0
10
1331.8798538699
20
154.023018904861
30
0
11
1340.51318011756
21
161.499698754493
31
0
0
LINE
8
layer0
10
1331.8798538699
20
154.023018904861
30
0
11
1331.8798538699
21
28.4493353561177
31
0
0
LINE
8
layer0
10
1331.8798538699
20
28.4493353561177
30
0
11
1199.52204326325
21
-86.175891018536
31
0
0
LINE
8
layer0
10
1199.52204326325
20
-86.175891018536
30
0
11
1199.52204326325
21
39.3977925302076
31
0
0
LINE
8
layer0
10
1199.52204326325
20
39.3977925302076
30
0
11
1331.8798538699
21
154.023018904861
31
0
0
LINE
8
layer0
10
1196.15837735477
20
-90.5572156562696
30
0
11
1199.52204326325
21
-86.175891018536
31
0
0
LINE
8
layer0
10
1199.52204326325
20
-86.175891018536
30
0
11
1199.52204326325
21
-90.5060180374581
31
0
0
LINE
8
layer0
10
1199.52204326325
20
-90.5060180374581
30
0
11
1196.15837735477
21
-94.8873426751918
31
0
0
LINE
8
layer0
10
1196.15837735477
20
-94.8873426751918
30
0
11
1196.15837735477
21
-90.5572156562696
31
0
0
LINE
8
layer0
10
1199.52204326325
20
39.3977925302076
30
0
11
1199.52204326325
21
-86.175891018536
31
0
0
LINE
8
layer0
10
1199.52204326325
20
-86.175891018536
30
0
11
1196.15837735477
21
-90.5572156562696
31
0
0
LINE
8
layer0
10
1196.15837735477
20
-90.5572156562696
30
0
11
1196.15837735477
21
35.016467892474
31
0
0
LINE
8
layer0
10
1196.15837735477
20
35.016467892474
30
0
11
1199.52204326325
21
39.3977925302076
31
0
0
LINE
8
layer0
10
1195.66714851573
20
-95.2438179675507
30
0
11
1196.15837735477
21
-90.5572156562696
31
0
0
LINE
8
layer0
10
1196.15837735477
20
-90.5572156562696
30
0
11
1196.15837735477
21
-94.8873426751918
31
0
0
LINE
8
layer0
10
1196.15837735477
20
-94.8873426751918
30
0
11
1195.66714851573
21
-99.573944986473
31
0
0
LINE
8
layer0
10
1195.66714851573
20
-99.573944986473
30
0
11
1195.66714851573
21
-95.2438179675507
31
0
0
LINE
8
layer0
10
1196.15837735477
20
35.016467892474
30
0
11
1196.15837735477
21
-90.5572156562696
31
0
0
LINE
8
layer0
10
1196.15837735477
20
-90.5572156562696
30
0
11
1196.03944365463
21
-91.6919107508083
31
0
0
LINE
8
layer0
10
1196.03944365463
20
-91.6919107508083
30
0
11
1196.03944365463
21
33.8817727979352
31
0
0
LINE
8
layer0
10
1196.03944365463
20
33.8817727979352
30
0
11
1196.15837735477
21
35.016467892474
31
0
0
LINE
8
layer0
10
1196.03944365463
20
33.8817727979352
30
0
11
1196.03944365463
21
-91.6919107508083
31
0
0
LINE
8
layer0
10
1196.03944365463
20
-91.6919107508083
30
0
11
1195.66714851573
21
-95.2438179675507
31
0
0
LINE
8
layer0
10
1195.66714851573
20
-95.2438179675507
30
0
11
1195.66714851573
21
30.3298655811928
31
0
0
LINE
8
layer0
10
1195.66714851573
20
30.3298655811928
30
0
11
1196.03944365463
21
33.8817727979352
31
0
0
LINE
8
layer0
10
1198.0964416475
20
-99.776940664673
30
0
11
1195.66714851573
21
-95.2438179675507
31
0
0
LINE
8
layer0
10
1195.66714851573
20
-95.2438179675507
30
0
11
1195.66714851573
21
-99.573944986473
31
0
0
LINE
8
layer0
10
1195.66714851573
20
-99.573944986473
30
0
11
1198.0964416475
21
-104.107067683595
31
0
0
LINE
8
layer0
10
1198.0964416475
20
-104.107067683595
30
0
11
1198.0964416475
21
-99.776940664673
31
0
0
LINE
8
layer0
10
1195.66714851573
20
30.3298655811928
30
0
11
1195.66714851573
21
-95.2438179675507
31
0
0
LINE
8
layer0
10
1195.66714851573
20
-95.2438179675507
30
0
11
1195.99388376745
21
-95.8535142475728
31
0
0
LINE
8
layer0
10
1195.99388376745
20
-95.8535142475728
30
0
11
1195.99388376745
21
29.7201693011708
31
0
0
LINE
8
layer0
10
1195.99388376745
20
29.7201693011708
30
0
11
1195.66714851573
21
30.3298655811928
31
0
0
LINE
8
layer0
10
1195.99388376745
20
29.7201693011708
30
0
11
1195.99388376745
21
-95.8535142475728
31
0
0
LINE
8
layer0
10
1195.99388376745
20
-95.8535142475728
30
0
11
1198.0964416475
21
-99.776940664673
31
0
0
LINE
8
layer0
10
1198.0964416475
20
-99.776940664673
30
0
11
1198.0964416475
21
25.7967428840706
31
0
0
LINE
8
layer0
10
1198.0964416475
20
25.7967428840706
30
0
11
1195.99388376745
21
29.7201693011708
31
0
0
LINE
8
layer0
10
1203.20846061246
20
-103.712850113919
30
0
11
1198.0964416475
21
-99.776940664673
31
0
0
LINE
8
layer0
10
1198.0964416475
20
-99.776940664673
30
0
11
1198.0964416475
21
-104.107067683595
31
0
0
LINE
8
layer0
10
1198.0964416475
20
-104.107067683595
30
0
11
1203.20846061246
21
-108.042977132841
31
0
0
LINE
8
layer0
10
1203.20846061246
20
-108.042977132841
30
0
11
1203.20846061246
21
-103.712850113919
31
0
0
LINE
8
layer0
10
1198.0964416475
20
25.7967428840706
30
0
11
1198.0964416475
21
-99.776940664673
31
0
0
LINE
8
layer0
10
1198.0964416475
20
-99.776940664673
30
0
11
1200.62789118609
21
-101.725985890745
31
0
0
LINE
8
layer0
10
1200.62789118609
20
-101.725985890745
30
0
11
1200.62789118609
21
23.8476976579985
31
0
0
LINE
8
layer0
10
1200.62789118609
20
23.8476976579985
30
0
11
1198.0964416475
21
25.7967428840706
31
0
0
LINE
8
layer0
10
1200.62789118609
20
23.8476976579985
30
0
11
1200.62789118609
21
-101.725985890745
31
0
0
LINE
8
layer0
10
1200.62789118609
20
-101.725985890745
30
0
11
1203.20846061246
21
-103.712850113919
31
0
0
LINE
8
layer0
10
1203.20846061246
20
-103.712850113919
30
0
11
1203.20846061246
21
21.8608334348247
31
0
0
LINE
8
layer0
10
1203.20846061246
20
21.8608334348247
30
0
11
1200.62789118609
21
23.8476976579985
31
0
0
LINE
8
layer0
10
1210.50280537678
20
-106.666272075303
30
0
11
1203.20846061246
21
-103.712850113919
31
0
0
LINE
8
layer0
10
1203.20846061246
20
-103.712850113919
30
0
11
1203.20846061246
21
-108.042977132841
31
0
0
LINE
8
layer0
10
1203.20846061246
20
-108.042977132841
30
0
11
1210.50280537678
21
-110.996399094225
31
0
0
LINE
8
layer0
10
1210.50280537678
20
-110.996399094225
30
0
11
1210.50280537678
21
-106.666272075303
31
0
0
LINE
8
layer0
10
1203.20846061246
20
21.8608334348247
30
0
11
1203.20846061246
21
-103.712850113919
31
0
0
LINE
8
layer0
10
1203.20846061246
20
-103.712850113919
30
0
11
1208.72267738726
21
-105.945512463826
31
0
0
LINE
8
layer0
10
1208.72267738726
20
-105.945512463826
30
0
11
1208.72267738726
21
19.628171084918
31
0
0
LINE
8
layer0
10
1208.72267738726
20
19.628171084918
30
0
11
1203.20846061246
21
21.8608334348247
31
0
0
LINE
8
layer0
10
1208.72267738726
20
19.628171084918
30
0
11
1208.72267738726
21
-105.945512463826
31
0
0
LINE
8
layer0
10
1208.72267738726
20
-105.945512463826
30
0
11
1210.50280537678
21
-106.666272075303
31
0
0
LINE
8
layer0
10
1210.50280537678
20
-106.666272075303
30
0
11
1210.50280537678
21
18.907411473441
31
0
0
LINE
8
layer0
10
1210.50280537678
20
18.907411473441
30
0
11
1208.72267738726
21
19.628171084918
31
0
0
LINE
8
layer0
10
1500.62131564457
20
-190.416272075303
30
0
11
1210.50280537678
21
-106.666272075303
31
0
0
LINE
8
layer0
10
1210.50280537678
20
-106.666272075303
30
0
11
1210.50280537678
21
-110.996399094225
31
0
0
LINE
8
layer0
10
1210.50280537678
20
-110.996399094225
30
0
11
1500.62131564457
21
-194.746399094225
31
0
0
LINE
8
layer0
10
1500.62131564457
20
-194.746399094225
30
0
11
1500.62131564457
21
-190.416272075303
31
0
0
LINE
8
layer0
10
1210.50280537678
20
18.907411473441
30
0
11
1210.50280537678
21
-106.666272075303
31
0
0
LINE
8
layer0
10
1210.50280537678
20
-106.666272075303
30
0
11
1219.88253497671
21
-109.373966780026
31
0
0
LINE
8
layer0
10
1219.88253497671
20
-109.373966780026
30
0
11
1219.88253497671
21
16.1997167687174
31
0
0
LINE
8
layer0
10
1219.88253497671
20
16.1997167687174
30
0
11
1210.50280537678
21
18.907411473441
31
0
0
LINE
8
layer0
10
1219.88253497671
20
16.1997167687174
30
0
11
1219.88253497671
21
-109.373966780026
31
0
0
LINE
8
layer0
10
1219.88253497671
20
-109.373966780026
30
0
11
1253.67688792292
21
-119.129556165318
31
0
0
LINE
8
layer0
10
1253.67688792292
20
-119.129556165318
30
0
11
1253.67688792292
21
6.44412738342555
31
0
0
LINE
8
layer0
10
1253.67688792292
20
6.44412738342555
30
0
11
1219.88253497671
21
16.1997167687174
31
0
0
LINE
8
layer0
10
1253.67688792292
20
6.44412738342555
30
0
11
1253.67688792292
21
-119.129556165318
31
0
0
LINE
8
layer0
10
1253.67688792292
20
-119.129556165318
30
0
11
1500.62131564457
21
-190.416272075303
31
0
0
LINE
8
layer0
10
1500.62131564457
20
-190.416272075303
30
0
11
1500.62131564457
21
-64.842588526559
31
0
0
LINE
8
layer0
10
1500.62131564457
20
-64.842588526559
30
0
11
1253.67688792292
21
6.44412738342555
31
0
0
LINE
8
layer0
10
1509.38396492003
20
-192.098105029543
30
0
11
1500.62131564457
21
-190.416272075303
31
0
0
LINE
8
layer0
10
1500.62131564457
20
-190.416272075303
30
0
11
1500.62131564457
21
-194.746399094225
31
0
0
LINE
8
layer0
10
1500.62131564457
20
-194.746399094225
30
0
11
1509.38396492003
21
-196.428232048465
31
0
0
LINE
8
layer0
10
1509.38396492003
20
-196.428232048465
30
0
11
1509.38396492003
21
-192.098105029543
31
0
0
LINE
8
layer0
10
1500.62131564457
20
-64.842588526559
30
0
11
1500.62131564457
21
-190.416272075303
31
0
0
LINE
8
layer0
10
1500.62131564457
20
-190.416272075303
30
0
11
1509.38396492003
21
-192.098105029543
31
0
0
LINE
8
layer0
10
1509.38396492003
20
-192.098105029543
30
0
11
1509.38396492003
21
-66.5244214807994
31
0
0
LINE
8
layer0
10
1509.38396492003
20
-66.5244214807994
30
0
11
1500.62131564457
21
-64.842588526559
31
0
0
LINE
8
layer0
10
1518.7571695426
20
-192.34371944906
30
0
11
1509.38396492003
21
-192.098105029543
31
0
0
LINE
8
layer0
10
1509.38396492003
20
-192.098105029543
30
0
11
1509.38396492003
21
-196.428232048465
31
0
0
LINE
8
layer0
10
1509.38396492003
20
-196.428232048465
30
0
11
1518.7571695426
21
-196.673846467982
31
0
0
LINE
8
layer0
10
1518.7571695426
20
-196.673846467982
30
0
11
1518.7571695426
21
-192.34371944906
31
0
0
LINE
8
layer0
10
1509.38396492003
20
-66.5244214807994
30
0
11
1509.38396492003
21
-192.098105029543
31
0
0
LINE
8
layer0
10
1509.38396492003
20
-192.098105029543
30
0
11
1518.7571695426
21
-192.34371944906
31
0
0
LINE
8
layer0
10
1518.7571695426
20
-192.34371944906
30
0
11
1518.7571695426
21
-66.7700359003165
31
0
0
LINE
8
layer0
10
1518.7571695426
20
-66.7700359003165
30
0
11
1509.38396492003
21
-66.5244214807994
31
0
0
LINE
8
layer0
10
1527.82341493684
20
-191.129072883175
30
0
11
1518.7571695426
21
-192.34371944906
31
0
0
LINE
8
layer0
10
1518.7571695426
20
-192.34371944906
30
0
11
1518.7571695426
21
-196.673846467982
31
0
0
LINE
8
layer0
10
1518.7571695426
20
-196.673846467982
30
0
11
1527.82341493684
21
-195.459199902097
31
0
0
LINE
8
layer0
10
1527.82341493684
20
-195.459199902097
30
0
11
1527.82341493684
21
-191.129072883175
31
0
0
LINE
8
layer0
10
1518.7571695426
20
-66.7700359003165
30
0
11
1518.7571695426
21
-192.34371944906
31
0
0
LINE
8
layer0
10
1518.7571695426
20
-192.34371944906
30
0
11
1521.17573094973
21
-192.019693661117
31
0
0
LINE
8
layer0
10
1521.17573094973
20
-192.019693661117
30
0
11
1521.17573094973
21
-66.446010112373
31
0
0
LINE
8
layer0
10
1521.17573094973
20
-66.446010112373
30
0
11
1518.7571695426
21
-66.7700359003165
31
0
0
LINE
8
layer0
10
1521.17573094973
20
-66.446010112373
30
0
11
1521.17573094973
21
-192.019693661117
31
0
0
LINE
8
layer0
10
1521.17573094973
20
-192.019693661117
30
0
11
1527.82341493684
21
-191.129072883175
31
0
0
LINE
8
layer0
10
1527.82341493684
20
-191.129072883175
30
0
11
1527.82341493684
21
-65.5553893344314
31
0
0
LINE
8
layer0
10
1527.82341493684
20
-65.5553893344314
30
0
11
1521.17573094973
21
-66.446010112373
31
0
0
LINE
8
layer0
10
1535.69523383533
20
-188.573063400697
30
0
11
1527.82341493684
21
-191.129072883175
31
0
0
LINE
8
layer0
10
1527.82341493684
20
-191.129072883175
30
0
11
1527.82341493684
21
-195.459199902097
31
0
0
LINE
8
layer0
10
1527.82341493684
20
-195.459199902097
30
0
11
1535.69523383533
21
-192.903190419619
31
0
0
LINE
8
layer0
10
1535.69523383533
20
-192.903190419619
30
0
11
1535.69523383533
21
-188.573063400697
31
0
0
LINE
8
layer0
10
1527.82341493684
20
-65.5553893344314
30
0
11
1527.82341493684
21
-191.129072883175
31
0
0
LINE
8
layer0
10
1527.82341493684
20
-191.129072883175
30
0
11
1527.99288115503
21
-191.074046558735
31
0
0
LINE
8
layer0
10
1527.99288115503
20
-191.074046558735
30
0
11
1527.99288115503
21
-65.5003630099911
31
0
0
LINE
8
layer0
10
1527.99288115503
20
-65.5003630099911
30
0
11
1527.82341493684
21
-65.5553893344314
31
0
0
LINE
8
layer0
10
1527.99288115503
20
-65.5003630099911
30
0
11
1527.99288115503
21
-191.074046558735
31
0
0
LINE
8
layer0
10
1527.99288115503
20
-191.074046558735
30
0
11
1535.69523383533
21
-188.573063400697
31
0
0
LINE
8
layer0
10
1535.69523383533
20
-188.573063400697
30
0
11
1535.69523383533
21
-62.9993798519533
31
0
0
LINE
8
layer0
10
1535.69523383533
20
-62.9993798519533
30
0
11
1527.99288115503
21
-65.5003630099911
31
0
0
LINE
8
layer0
10
1541.6020777581
20
-184.925891018536
30
0
11
1535.69523383533
21
-188.573063400697
31
0
0
LINE
8
layer0
10
1535.69523383533
20
-188.573063400697
30
0
11
1535.69523383533
21
-192.903190419619
31
0
0
LINE
8
layer0
10
1535.69523383533
20
-192.903190419619
30
0
11
1541.6020777581
21
-189.256018037458
31
0
0
LINE
8
layer0
10
1541.6020777581
20
-189.256018037458
30
0
11
1541.6020777581
21
-184.925891018536
31
0
0
LINE
8
layer0
10
1535.69523383533
20
-62.9993798519533
30
0
11
1535.69523383533
21
-188.573063400697
31
0
0
LINE
8
layer0
10
1535.69523383533
20
-188.573063400697
30
0
11
1536.99432211728
21
-187.770943187962
31
0
0
LINE
8
layer0
10
1536.99432211728
20
-187.770943187962
30
0
11
1536.99432211728
21
-62.1972596392183
31
0
0
LINE
8
layer0
10
1536.99432211728
20
-62.1972596392183
30
0
11
1535.69523383533
21
-62.9993798519533
31
0
0
LINE
8
layer0
10
1536.99432211728
20
-62.1972596392183
30
0
11
1536.99432211728
21
-187.770943187962
31
0
0
LINE
8
layer0
10
1536.99432211728
20
-187.770943187962
30
0
11
1541.6020777581
21
-184.925891018536
31
0
0
LINE
8
layer0
10
1541.6020777581
20
-184.925891018536
30
0
11
1541.6020777581
21
-59.3522074697923
31
0
0
LINE
8
layer0
10
1541.6020777581
20
-59.3522074697923
30
0
11
1536.99432211728
21
-62.1972596392183
31
0
0
LINE
8
layer0
10
1683.1020777581
20
-62.383296383038
30
0
11
1541.6020777581
21
-184.925891018536
31
0
0
LINE
8
layer0
10
1541.6020777581
20
-184.925891018536
30
0
11
1541.6020777581
21
-189.256018037458
31
0
0
LINE
8
layer0
10
1541.6020777581
20
-189.256018037458
30
0
11
1683.1020777581
21
-66.7134234019601
31
0
0
LINE
8
layer0
10
1683.1020777581
20
-66.7134234019601
30
0
11
1683.1020777581
21
-62.383296383038
31
0
0
LINE
8
layer0
10
1541.6020777581
20
-59.3522074697923
30
0
11
1541.6020777581
21
-184.925891018536
31
0
0
LINE
8
layer0
10
1541.6020777581
20
-184.925891018536
30
0
11
1543.15004405809
21
-183.585312878544
31
0
0
LINE
8
layer0
10
1543.15004405809
20
-183.585312878544
30
0
11
1543.15004405809
21
-58.0116293298
31
0
0
LINE
8
layer0
10
1543.15004405809
20
-58.0116293298
30
0
11
1541.6020777581
21
-59.3522074697923
31
0
0
LINE
8
layer0
10
1543.15004405809
20
-58.0116293298
30
0
11
1543.15004405809
21
-183.585312878544
31
0
0
LINE
8
layer0
10
1543.15004405809
20
-183.585312878544
30
0
11
1549.51746716755
21
-178.070962709108
31
0
0
LINE
8
layer0
10
1549.51746716755
20
-178.070962709108
30
0
11
1549.51746716755
21
-52.4972791603645
31
0
0
LINE
8
layer0
10
1549.51746716755
20
-52.4972791603645
30
0
11
1543.15004405809
21
-58.0116293298
31
0
0
LINE
8
layer0
10
1549.51746716755
20
-52.4972791603645
30
0
11
1549.51746716755
21
-178.070962709108
31
0
0
LINE
8
layer0
10
1549.51746716755
20
-178.070962709108
30
0
11
1569.02864593813
21
-161.173786236003
31
0
0
LINE
8
layer0
10
1569.02864593813
20
-161.173786236003
30
0
11
1569.02864593813
21
-35.6001026872592
31
0
0
LINE
8
layer0
10
1569.02864593813
20
-35.6001026872592
30
0
11
1549.51746716755
21
-52.4972791603645
31
0
0
LINE
8
layer0
10
1569.02864593813
20
-35.6001026872592
30
0
11
1569.02864593813
21
-161.173786236003
31
0
0
LINE
8
layer0
10
1569.02864593813
20
-161.173786236003
30
0
11
1683.1020777581
21
-62.383296383038
31
0
0
LINE
8
layer0
10
1683.1020777581
20
-62.383296383038
30
0
11
1683.1020777581
21
63.1903871657057
31
0
0
LINE
8
layer0
10
1683.1020777581
20
63.1903871657057
30
0
11
1569.02864593813
21
-35.6001026872592
31
0
0
LINE
8
layer0
10
1686.46574366658
20
-58.0019717453043
30
0
11
1683.1020777581
21
-62.383296383038
31
0
0
LINE
8
layer0
10
1683.1020777581
20
-62.383296383038
30
0
11
1683.1020777581
21
-66.7134234019601
31
0
0
LINE
8
layer0
10
1683.1020777581
20
-66.7134234019601
30
0
11
1686.46574366658
21
-62.3320987642265
31
0
0
LINE
8
layer0
10
1686.46574366658
20
-62.3320987642265
30
0
11
1686.46574366658
21
-58.0019717453043
31
0
0
LINE
8
layer0
10
1683.1020777581
20
63.1903871657057
30
0
11
1683.1020777581
21
-62.383296383038
31
0
0
LINE
8
layer0
10
1683.1020777581
20
-62.383296383038
30
0
11
1686.46574366658
21
-58.0019717453043
31
0
0
LINE
8
layer0
10
1686.46574366658
20
-58.0019717453043
30
0
11
1686.46574366658
21
67.5717118034393
31
0
0
LINE
8
layer0
10
1686.46574366658
20
67.5717118034393
30
0
11
1683.1020777581
21
63.1903871657057
31
0
0
LINE
8
layer0
10
1686.95697250561
20
-53.3153694340232
30
0
11
1686.46574366658
21
-58.0019717453043
31
0
0
LINE
8
layer0
10
1686.46574366658
20
-58.0019717453043
30
0
11
1686.46574366658
21
-62.3320987642265
31
0
0
LINE
8
layer0
10
1686.46574366658
20
-62.3320987642265
30
0
11
1686.95697250561
21
-57.6454964529453
31
0
0
LINE
8
layer0
10
1686.95697250561
20
-57.6454964529453
30
0
11
1686.95697250561
21
-53.3153694340232
31
0
0
LINE
8
layer0
10
1686.46574366658
20
67.5717118034393
30
0
11
1686.46574366658
21
-58.0019717453043
31
0
0
LINE
8
layer0
10
1686.46574366658
20
-58.0019717453043
30
0
11
1686.95697250561
21
-53.3153694340232
31
0
0
LINE
8
layer0
10
1686.95697250561
20
-53.3153694340232
30
0
11
1686.95697250561
21
72.2583141147205
31
0
0
LINE
8
layer0
10
1686.95697250561
20
72.2583141147205
30
0
11
1686.46574366658
21
67.5717118034393
31
0
0
LINE
8
layer0
10
1684.52767937384
20
-48.7822467369009
30
0
11
1686.95697250561
21
-53.3153694340232
31
0
0
LINE
8
layer0
10
1686.95697250561
20
-53.3153694340232
30
0
11
1686.95697250561
21
-57.6454964529453
31
0
0
LINE
8
layer0
10
1686.95697250561
20
-57.6454964529453
30
0
11
1684.52767937384
21
-53.1123737558231
31
0
0
LINE
8
layer0
10
1684.52767937384
20
-53.1123737558231
30
0
11
1684.52767937384
21
-48.7822467369009
31
0
0
LINE
8
layer0
10
1686.95697250561
20
72.2583141147205
30
0
11
1686.95697250561
21
-53.3153694340232
31
0
0
LINE
8
layer0
10
1686.95697250561
20
-53.3153694340232
30
0
11
1686.30892092973
21
-52.1060887304554
31
0
0
LINE
8
layer0
10
1686.30892092973
20
-52.1060887304554
30
0
11
1686.30892092973
21
73.4675948182883
31
0
0
LINE
8
layer0
10
1686.30892092973
20
73.4675948182883
30
0
11
1686.95697250561
21
72.2583141147205
31
0
0
LINE
8
layer0
10
1686.30892092973
20
73.4675948182883
30
0
11
1686.30892092973
21
-52.1060887304554
31
0
0
LINE
8
layer0
10
1686.30892092973
20
-52.1060887304554
30
0
11
1684.80011023497
21
-49.29060964454
31
0
0
LINE
8
layer0
10
1684.80011023497
20
-49.29060964454
30
0
11
1684.80011023497
21
76.2830739042035
31
0
0
LINE
8
layer0
10
1684.80011023497
20
76.2830739042035
30
0
11
1686.30892092973
21
73.4675948182883
31
0
0
LINE
8
layer0
10
1684.80011023497
20
76.2830739042035
30
0
11
1684.80011023497
21
-49.29060964454
31
0
0
LINE
8
layer0
10
1684.80011023497
20
-49.29060964454
30
0
11
1684.52767937384
21
-48.7822467369009
31
0
0
LINE
8
layer0
10
1684.52767937384
20
-48.7822467369009
30
0
11
1684.52767937384
21
76.7914368118427
31
0
0
LINE
8
layer0
10
1684.52767937384
20
76.7914368118427
30
0
11
1684.80011023497
21
76.2830739042035
31
0
0
LINE
8
layer0
10
1679.41566040889
20
-44.8463372876552
30
0
11
1684.52767937384
21
-48.7822467369009
31
0
0
LINE
8
layer0
10
1684.52767937384
20
-48.7822467369009
30
0
11
1684.52767937384
21
-53.1123737558231
31
0
0
LINE
8
layer0
10
1684.52767937384
20
-53.1123737558231
30
0
11
1679.41566040889
21
-49.1764643065773
31
0
0
LINE
8
layer0
10
1679.41566040889
20
-49.1764643065773
30
0
11
1679.41566040889
21
-44.8463372876552
31
0
0
LINE
8
layer0
10
1680.65335510911
20
79.7744049087025
30
0
11
1680.65335510911
21
-45.7992786400412
31
0
0
LINE
8
layer0
10
1680.65335510911
20
-45.7992786400412
30
0
11
1679.41566040889
21
-44.8463372876552
31
0
0
LINE
8
layer0
10
1679.41566040889
20
-44.8463372876552
30
0
11
1679.41566040889
21
80.7273462610885
31
0
0
LINE
8
layer0
10
1679.41566040889
20
80.7273462610885
30
0
11
1680.65335510911
21
79.7744049087025
31
0
0
LINE
8
layer0
10
1684.52767937384
20
76.7914368118427
30
0
11
1684.52767937384
21
-48.7822467369009
31
0
0
LINE
8
layer0
10
1684.52767937384
20
-48.7822467369009
30
0
11
1680.65335510911
21
-45.7992786400412
31
0
0
LINE
8
layer0
10
1680.65335510911
20
-45.7992786400412
30
0
11
1680.65335510911
21
79.7744049087025
31
0
0
LINE
8
layer0
10
1680.65335510911
20
79.7744049087025
30
0
11
1684.52767937384
21
76.7914368118427
31
0
0
LINE
8
layer0
10
1672.12131564457
20
-41.8929153262714
30
0
11
1679.41566040889
21
-44.8463372876552
31
0
0
LINE
8
layer0
10
1679.41566040889
20
-44.8463372876552
30
0
11
1679.41566040889
21
-49.1764643065773
31
0
0
LINE
8
layer0
10
1679.41566040889
20
-49.1764643065773
30
0
11
1672.12131564457
21
-46.2230423451936
31
0
0
LINE
8
layer0
10
1672.12131564457
20
-46.2230423451936
30
0
11
1672.12131564457
21
-41.8929153262714
31
0
0
LINE
8
layer0
10
1679.41566040889
20
80.7273462610885
30
0
11
1679.41566040889
21
-44.8463372876552
31
0
0
LINE
8
layer0
10
1679.41566040889
20
-44.8463372876552
30
0
11
1672.12131564457
21
-41.8929153262714
31
0
0
LINE
8
layer0
10
1672.12131564457
20
-41.8929153262714
30
0
11
1672.12131564457
21
83.6807682224723
31
0
0
LINE
8
layer0
10
1672.12131564457
20
83.6807682224723
30
0
11
1679.41566040889
21
80.7273462610885
31
0
0
LINE
8
layer0
10
1664.37612511618
20
-41.1004470810019
30
0
11
1382.91786888624
21
40.1495529189981
31
0
0
LINE
8
layer0
10
1382.91786888624
20
40.1495529189981
30
0
11
1374.15521961077
21
41.8313858732386
31
0
0
LINE
8
layer0
10
1374.15521961077
20
41.8313858732386
30
0
11
1364.78201498821
21
42.0770002927556
31
0
0
LINE
8
layer0
10
1364.78201498821
20
42.0770002927556
30
0
11
1355.71576959397
21
40.8623537268705
31
0
0
LINE
8
layer0
10
1355.71576959397
20
40.8623537268705
30
0
11
1347.84395069547
21
38.3063442443924
31
0
0
LINE
8
layer0
10
1347.84395069547
20
38.3063442443924
30
0
11
1341.93710677271
21
34.6591718622315
31
0
0
LINE
8
layer0
10
1341.93710677271
20
34.6591718622315
30
0
11
1205.43710677271
21
-83.5532957543444
31
0
0
LINE
8
layer0
10
1205.43710677271
20
-83.5532957543444
30
0
11
1202.07344086423
21
-87.9346203920779
31
0
0
LINE
8
layer0
10
1202.07344086423
20
-87.9346203920779
30
0
11
1201.58221202519
21
-92.6212227033592
31
0
0
LINE
8
layer0
10
1201.58221202519
20
-92.6212227033592
30
0
11
1204.01150515696
21
-97.1543454004814
31
0
0
LINE
8
layer0
10
1204.01150515696
20
-97.1543454004814
30
0
11
1209.12352412192
21
-101.090254849727
31
0
0
LINE
8
layer0
10
1209.12352412192
20
-101.090254849727
30
0
11
1216.41786888624
21
-104.043676811111
31
0
0
LINE
8
layer0
10
1216.41786888624
20
-104.043676811111
30
0
11
1497.87612511618
21
-185.293676811111
31
0
0
LINE
8
layer0
10
1497.87612511618
20
-185.293676811111
30
0
11
1506.63877439165
21
-186.975509765351
31
0
0
LINE
8
layer0
10
1506.63877439165
20
-186.975509765351
30
0
11
1516.01197901421
21
-187.221124184868
31
0
0
LINE
8
layer0
10
1516.01197901421
20
-187.221124184868
30
0
11
1525.07822440846
21
-186.006477618983
31
0
0
LINE
8
layer0
10
1525.07822440846
20
-186.006477618983
30
0
11
1532.95004330695
21
-183.450468136505
31
0
0
LINE
8
layer0
10
1532.95004330695
20
-183.450468136505
30
0
11
1538.85688722972
21
-179.803295754344
31
0
0
LINE
8
layer0
10
1538.85688722972
20
-179.803295754344
30
0
11
1675.35688722972
21
-61.5908281377685
31
0
0
LINE
8
layer0
10
1675.35688722972
20
-61.5908281377685
30
0
11
1678.7205531382
21
-57.2095035000349
31
0
0
LINE
8
layer0
10
1678.7205531382
20
-57.2095035000349
30
0
11
1679.21178197723
21
-52.5229011887537
31
0
0
LINE
8
layer0
10
1679.21178197723
20
-52.5229011887537
30
0
11
1676.78248884546
21
-47.9897784916315
31
0
0
LINE
8
layer0
10
1676.78248884546
20
-47.9897784916315
30
0
11
1671.6704698805
21
-44.0538690423857
31
0
0
LINE
8
layer0
10
1671.6704698805
20
-44.0538690423857
30
0
11
1664.37612511618
21
-41.1004470810019
31
0
0
LINE
8
layer0
10
1664.37612511618
20
-41.1004470810019
30
0
11
1664.37612511618
21
84.4732364677417
31
0
0
LINE
8
layer0
10
1664.37612511618
20
84.4732364677417
30
0
11
1382.91786888624
21
165.723236467742
31
0
0
LINE
8
layer0
10
1382.91786888624
20
165.723236467742
30
0
11
1382.91786888624
21
40.1495529189981
31
0
0
LINE
8
layer0
10
1382.91786888624
20
40.1495529189981
30
0
11
1664.37612511618
21
-41.1004470810019
31
0
0
LINE
8
layer0
10
1382.91786888624
20
40.1495529189981
30
0
11
1382.91786888624
21
165.723236467742
31
0
0
LINE
8
layer0
10
1382.91786888624
20
165.723236467742
30
0
11
1374.15521961077
21
167.405069421982
31
0
0
LINE
8
layer0
10
1374.15521961077
20
167.405069421982
30
0
11
1374.15521961077
21
41.8313858732386
31
0
0
LINE
8
layer0
10
1374.15521961077
20
41.8313858732386
30
0
11
1382.91786888624
21
40.1495529189981
31
0
0
LINE
8
layer0
10
1374.15521961077
20
41.8313858732386
30
0
11
1374.15521961077
21
167.405069421982
31
0
0
LINE
8
layer0
10
1374.15521961077
20
167.405069421982
30
0
11
1364.78201498821
21
167.650683841499
31
0
0
LINE
8
layer0
10
1364.78201498821
20
167.650683841499
30
0
11
1364.78201498821
21
42.0770002927556
31
0
0
LINE
8
layer0
10
1364.78201498821
20
42.0770002927556
30
0
11
1374.15521961077
21
41.8313858732386
31
0
0
LINE
8
layer0
10
1364.78201498821
20
42.0770002927556
30
0
11
1364.78201498821
21
167.650683841499
31
0
0
LINE
8
layer0
10
1364.78201498821
20
167.650683841499
30
0
11
1355.71576959397
21
166.436037275614
31
0
0
LINE
8
layer0
10
1355.71576959397
20
166.436037275614
30
0
11
1355.71576959397
21
40.8623537268705
31
0
0
LINE
8
layer0
10
1355.71576959397
20
40.8623537268705
30
0
11
1364.78201498821
21
42.0770002927556
31
0
0
LINE
8
layer0
10
1355.71576959397
20
40.8623537268705
30
0
11
1355.71576959397
21
166.436037275614
31
0
0
LINE
8
layer0
10
1355.71576959397
20
166.436037275614
30
0
11
1347.84395069547
21
163.880027793136
31
0
0
LINE
8
layer0
10
1347.84395069547
20
163.880027793136
30
0
11
1347.84395069547
21
38.3063442443924
31
0
0
LINE
8
layer0
10
1347.84395069547
20
38.3063442443924
30
0
11
1355.71576959397
21
40.8623537268705
31
0
0
LINE
8
layer0
10
1347.84395069547
20
38.3063442443924
30
0
11
1347.84395069547
21
163.880027793136
31
0
0
LINE
8
layer0
10
1347.84395069547
20
163.880027793136
30
0
11
1341.93710677271
21
160.232855410975
31
0
0
LINE
8
layer0
10
1341.93710677271
20
160.232855410975
30
0
11
1341.93710677271
21
34.6591718622315
31
0
0
LINE
8
layer0
10
1341.93710677271
20
34.6591718622315
30
0
11
1347.84395069547
21
38.3063442443924
31
0
0
LINE
8
layer0
10
1341.93710677271
20
34.6591718622315
30
0
11
1341.93710677271
21
160.232855410975
31
0
0
LINE
8
layer0
10
1341.93710677271
20
160.232855410975
30
0
11
1205.43710677271
21
42.0203877943992
31
0
0
LINE
8
layer0
10
1205.43710677271
20
42.0203877943992
30
0
11
1205.43710677271
21
-83.5532957543444
31
0
0
LINE
8
layer0
10
1205.43710677271
20
-83.5532957543444
30
0
11
1341.93710677271
21
34.6591718622315
31
0
0
LINE
8
layer0
10
1205.43710677271
20
-83.5532957543444
30
0
11
1205.43710677271
21
42.0203877943992
31
0
0
LINE
8
layer0
10
1205.43710677271
20
42.0203877943992
30
0
11
1202.07344086423
21
37.6390631566656
31
0
0
LINE
8
layer0
10
1202.07344086423
20
37.6390631566656
30
0
11
1202.07344086423
21
-87.9346203920779
31
0
0
LINE
8
layer0
10
1202.07344086423
20
-87.9346203920779
30
0
11
1205.43710677271
21
-83.5532957543444
31
0
0
LINE
8
layer0
10
1202.07344086423
20
-87.9346203920779
30
0
11
1202.07344086423
21
37.6390631566656
31
0
0
LINE
8
layer0
10
1202.07344086423
20
37.6390631566656
30
0
11
1201.58221202519
21
32.9524608453844
31
0
0
LINE
8
layer0
10
1201.58221202519
20
32.9524608453844
30
0
11
1201.58221202519
21
-92.6212227033592
31
0
0
LINE
8
layer0
10
1201.58221202519
20
-92.6212227033592
30
0
11
1202.07344086423
21
-87.9346203920779
31
0
0
LINE
8
layer0
10
1201.58221202519
20
-92.6212227033592
30
0
11
1201.58221202519
21
32.9524608453844
31
0
0
LINE
8
layer0
10
1201.58221202519
20
32.9524608453844
30
0
11
1204.01150515696
21
28.4193381482622
31
0
0
LINE
8
layer0
10
1204.01150515696
20
28.4193381482622
30
0
11
1204.01150515696
21
-97.1543454004814
31
0
0
LINE
8
layer0
10
1204.01150515696
20
-97.1543454004814
30
0
11
1201.58221202519
21
-92.6212227033592
31
0
0
LINE
8
layer0
10
1204.01150515696
20
-97.1543454004814
30
0
11
1204.01150515696
21
28.4193381482622
31
0
0
LINE
8
layer0
10
1204.01150515696
20
28.4193381482622
30
0
11
1209.12352412192
21
24.4834286990164
31
0
0
LINE
8
layer0
10
1209.12352412192
20
24.4834286990164
30
0
11
1209.12352412192
21
-101.090254849727
31
0
0
LINE
8
layer0
10
1209.12352412192
20
-101.090254849727
30
0
11
1204.01150515696
21
-97.1543454004814
31
0
0
LINE
8
layer0
10
1209.12352412192
20
-101.090254849727
30
0
11
1209.12352412192
21
24.4834286990164
31
0
0
LINE
8
layer0
10
1209.12352412192
20
24.4834286990164
30
0
11
1216.41786888624
21
21.5300067376327
31
0
0
LINE
8
layer0
10
1216.41786888624
20
21.5300067376327
30
0
11
1216.41786888624
21
-104.043676811111
31
0
0
LINE
8
layer0
10
1216.41786888624
20
-104.043676811111
30
0
11
1209.12352412192
21
-101.090254849727
31
0
0
LINE
8
layer0
10
1216.41786888624
20
-104.043676811111
30
0
11
1216.41786888624
21
21.5300067376327
31
0
0
LINE
8
layer0
10
1216.41786888624
20
21.5300067376327
30
0
11
1497.87612511618
21
-59.7199932623673
31
0
0
LINE
8
layer0
10
1497.87612511618
20
-59.7199932623673
30
0
11
1497.87612511618
21
-185.293676811111
31
0
0
LINE
8
layer0
10
1497.87612511618
20
-185.293676811111
30
0
11
1216.41786888624
21
-104.043676811111
31
0
0
LINE
8
layer0
10
1497.87612511618
20
-185.293676811111
30
0
11
1497.87612511618
21
-59.7199932623673
31
0
0
LINE
8
layer0
10
1497.87612511618
20
-59.7199932623673
30
0
11
1506.63877439165
21
-61.4018262166078
31
0
0
LINE
8
layer0
10
1506.63877439165
20
-61.4018262166078
30
0
11
1506.63877439165
21
-186.975509765351
31
0
0
LINE
8
layer0
10
1506.63877439165
20
-186.975509765351
30
0
11
1497.87612511618
21
-185.293676811111
31
0
0
LINE
8
layer0
10
1506.63877439165
20
-186.975509765351
30
0
11
1506.63877439165
21
-61.4018262166078
31
0
0
LINE
8
layer0
10
1506.63877439165
20
-61.4018262166078
30
0
11
1516.01197901421
21
-61.6474406361249
31
0
0
LINE
8
layer0
10
1516.01197901421
20
-61.6474406361249
30
0
11
1516.01197901421
21
-187.221124184868
31
0
0
LINE
8
layer0
10
1516.01197901421
20
-187.221124184868
30
0
11
1506.63877439165
21
-186.975509765351
31
0
0
LINE
8
layer0
10
1516.01197901421
20
-187.221124184868
30
0
11
1516.01197901421
21
-61.6474406361249
31
0
0
LINE
8
layer0
10
1516.01197901421
20
-61.6474406361249
30
0
11
1525.07822440846
21
-60.4327940702398
31
0
0
LINE
8
layer0
10
1525.07822440846
20
-60.4327940702398
30
0
11
1525.07822440846
21
-186.006477618983
31
0
0
LINE
8
layer0
10
1525.07822440846
20
-186.006477618983
30
0
11
1516.01197901421
21
-187.221124184868
31
0
0
LINE
8
layer0
10
1525.07822440846
20
-186.006477618983
30
0
11
1525.07822440846
21
-60.4327940702398
31
0
0
LINE
8
layer0
10
1525.07822440846
20
-60.4327940702398
30
0
11
1532.95004330695
21
-57.8767845877617
31
0
0
LINE
8
layer0
10
1532.95004330695
20
-57.8767845877617
30
0
11
1532.95004330695
21
-183.450468136505
31
0
0
LINE
8
layer0
10
1532.95004330695
20
-183.450468136505
30
0
11
1525.07822440846
21
-186.006477618983
31
0
0
LINE
8
layer0
10
1532.95004330695
20
-183.450468136505
30
0
11
1532.95004330695
21
-57.8767845877617
31
0
0
LINE
8
layer0
10
1532.95004330695
20
-57.8767845877617
30
0
11
1538.85688722972
21
-54.2296122056007
31
0
0
LINE
8
layer0
10
1538.85688722972
20
-54.2296122056007
30
0
11
1538.85688722972
21
-179.803295754344
31
0
0
LINE
8
layer0
10
1538.85688722972
20
-179.803295754344
30
0
11
1532.95004330695
21
-183.450468136505
31
0
0
LINE
8
layer0
10
1538.85688722972
20
-179.803295754344
30
0
11
1538.85688722972
21
-54.2296122056007
31
0
0
LINE
8
layer0
10
1538.85688722972
20
-54.2296122056007
30
0
11
1675.35688722972
21
63.9828554109752
31
0
0
LINE
8
layer0
10
1675.35688722972
20
63.9828554109752
30
0
11
1675.35688722972
21
-61.5908281377685
31
0
0
LINE
8
layer0
10
1675.35688722972
20
-61.5908281377685
30
0
11
1538.85688722972
21
-179.803295754344
31
0
0
LINE
8
layer0
10
1675.35688722972
20
-61.5908281377685
30
0
11
1675.35688722972
21
63.9828554109752
31
0
0
LINE
8
layer0
10
1675.35688722972
20
63.9828554109752
30
0
11
1678.7205531382
21
68.3641800487088
31
0
0
LINE
8
layer0
10
1678.7205531382
20
68.3641800487088
30
0
11
1678.7205531382
21
-57.2095035000349
31
0
0
LINE
8
layer0
10
1678.7205531382
20
-57.2095035000349
30
0
11
1675.35688722972
21
-61.5908281377685
31
0
0
LINE
8
layer0
10
1678.7205531382
20
-57.2095035000349
30
0
11
1678.7205531382
21
68.3641800487088
31
0
0
LINE
8
layer0
10
1678.7205531382
20
68.3641800487088
30
0
11
1679.21178197723
21
73.05078235999
31
0
0
LINE
8
layer0
10
1679.21178197723
20
73.05078235999
30
0
11
1679.21178197723
21
-52.5229011887537
31
0
0
LINE
8
layer0
10
1679.21178197723
20
-52.5229011887537
30
0
11
1678.7205531382
21
-57.2095035000349
31
0
0
LINE
8
layer0
10
1679.21178197723
20
-52.5229011887537
30
0
11
1679.21178197723
21
73.05078235999
31
0
0
LINE
8
layer0
10
1679.21178197723
20
73.05078235999
30
0
11
1676.78248884546
21
77.5839050571121
31
0
0
LINE
8
layer0
10
1676.78248884546
20
77.5839050571121
30
0
11
1676.78248884546
21
-47.9897784916315
31
0
0
LINE
8
layer0
10
1676.78248884546
20
-47.9897784916315
30
0
11
1679.21178197723
21
-52.5229011887537
31
0
0
LINE
8
layer0
10
1676.78248884546
20
-47.9897784916315
30
0
11
1676.78248884546
21
77.5839050571121
31
0
0
LINE
8
layer0
10
1676.78248884546
20
77.5839050571121
30
0
11
1671.6704698805
21
81.519814506358
31
0
0
LINE
8
layer0
10
1671.6704698805
20
81.519814506358
30
0
11
1671.6704698805
21
-44.0538690423857
31
0
0
LINE
8
layer0
10
1671.6704698805
20
-44.0538690423857
30
0
11
1676.78248884546
21
-47.9897784916315
31
0
0
LINE
8
layer0
10
1671.6704698805
20
-44.0538690423857
30
0
11
1671.6704698805
21
81.519814506358
31
0
0
LINE
8
layer0
10
1671.6704698805
20
81.519814506358
30
0
11
1664.37612511618
21
84.4732364677417
31
0
0
LINE
8
layer0
10
1664.37612511618
20
84.4732364677417
30
0
11
1664.37612511618
21
-41.1004470810019
31
0
0
LINE
8
layer0
10
1664.37612511618
20
-41.1004470810019
30
0
11
1671.6704698805
21
-44.0538690423857
31
0
0
LINE
8
layer0
10
1672.12131564457
20
83.6807682224723
30
0
11
1382.00280537678
21
167.430768222472
31
0
0
LINE
8
layer0
10
1382.00280537678
20
167.430768222472
30
0
11
1373.24015610131
21
169.112601176713
31
0
0
LINE
8
layer0
10
1373.24015610131
20
169.112601176713
30
0
11
1370.97076591223
21
169.172068026781
31
0
0
LINE
8
layer0
10
1370.97076591223
20
169.172068026781
30
0
11
1680.65335510911
21
79.7744049087025
31
0
0
LINE
8
layer0
10
1680.65335510911
20
79.7744049087025
30
0
11
1679.41566040889
21
80.7273462610885
31
0
0
LINE
8
layer0
10
1679.41566040889
20
80.7273462610885
30
0
11
1672.12131564457
21
83.6807682224723
31
0
0
LINE
8
layer0
10
1363.99669339625
20
169.354815853342
30
0
11
1382.91786888624
21
165.723236467742
31
0
0
LINE
8
layer0
10
1382.91786888624
20
165.723236467742
30
0
11
1370.97076591223
21
169.172068026781
31
0
0
LINE
8
layer0
10
1370.97076591223
20
169.172068026781
30
0
11
1363.99669339625
21
169.354815853342
31
0
0
LINE
8
layer0
10
1354.1414555724
20
167.929507886155
30
0
11
1374.15521961077
21
167.405069421982
31
0
0
LINE
8
layer0
10
1374.15521961077
20
167.405069421982
30
0
11
1363.99669339625
21
169.354815853342
31
0
0
LINE
8
layer0
10
1363.99669339625
20
169.354815853342
30
0
11
1363.86695147875
21
169.35821559623
31
0
0
LINE
8
layer0
10
1363.86695147875
20
169.35821559623
30
0
11
1354.80070608451
21
168.143569030345
31
0
0
LINE
8
layer0
10
1354.80070608451
20
168.143569030345
30
0
11
1354.1414555724
21
167.929507886155
31
0
0
LINE
8
layer0
10
1346.24893064842
20
165.167721350447
30
0
11
1364.78201498821
21
167.650683841499
31
0
0
LINE
8
layer0
10
1364.78201498821
20
167.650683841499
30
0
11
1354.1414555724
21
167.929507886155
31
0
0
LINE
8
layer0
10
1354.1414555724
20
167.929507886155
30
0
11
1346.92888718601
21
165.587559547867
31
0
0
LINE
8
layer0
10
1346.92888718601
20
165.587559547867
30
0
11
1346.24893064842
21
165.167721350447
31
0
0
LINE
8
layer0
10
1340.51318011756
20
161.499698754493
30
0
11
1355.71576959397
21
166.436037275614
31
0
0
LINE
8
layer0
10
1355.71576959397
20
166.436037275614
30
0
11
1346.24893064842
21
165.167721350447
31
0
0
LINE
8
layer0
10
1346.24893064842
20
165.167721350447
30
0
11
1341.02204326325
21
161.940387165706
31
0
0
LINE
8
layer0
10
1341.02204326325
20
161.940387165706
30
0
11
1340.51318011756
21
161.499698754493
31
0
0
LINE
8
layer0
10
1331.8798538699
20
154.023018904861
30
0
11
1347.84395069547
21
163.880027793136
31
0
0
LINE
8
layer0
10
1347.84395069547
20
163.880027793136
30
0
11
1340.51318011756
21
161.499698754493
31
0
0
LINE
8
layer0
10
1340.51318011756
20
161.499698754493
30
0
11
1331.8798538699
21
154.023018904861
31
0
0
LINE
8
layer0
10
1196.03944365463
20
33.8817727979352
30
0
11
1341.93710677271
21
160.232855410975
31
0
0
LINE
8
layer0
10
1341.93710677271
20
160.232855410975
30
0
11
1331.8798538699
21
154.023018904861
31
0
0
LINE
8
layer0
10
1331.8798538699
20
154.023018904861
30
0
11
1199.52204326325
21
39.3977925302076
31
0
0
LINE
8
layer0
10
1199.52204326325
20
39.3977925302076
30
0
11
1196.15837735477
21
35.016467892474
31
0
0
LINE
8
layer0
10
1196.15837735477
20
35.016467892474
30
0
11
1196.03944365463
21
33.8817727979352
31
0
0
LINE
8
layer0
10
1195.99388376745
20
29.7201693011708
30
0
11
1205.43710677271
21
42.0203877943992
31
0
0
LINE
8
layer0
10
1205.43710677271
20
42.0203877943992
30
0
11
1196.03944365463
21
33.8817727979352
31
0
0
LINE
8
layer0
10
1196.03944365463
20
33.8817727979352
30
0
11
1195.66714851573
21
30.3298655811928
31
0
0
LINE
8
layer0
10
1195.66714851573
20
30.3298655811928
30
0
11
1195.99388376745
21
29.7201693011708
31
0
0
LINE
8
layer0
10
1200.62789118609
20
23.8476976579985
30
0
11
1202.07344086423
21
37.6390631566656
31
0
0
LINE
8
layer0
10
1202.07344086423
20
37.6390631566656
30
0
11
1195.99388376745
21
29.7201693011708
31
0
0
LINE
8
layer0
10
1195.99388376745
20
29.7201693011708
30
0
11
1198.0964416475
21
25.7967428840706
31
0
0
LINE
8
layer0
10
1198.0964416475
20
25.7967428840706
30
0
11
1200.62789118609
21
23.8476976579985
31
0
0
LINE
8
layer0
10
1208.72267738726
20
19.628171084918
30
0
11
1201.58221202519
21
32.9524608453844
31
0
0
LINE
8
layer0
10
1201.58221202519
20
32.9524608453844
30
0
11
1200.62789118609
21
23.8476976579985
31
0
0
LINE
8
layer0
10
1200.62789118609
20
23.8476976579985
30
0
11
1203.20846061246
21
21.8608334348247
31
0
0
LINE
8
layer0
10
1203.20846061246
20
21.8608334348247
30
0
11
1208.72267738726
21
19.628171084918
31
0
0
LINE
8
layer0
10
1219.88253497671
20
16.1997167687174
30
0
11
1204.01150515696
21
28.4193381482622
31
0
0
LINE
8
layer0
10
1204.01150515696
20
28.4193381482622
30
0
11
1208.72267738726
21
19.628171084918
31
0
0
LINE
8
layer0
10
1208.72267738726
20
19.628171084918
30
0
11
1210.50280537678
21
18.907411473441
31
0
0
LINE
8
layer0
10
1210.50280537678
20
18.907411473441
30
0
11
1219.88253497671
21
16.1997167687174
31
0
0
LINE
8
layer0
10
1253.67688792292
20
6.44412738342555
30
0
11
1209.12352412192
21
24.4834286990164
31
0
0
LINE
8
layer0
10
1209.12352412192
20
24.4834286990164
30
0
11
1219.88253497671
21
16.1997167687174
31
0
0
LINE
8
layer0
10
1219.88253497671
20
16.1997167687174
30
0
11
1253.67688792292
21
6.44412738342555
31
0
0
LINE
8
layer0
10
1521.17573094973
20
-66.446010112373
30
0
11
1216.41786888624
21
21.5300067376327
31
0
0
LINE
8
layer0
10
1216.41786888624
20
21.5300067376327
30
0
11
1253.67688792292
21
6.44412738342555
31
0
0
LINE
8
layer0
10
1253.67688792292
20
6.44412738342555
30
0
11
1500.62131564457
21
-64.842588526559
31
0
0
LINE
8
layer0
10
1500.62131564457
20
-64.842588526559
30
0
11
1509.38396492003
21
-66.5244214807994
31
0
0
LINE
8
layer0
10
1509.38396492003
20
-66.5244214807994
30
0
11
1518.7571695426
21
-66.7700359003165
31
0
0
LINE
8
layer0
10
1518.7571695426
20
-66.7700359003165
30
0
11
1521.17573094973
21
-66.446010112373
31
0
0
LINE
8
layer0
10
1527.99288115503
20
-65.5003630099911
30
0
11
1497.87612511618
21
-59.7199932623673
31
0
0
LINE
8
layer0
10
1497.87612511618
20
-59.7199932623673
30
0
11
1521.17573094973
21
-66.446010112373
31
0
0
LINE
8
layer0
10
1521.17573094973
20
-66.446010112373
30
0
11
1527.82341493684
21
-65.5553893344314
31
0
0
LINE
8
layer0
10
1527.82341493684
20
-65.5553893344314
30
0
11
1527.99288115503
21
-65.5003630099911
31
0
0
LINE
8
layer0
10
1536.99432211728
20
-62.1972596392183
30
0
11
1506.63877439165
21
-61.4018262166078
31
0
0
LINE
8
layer0
10
1506.63877439165
20
-61.4018262166078
30
0
11
1527.99288115503
21
-65.5003630099911
31
0
0
LINE
8
layer0
10
1527.99288115503
20
-65.5003630099911
30
0
11
1535.69523383533
21
-62.9993798519533
31
0
0
LINE
8
layer0
10
1535.69523383533
20
-62.9993798519533
30
0
11
1536.99432211728
21
-62.1972596392183
31
0
0
LINE
8
layer0
10
1543.15004405809
20
-58.0116293298
30
0
11
1516.01197901421
21
-61.6474406361249
31
0
0
LINE
8
layer0
10
1516.01197901421
20
-61.6474406361249
30
0
11
1536.99432211728
21
-62.1972596392183
31
0
0
LINE
8
layer0
10
1536.99432211728
20
-62.1972596392183
30
0
11
1541.6020777581
21
-59.3522074697923
31
0
0
LINE
8
layer0
10
1541.6020777581
20
-59.3522074697923
30
0
11
1543.15004405809
21
-58.0116293298
31
0
0
LINE
8
layer0
10
1549.51746716755
20
-52.4972791603645
30
0
11
1525.07822440846
21
-60.4327940702398
31
0
0
LINE
8
layer0
10
1525.07822440846
20
-60.4327940702398
30
0
11
1543.15004405809
21
-58.0116293298
31
0
0
LINE
8
layer0
10
1543.15004405809
20
-58.0116293298
30
0
11
1549.51746716755
21
-52.4972791603645
31
0
0
LINE
8
layer0
10
1569.02864593813
20
-35.6001026872592
30
0
11
1532.95004330695
21
-57.8767845877617
31
0
0
LINE
8
layer0
10
1532.95004330695
20
-57.8767845877617
30
0
11
1549.51746716755
21
-52.4972791603645
31
0
0
LINE
8
layer0
10
1549.51746716755
20
-52.4972791603645
30
0
11
1569.02864593813
21
-35.6001026872592
31
0
0
LINE
8
layer0
10
1686.30892092973
20
73.4675948182883
30
0
11
1538.85688722972
21
-54.2296122056007
31
0
0
LINE
8
layer0
10
1538.85688722972
20
-54.2296122056007
30
0
11
1569.02864593813
21
-35.6001026872592
31
0
0
LINE
8
layer0
10
1569.02864593813
20
-35.6001026872592
30
0
11
1683.1020777581
21
63.1903871657057
31
0
0
LINE
8
layer0
10
1683.1020777581
20
63.1903871657057
30
0
11
1686.46574366658
21
67.5717118034393
31
0
0
LINE
8
layer0
10
1686.46574366658
20
67.5717118034393
30
0
11
1686.95697250561
21
72.2583141147205
31
0
0
LINE
8
layer0
10
1686.95697250561
20
72.2583141147205
30
0
11
1686.30892092973
21
73.4675948182883
31
0
0
LINE
8
layer0
10
1684.80011023497
20
76.2830739042035
30
0
11
1675.35688722972
21
63.9828554109752
31
0
0
LINE
8
layer0
10
1675.35688722972
20
63.9828554109752
30
0
11
1686.30892092973
21
73.4675948182883
31
0
0
LINE
8
layer0
10
1686.30892092973
20
73.4675948182883
30
0
11
1684.80011023497
21
76.2830739042035
31
0
0
LINE
8
layer0
10
1680.65335510911
20
79.7744049087025
30
0
11
1679.93816228129
21
79.9808632945339
31
0
0
LINE
8
layer0
10
1679.93816228129
20
79.9808632945339
30
0
11
1678.7205531382
21
68.3641800487088
31
0
0
LINE
8
layer0
10
1678.7205531382
20
68.3641800487088
30
0
11
1684.80011023497
21
76.2830739042035
31
0
0
LINE
8
layer0
10
1684.80011023497
20
76.2830739042035
30
0
11
1684.52767937384
21
76.7914368118427
31
0
0
LINE
8
layer0
10
1684.52767937384
20
76.7914368118427
30
0
11
1680.65335510911
21
79.7744049087025
31
0
0
LINE
8
layer0
10
1674.68534989296
20
81.4972196177361
30
0
11
1679.21178197723
21
73.05078235999
31
0
0
LINE
8
layer0
10
1679.21178197723
20
73.05078235999
30
0
11
1679.93816228129
21
79.9808632945339
31
0
0
LINE
8
layer0
10
1679.93816228129
20
79.9808632945339
30
0
11
1674.68534989296
21
81.4972196177361
31
0
0
LINE
8
layer0
10
1669.90898819197
20
82.8760364746433
30
0
11
1676.78248884546
21
77.5839050571121
31
0
0
LINE
8
layer0
10
1676.78248884546
20
77.5839050571121
30
0
11
1674.68534989296
21
81.4972196177361
31
0
0
LINE
8
layer0
10
1674.68534989296
20
81.4972196177361
30
0
11
1669.90898819197
21
82.8760364746433
31
0
0
LINE
8
layer0
10
1664.37612511618
20
84.4732364677417
30
0
11
1671.6704698805
21
81.519814506358
31
0
0
LINE
8
layer0
10
1671.6704698805
20
81.519814506358
30
0
11
1669.90898819197
21
82.8760364746433
31
0
0
LINE
8
layer0
10
1669.90898819197
20
82.8760364746433
30
0
11
1664.37612511618
21
84.4732364677417
31
0
0
ENDBLK
0
BLOCK
8
layer0
2
PF_OBJECT65
70
0
10
0
20
0
30
0
0
LINE
8
layer0
10
1578.13588439555
20
161.680395457388
30
0
11
1571.14699700121
21
166.234443147503
31
0
0
LINE
8
layer0
10
1571.14699700121
20
166.234443147503
30
0
11
1571.14699700121
21
296.138253715168
31
0
0
LINE
8
layer0
10
1571.14699700121
20
296.138253715168
30
0
11
1578.13588439555
21
291.584206025054
31
0
0
LINE
8
layer0
10
1578.13588439555
20
291.584206025054
30
0
11
1578.13588439555
21
161.680395457388
31
0
0
LINE
8
layer0
10
1576.63737805798
20
155.989252619119
30
0
11
1578.13588439555
21
161.680395457388
31
0
0
LINE
8
layer0
10
1578.13588439555
20
161.680395457388
30
0
11
1578.13588439555
21
291.584206025054
31
0
0
LINE
8
layer0
10
1578.13588439555
20
291.584206025054
30
0
11
1576.63737805798
21
285.893063186785
31
0
0
LINE
8
layer0
10
1576.63737805798
20
285.893063186785
30
0
11
1576.63737805798
21
155.989252619119
31
0
0
LINE
8
layer0
10
1567.52928267775
20
152.494808921951
30
0
11
1576.63737805798
21
155.989252619119
31
0
0
LINE
8
layer0
10
1576.63737805798
20
155.989252619119
30
0
11
1576.63737805798
21
285.893063186785
31
0
0
LINE
8
layer0
10
1576.63737805798
20
285.893063186785
30
0
11
1567.52928267775
21
282.398619489617
31
0
0
LINE
8
layer0
10
1567.52928267775
20
282.398619489617
30
0
11
1567.52928267775
21
152.494808921951
31
0
0
LINE
8
layer0
10
1556.14699700121
20
153.244062090736
30
0
11
1567.52928267775
21
152.494808921951
31
0
0
LINE
8
layer0
10
1567.52928267775
20
152.494808921951
30
0
11
1567.52928267775
21
282.398619489617
31
0
0
LINE
8
layer0
10
1567.52928267775
20
282.398619489617
30
0
11
1556.14699700121
21
283.147872658402
31
0
0
LINE
8
layer0
10
1556.14699700121
20
283.147872658402
30
0
11
1556.14699700121
21
153.244062090736
31
0
0
LINE
8
layer0
10
1549.15810960688
20
157.79810978085
30
0
11
1556.14699700121
21
153.244062090736
31
0
0
LINE
8
layer0
10
1556.14699700121
20
153.244062090736
30
0
11
1556.14699700121
21
283.147872658402
31
0
0
LINE
8
layer0
10
1556.14699700121
20
283.147872658402
30
0
11
1549.15810960688
21
287.701920348516
31
0
0
LINE
8
layer0
10
1549.15810960688
20
287.701920348516
30
0
11
1549.15810960688
21
157.79810978085
31
0
0
LINE
8
layer0
10
1550.65661594444
20
163.489252619119
30
0
11
1549.15810960688
21
157.79810978085
31
0
0
LINE
8
layer0
10
1549.15810960688
20
157.79810978085
30
0
11
1549.15810960688
21
287.701920348516
31
0
0
LINE
8
layer0
10
1549.15810960688
20
287.701920348516
30
0
11
1550.65661594444
21
293.393063186785
31
0
0
LINE
8
layer0
10
1550.65661594444
20
293.393063186785
30
0
11
1550.65661594444
21
163.489252619119
31
0
0
LINE
8
layer0
10
1559.76471132467
20
166.983696316287
30
0
11
1550.65661594444
21
163.489252619119
31
0
0
LINE
8
layer0
10
1550.65661594444
20
163.489252619119
30
0
11
1550.65661594444
21
293.393063186785
31
0
0
LINE
8
layer0
10
1550.65661594444
20
293.393063186785
30
0
11
1559.76471132467
21
296.887506883953
31
0
0
LINE
8
layer0
10
1559.76471132467
20
296.887506883953
30
0
11
1559.76471132467
21
166.983696316287
31
0
0
LINE
8
layer0
10
1571.14699700121
20
166.234443147503
30
0
11
1559.76471132467
21
166.983696316287
31
0
0
LINE
8
layer0
10
1559.76471132467
20
166.983696316287
30
0
11
1559.76471132467
21
296.887506883953
31
0
0
LINE
8
layer0
10
1559.76471132467
20
296.887506883953
30
0
11
1571.14699700121
21
296.138253715168
31
0
0
LINE
8
layer0
10
1571.14699700121
20
296.138253715168
30
0
11
1571.14699700121
21
166.234443147503
31
0
0
LINE
8
layer0
10
1571.14699700121
20
296.138253715168
30
0
11
1559.76471132467
21
296.887506883953
31
0
0
LINE
8
layer0
10
1559.76471132467
20
296.887506883953
30
0
11
1550.65661594444
21
293.393063186785
31
0
0
LINE
8
layer0
10
1550.65661594444
20
293.393063186785
30
0
11
1549.15810960688
21
287.701920348516
31
0
0
LINE
8
layer0
10
1549.15810960688
20
287.701920348516
30
0
11
1556.14699700121
21
283.147872658402
31
0
0
LINE
8
layer0
10
1556.14699700121
20
283.147872658402
30
0
11
1567.52928267775
21
282.398619489617
31
0
0
LINE
8
layer0
10
1567.52928267775
20
282.398619489617
30
0
11
1576.63737805798
21
285.893063186785
31
0
0
LINE
8
layer0
10
1576.63737805798
20
285.893063186785
30
0
11
1578.13588439555
21
291.584206025054
31
0
0
LINE
8
layer0
10
1578.13588439555
20
291.584206025054
30
0
11
1571.14699700121
21
296.138253715168
31
0
0
LINE
8
layer0
10
1559.76471132467
20
166.983696316287
30
0
11
1571.14699700121
21
166.234443147503
31
0
0
LINE
8
layer0
10
1571.14699700121
20
166.234443147503
30
0
11
1578.13588439555
21
161.680395457388
31
0
0
LINE
8
layer0
10
1578.13588439555
20
161.680395457388
30
0
11
1576.63737805798
21
155.989252619119
31
0
0
LINE
8
layer0
10
1576.63737805798
20
155.989252619119
30
0
11
1567.52928267775
21
152.494808921951
31
0
0
LINE
8
layer0
10
1567.52928267775
20
152.494808921951
30
0
11
1556.14699700121
21
153.244062090736
31
0
0
LINE
8
layer0
10
1556.14699700121
20
153.244062090736
30
0
11
1549.15810960688
21
157.79810978085
31
0
0
LINE
8
layer0
10
1549.15810960688
20
157.79810978085
30
0
11
1550.65661594444
21
163.489252619119
31
0
0
LINE
8
layer0
10
1550.65661594444
20
163.489252619119
30
0
11
1559.76471132467
21
166.983696316287
31
0
0
ENDBLK
0
BLOCK
8
layer0
2
PF_OBJECT66
70
0
10
0
20
0
30
0
0
LINE
8
layer0
10
1568.30725103906
20
179.755913117515
30
0
11
1572.30725103906
21
183.220014732652
31
0
0
LINE
8
layer0
10
1572.30725103906
20
183.220014732652
30
0
11
1532.30725103906
21
217.86103088403
31
0
0
LINE
8
layer0
10
1532.30725103906
20
217.86103088403
30
0
11
1530.01323153979
21
218.52926487531
31
0
0
LINE
8
layer0
10
1530.01323153979
20
218.52926487531
30
0
11
1527.30725103906
21
216.995005480245
31
0
0
LINE
8
layer0
10
1527.30725103906
20
216.995005480245
30
0
11
1522.30725103906
21
212.664878461323
31
0
0
LINE
8
layer0
10
1522.30725103906
20
212.664878461323
30
0
11
1522.30725103906
21
207.468726038617
31
0
0
LINE
8
layer0
10
1522.30725103906
20
207.468726038617
30
0
11
1527.30725103906
21
211.798853057539
31
0
0
LINE
8
layer0
10
1527.30725103906
20
211.798853057539
30
0
11
1529.28693634951
21
213.07984347724
31
0
0
LINE
8
layer0
10
1529.28693634951
20
213.07984347724
30
0
11
1530.80725103906
21
212.231865759431
31
0
0
LINE
8
layer0
10
1530.80725103906
20
212.231865759431
30
0
11
1568.30725103906
21
179.755913117515
31
0
0
LINE
8
layer0
10
1554.98674296337
20
188.220014732652
30
0
11
1550.98674296337
21
184.755913117515
31
0
0
LINE
8
layer0
10
1550.98674296337
20
184.755913117515
30
0
11
1513.48674296337
21
217.231865759431
31
0
0
LINE
8
layer0
10
1513.48674296337
20
217.231865759431
30
0
11
1511.96642827383
21
218.07984347724
31
0
0
LINE
8
layer0
10
1511.96642827383
20
218.07984347724
30
0
11
1509.98674296337
21
216.798853057539
31
0
0
LINE
8
layer0
10
1509.98674296337
20
216.798853057539
30
0
11
1504.98674296337
21
212.468726038617
31
0
0
LINE
8
layer0
10
1504.98674296337
20
212.468726038617
30
0
11
1504.98674296337
21
217.664878461323
31
0
0
LINE
8
layer0
10
1504.98674296337
20
217.664878461323
30
0
11
1509.98674296337
21
221.995005480245
31
0
0
LINE
8
layer0
10
1509.98674296337
20
221.995005480245
30
0
11
1512.6927234641
21
223.52926487531
31
0
0
LINE
8
layer0
10
1512.6927234641
20
223.52926487531
30
0
11
1514.98674296337
21
222.86103088403
31
0
0
LINE
8
layer0
10
1514.98674296337
20
222.86103088403
30
0
11
1554.98674296337
21
188.220014732652
31
0
0
LINE
8
layer0
10
1554.98674296337
20
188.220014732652
30
0
11
1572.30725103906
21
183.220014732652
31
0
0
LINE
8
layer0
10
1572.30725103906
20
183.220014732652
30
0
11
1568.30725103906
21
179.755913117515
31
0
0
LINE
8
layer0
10
1568.30725103906
20
179.755913117515
30
0
11
1550.98674296337
21
184.755913117515
31
0
0
LINE
8
layer0
10
1550.98674296337
20
184.755913117515
30
0
11
1554.98674296337
21
188.220014732652
31
0
0
LINE
8
layer0
10
1550.98674296337
20
184.755913117515
30
0
11
1568.30725103906
21
179.755913117515
31
0
0
LINE
8
layer0
10
1568.30725103906
20
179.755913117515
30
0
11
1530.80725103906
21
212.231865759431
31
0
0
LINE
8
layer0
10
1530.80725103906
20
212.231865759431
30
0
11
1513.48674296337
21
217.231865759431
31
0
0
LINE
8
layer0
10
1513.48674296337
20
217.231865759431
30
0
11
1550.98674296337
21
184.755913117515
31
0
0
LINE
8
layer0
10
1513.48674296337
20
217.231865759431
30
0
11
1530.80725103906
21
212.231865759431
31
0
0
LINE
8
layer0
10
1530.80725103906
20
212.231865759431
30
0
11
1529.28693634951
21
213.07984347724
31
0
0
LINE
8
layer0
10
1529.28693634951
20
213.07984347724
30
0
11
1511.96642827383
21
218.07984347724
31
0
0
LINE
8
layer0
10
1511.96642827383
20
218.07984347724
30
0
11
1513.48674296337
21
217.231865759431
31
0
0
LINE
8
layer0
10
1511.96642827383
20
218.07984347724
30
0
11
1529.28693634951
21
213.07984347724
31
0
0
LINE
8
layer0
10
1529.28693634951
20
213.07984347724
30
0
11
1527.30725103906
21
211.798853057539
31
0
0
LINE
8
layer0
10
1527.30725103906
20
211.798853057539
30
0
11
1509.98674296337
21
216.798853057539
31
0
0
LINE
8
layer0
10
1509.98674296337
20
216.798853057539
30
0
11
1511.96642827383
21
218.07984347724
31
0
0
LINE
8
layer0
10
1509.98674296337
20
216.798853057539
30
0
11
1527.30725103906
21
211.798853057539
31
0
0
LINE
8
layer0
10
1527.30725103906
20
211.798853057539
30
0
11
1522.30725103906
21
207.468726038617
31
0
0
LINE
8
layer0
10
1522.30725103906
20
207.468726038617
30
0
11
1504.98674296337
21
212.468726038617
31
0
0
LINE
8
layer0
10
1504.98674296337
20
212.468726038617
30
0
11
1509.98674296337
21
216.798853057539
31
0
0
LINE
8
layer0
10
1504.98674296337
20
212.468726038617
30
0
11
1522.30725103906
21
207.468726038617
31
0
0
LINE
8
layer0
10
1522.30725103906
20
207.468726038617
30
0
11
1522.30725103906
21
212.664878461323
31
0
0
LINE
8
layer0
10
1522.30725103906
20
212.664878461323
30
0
11
1504.98674296337
21
217.664878461323
31
0
0
LINE
8
layer0
10
1504.98674296337
20
217.664878461323
30
0
11
1504.98674296337
21
212.468726038617
31
0
0
LINE
8
layer0
10
1504.98674296337
20
217.664878461323
30
0
11
1522.30725103906
21
212.664878461323
31
0
0
LINE
8
layer0
10
1522.30725103906
20
212.664878461323
30
0
11
1527.30725103906
21
216.995005480245
31
0
0
LINE
8
layer0
10
1527.30725103906
20
216.995005480245
30
0
11
1509.98674296337
21
221.995005480245
31
0
0
LINE
8
layer0
10
1509.98674296337
20
221.995005480245
30
0
11
1504.98674296337
21
217.664878461323
31
0
0
LINE
8
layer0
10
1509.98674296337
20
221.995005480245
30
0
11
1527.30725103906
21
216.995005480245
31
0
0
LINE
8
layer0
10
1527.30725103906
20
216.995005480245
30
0
11
1530.01323153979
21
218.52926487531
31
0
0
LINE
8
layer0
10
1530.01323153979
20
218.52926487531
30
0
11
1512.6927234641
21
223.52926487531
31
0
0
LINE
8
layer0
10
1512.6927234641
20
223.52926487531
30
0
11
1509.98674296337
21
221.995005480245
31
0
0
LINE
8
layer0
10
1512.6927234641
20
223.52926487531
30
0
11
1530.01323153979
21
218.52926487531
31
0
0
LINE
8
layer0
10
1530.01323153979
20
218.52926487531
30
0
11
1532.30725103906
21
217.86103088403
31
0
0
LINE
8
layer0
10
1532.30725103906
20
217.86103088403
30
0
11
1514.98674296337
21
222.86103088403
31
0
0
LINE
8
layer0
10
1514.98674296337
20
222.86103088403
30
0
11
1512.6927234641
21
223.52926487531
31
0
0
LINE
8
layer0
10
1514.98674296337
20
222.86103088403
30
0
11
1532.30725103906
21
217.86103088403
31
0
0
LINE
8
layer0
10
1532.30725103906
20
217.86103088403
30
0
11
1572.30725103906
21
183.220014732652
31
0
0
LINE
8
layer0
10
1572.30725103906
20
183.220014732652
30
0
11
1554.98674296337
21
188.220014732652
31
0
0
LINE
8
layer0
10
1554.98674296337
20
188.220014732652
30
0
11
1514.98674296337
21
222.86103088403
31
0
0
ENDBLK
0
BLOCK
8
layer0
2
PF_OBJECT67
70
0
10
0
20
0
30
0
0
LINE
8
layer0
10
1570.97231454852
20
274.826720235695
30
0
11
1549.32167945391
21
281.076720235695
31
0
0
LINE
8
layer0
10
1549.32167945391
20
281.076720235695
30
0
11
1549.75579989807
21
285.717022228408
31
0
0
LINE
8
layer0
10
1549.75579989807
20
285.717022228408
30
0
11
1571.40643499268
21
279.467022228408
31
0
0
LINE
8
layer0
10
1571.40643499268
20
279.467022228408
30
0
11
1570.97231454852
21
274.826720235695
31
0
0
LINE
8
layer0
10
1514.85340809848
20
261.75318293999
30
0
11
1536.50404319309
21
255.50318293999
31
0
0
LINE
8
layer0
10
1536.50404319309
20
255.50318293999
30
0
11
1536.93816363726
21
260.143484932703
31
0
0
LINE
8
layer0
10
1536.93816363726
20
260.143484932703
30
0
11
1515.28752854265
21
266.393484932703
31
0
0
LINE
8
layer0
10
1515.28752854265
20
266.393484932703
30
0
11
1514.85340809848
21
261.75318293999
31
0
0
LINE
8
layer0
10
1549.32167945391
20
281.076720235695
30
0
11
1514.85340809848
21
261.75318293999
31
0
0
LINE
8
layer0
10
1514.85340809848
20
261.75318293999
30
0
11
1515.28752854265
21
266.393484932703
31
0
0
LINE
8
layer0
10
1515.28752854265
20
266.393484932703
30
0
11
1549.75579989807
21
285.717022228408
31
0
0
LINE
8
layer0
10
1549.75579989807
20
285.717022228408
30
0
11
1549.32167945391
21
281.076720235695
31
0
0
LINE
8
layer0
10
1536.50404319309
20
255.50318293999
30
0
11
1570.97231454852
21
274.826720235695
31
0
0
LINE
8
layer0
10
1570.97231454852
20
274.826720235695
30
0
11
1571.40643499268
21
279.467022228408
31
0
0
LINE
8
layer0
10
1571.40643499268
20
279.467022228408
30
0
11
1536.93816363726
21
260.143484932703
31
0
0
LINE
8
layer0
10
1536.93816363726
20
260.143484932703
30
0
11
1536.50404319309
21
255.50318293999
31
0
0
LINE
8
layer0
10
1571.40643499268
20
279.467022228408
30
0
11
1549.75579989807
21
285.717022228408
31
0
0
LINE
8
layer0
10
1549.75579989807
20
285.717022228408
30
0
11
1515.28752854265
21
266.393484932703
31
0
0
LINE
8
layer0
10
1515.28752854265
20
266.393484932703
30
0
11
1536.93816363726
21
260.143484932703
31
0
0
LINE
8
layer0
10
1536.93816363726
20
260.143484932703
30
0
11
1571.40643499268
21
279.467022228408
31
0
0
LINE
8
layer0
10
1549.32167945391
20
281.076720235695
30
0
11
1570.97231454852
21
274.826720235695
31
0
0
LINE
8
layer0
10
1570.97231454852
20
274.826720235695
30
0
11
1536.50404319309
21
255.50318293999
31
0
0
LINE
8
layer0
10
1536.50404319309
20
255.50318293999
30
0
11
1514.85340809848
21
261.75318293999
31
0
0
LINE
8
layer0
10
1514.85340809848
20
261.75318293999
30
0
11
1549.32167945391
21
281.076720235695
31
0
0
ENDBLK
0
BLOCK
8
layer0
2
PF_OBJECT68
70
0
10
0
20
0
30
0
0
LINE
8
layer0
10
316.772918920436
20
-261.762794416288
30
0
11
316.772918920436
21
-391.666604983954
31
0
0
LINE
8
layer0
10
316.772918920436
20
-391.666604983954
30
0
11
576.772918920436
21
-166.5
31
0
0
LINE
8
layer0
10
576.772918920436
20
-166.5
30
0
11
576.772918920436
21
-36.5961894323342
31
0
0
LINE
8
layer0
10
576.772918920436
20
-36.5961894323342
30
0
11
316.772918920436
21
-261.762794416288
31
0
0
LINE
8
layer0
10
562.925172713923
20
-162.5025
30
0
11
576.772918920436
21
-166.5
31
0
0
LINE
8
layer0
10
576.772918920436
20
-166.5
30
0
11
316.772918920436
21
-391.666604983954
31
0
0
LINE
8
layer0
10
316.772918920436
20
-391.666604983954
30
0
11
302.925172713923
21
-387.669104983954
31
0
0
LINE
8
layer0
10
302.925172713923
20
-387.669104983954
30
0
11
562.925172713923
21
-162.5025
31
0
0
LINE
8
layer0
10
562.925172713923
20
-32.5986894323342
30
0
11
576.772918920436
21
-36.5961894323342
31
0
0
LINE
8
layer0
10
576.772918920436
20
-36.5961894323342
30
0
11
576.772918920436
21
-166.5
31
0
0
LINE
8
layer0
10
576.772918920436
20
-166.5
30
0
11
562.925172713923
21
-162.5025
31
0
0
LINE
8
layer0
10
562.925172713923
20
-162.5025
30
0
11
562.925172713923
21
-32.5986894323342
31
0
0
LINE
8
layer0
10
316.772918920436
20
-261.762794416288
30
0
11
302.925172713923
21
-257.765294416288
31
0
0
LINE
8
layer0
10
302.925172713923
20
-257.765294416288
30
0
11
302.925172713923
21
-387.669104983954
31
0
0
LINE
8
layer0
10
302.925172713923
20
-387.669104983954
30
0
11
316.772918920436
21
-391.666604983954
31
0
0
LINE
8
layer0
10
316.772918920436
20
-391.666604983954
30
0
11
316.772918920436
21
-261.762794416288
31
0
0
LINE
8
layer0
10
302.925172713923
20
-257.765294416288
30
0
11
316.772918920436
21
-261.762794416288
31
0
0
LINE
8
layer0
10
316.772918920436
20
-261.762794416288
30
0
11
576.772918920436
21
-36.5961894323342
31
0
0
LINE
8
layer0
10
576.772918920436
20
-36.5961894323342
30
0
11
562.925172713923
21
-32.5986894323342
31
0
0
LINE
8
layer0
10
562.925172713923
20
-32.5986894323342
30
0
11
302.925172713923
21
-257.765294416288
31
0
0
LINE
8
layer0
10
562.925172713923
20
-32.5986894323342
30
0
11
562.925172713923
21
-162.5025
31
0
0
LINE
8
layer0
10
562.925172713923
20
-162.5025
30
0
11
302.925172713923
21
-387.669104983954
31
0
0
LINE
8
layer0
10
302.925172713923
20
-387.669104983954
30
0
11
302.925172713923
21
-257.765294416288
31
0
0
LINE
8
layer0
10
302.925172713923
20
-257.765294416288
30
0
11
562.925172713923
21
-32.5986894323342
31
0
0
ENDBLK
0
BLOCK
8
layer0
2
PF_OBJECT69
70
0
10
0
20
0
30
0
0
LINE
8
layer0
10
2381.37748154254
20
-857.762794416288
30
0
11
2381.37748154254
21
-987.666604983954
31
0
0
LINE
8
layer0
10
2381.37748154254
20
-987.666604983954
30
0
11
302.916512459885
21
-387.666604983954
31
0
0
LINE
8
layer0
10
302.916512459885
20
-387.666604983954
30
0
11
302.916512459885
21
-257.762794416288
31
0
0
LINE
8
layer0
10
302.916512459885
20
-257.762794416288
30
0
11
2381.37748154254
21
-857.762794416288
31
0
0
LINE
8
layer0
10
294.921512459885
20
-394.590478087211
30
0
11
302.916512459885
21
-387.666604983954
31
0
0
LINE
8
layer0
10
302.916512459885
20
-387.666604983954
30
0
11
2381.37748154254
21
-987.666604983954
31
0
0
LINE
8
layer0
10
2381.37748154254
20
-987.666604983954
30
0
11
2373.38248154254
21
-994.590478087211
31
0
0
LINE
8
layer0
10
2373.38248154254
20
-994.590478087211
30
0
11
294.921512459885
21
-394.590478087211
31
0
0
LINE
8
layer0
10
294.921512459885
20
-264.686667519545
30
0
11
302.916512459885
21
-257.762794416288
31
0
0
LINE
8
layer0
10
302.916512459885
20
-257.762794416288
30
0
11
302.916512459885
21
-387.666604983954
31
0
0
LINE
8
layer0
10
302.916512459885
20
-387.666604983954
30
0
11
294.921512459885
21
-394.590478087211
31
0
0
LINE
8
layer0
10
294.921512459885
20
-394.590478087211
30
0
11
294.921512459885
21
-264.686667519545
31
0
0
LINE
8
layer0
10
2381.37748154254
20
-857.762794416288
30
0
11
2373.38248154254
21
-864.686667519545
31
0
0
LINE
8
layer0
10
2373.38248154254
20
-864.686667519545
30
0
11
2373.38248154254
21
-994.590478087211
31
0
0
LINE
8
layer0
10
2373.38248154254
20
-994.590478087211
30
0
11
2381.37748154254
21
-987.666604983954
31
0
0
LINE
8
layer0
10
2381.37748154254
20
-987.666604983954
30
0
11
2381.37748154254
21
-857.762794416288
31
0
0
LINE
8
layer0
10
2373.38248154254
20
-864.686667519545
30
0
11
2381.37748154254
21
-857.762794416288
31
0
0
LINE
8
layer0
10
2381.37748154254
20
-857.762794416288
30
0
11
302.916512459885
21
-257.762794416288
31
0
0
LINE
8
layer0
10
302.916512459885
20
-257.762794416288
30
0
11
294.921512459885
21
-264.686667519545
31
0
0
LINE
8
layer0
10
294.921512459885
20
-264.686667519545
30
0
11
2373.38248154254
21
-864.686667519545
31
0
0
LINE
8
layer0
10
294.921512459885
20
-264.686667519545
30
0
11
294.921512459885
21
-394.590478087211
31
0
0
LINE
8
layer0
10
294.921512459885
20
-394.590478087211
30
0
11
2373.38248154254
21
-994.59047808721
31
0
0
LINE
8
layer0
10
2373.38248154254
20
-994.59047808721
30
0
11
2373.38248154254
21
-864.686667519545
31
0
0
LINE
8
layer0
10
2373.38248154254
20
-864.686667519545
30
0
11
294.921512459885
21
-264.686667519545
31
0
0
ENDBLK
0
BLOCK
8
layer0
2
PF_OBJECT70
70
0
10
0
20
0
30
0
0
LINE
8
layer0
10
2627.52107508199
20
-628.596189432334
30
0
11
2627.52107508199
21
-758.5
31
0
0
LINE
8
layer0
10
2627.52107508199
20
-758.5
30
0
11
2367.52107508199
21
-983.666604983954
31
0
0
LINE
8
layer0
10
2367.52107508199
20
-983.666604983954
30
0
11
2367.52107508199
21
-853.762794416288
31
0
0
LINE
8
layer0
10
2367.52107508199
20
-853.762794416288
30
0
11
2627.52107508199
21
-628.596189432334
31
0
0
LINE
8
layer0
10
2381.3688212885
20
-987.664104983954
30
0
11
2367.52107508199
21
-983.666604983954
31
0
0
LINE
8
layer0
10
2367.52107508199
20
-983.666604983954
30
0
11
2627.52107508199
21
-758.5
31
0
0
LINE
8
layer0
10
2627.52107508199
20
-758.5
30
0
11
2641.3688212885
21
-762.4975
31
0
0
LINE
8
layer0
10
2641.3688212885
20
-762.4975
30
0
11
2381.3688212885
21
-987.664104983954
31
0
0
LINE
8
layer0
10
2381.3688212885
20
-857.760294416288
30
0
11
2367.52107508199
21
-853.762794416288
31
0
0
LINE
8
layer0
10
2367.52107508199
20
-853.762794416288
30
0
11
2367.52107508199
21
-983.666604983954
31
0
0
LINE
8
layer0
10
2367.52107508199
20
-983.666604983954
30
0
11
2381.3688212885
21
-987.664104983954
31
0
0
LINE
8
layer0
10
2381.3688212885
20
-987.664104983954
30
0
11
2381.3688212885
21
-857.760294416288
31
0
0
LINE
8
layer0
10
2627.52107508199
20
-628.596189432334
30
0
11
2641.3688212885
21
-632.593689432334
31
0
0
LINE
8
layer0
10
2641.3688212885
20
-632.593689432334
30
0
11
2641.3688212885
21
-762.4975
31
0
0
LINE
8
layer0
10
2641.3688212885
20
-762.4975
30
0
11
2627.52107508199
21
-758.5
31
0
0
LINE
8
layer0
10
2627.52107508199
20
-758.5
30
0
11
2627.52107508199
21
-628.596189432334
31
0
0
LINE
8
layer0
10
2641.3688212885
20
-632.593689432334
30
0
11
2627.52107508199
21
-628.596189432334
31
0
0
LINE
8
layer0
10
2627.52107508199
20
-628.596189432334
30
0
11
2367.52107508199
21
-853.762794416288
31
0
0
LINE
8
layer0
10
2367.52107508199
20
-853.762794416288
30
0
11
2381.3688212885
21
-857.760294416288
31
0
0
LINE
8
layer0
10
2381.3688212885
20
-857.760294416288
30
0
11
2641.3688212885
21
-632.593689432334
31
0
0
LINE
8
layer0
10
2381.3688212885
20
-857.760294416288
30
0
11
2381.3688212885
21
-987.664104983954
31
0
0
LINE
8
layer0
10
2381.3688212885
20
-987.664104983954
30
0
11
2641.3688212885
21
-762.4975
31
0
0
LINE
8
layer0
10
2641.3688212885
20
-762.4975
30
0
11
2641.3688212885
21
-632.593689432334
31
0
0
LINE
8
layer0
10
2641.3688212885
20
-632.593689432334
30
0
11
2381.3688212885
21
-857.760294416288
31
0
0
ENDBLK
0
ENDSEC
0
SECTION
2
ENTITIES
0
INSERT
2
PF_OBJECT0
8
0
10
0
20
0
30
0
0
INSERT
2
PF_OBJECT1
8
0
10
0
20
0
30
0
0
INSERT
2
PF_OBJECT2
8
0
10
0
20
0
30
0
0
INSERT
2
PF_OBJECT3
8
0
10
0
20
0
30
0
0
INSERT
2
PF_OBJECT4
8
0
10
0
20
0
30
0
0
INSERT
2
PF_OBJECT5
8
0
10
0
20
0
30
0
0
INSERT
2
PF_OBJECT6
8
0
10
0
20
0
30
0
0
INSERT
2
PF_OBJECT7
8
0
10
0
20
0
30
0
0
INSERT
2
PF_OBJECT8
8
0
10
0
20
0
30
0
0
INSERT
2
PF_OBJECT9
8
0
10
0
20
0
30
0
0
INSERT
2
PF_OBJECT10
8
0
10
0
20
0
30
0
0
INSERT
2
PF_OBJECT11
8
0
10
0
20
0
30
0
0
INSERT
2
PF_OBJECT12
8
0
10
0
20
0
30
0
0
INSERT
2
PF_OBJECT13
8
0
10
0
20
0
30
0
0
INSERT
2
PF_OBJECT14
8
0
10
0
20
0
30
0
0
INSERT
2
PF_SKETCH15
8
0
10
0
20
0
30
0
0
INSERT
2
PF_SKETCH16
8
0
10
0
20
0
30
0
0
INSERT
2
PF_SKETCH17
8
0
10
0
20
0
30
0
0
INSERT
2
PF_SKETCH18
8
0
10
0
20
0
30
0
0
INSERT
2
PF_SKETCH19
8
0
10
0
20
0
30
0
0
INSERT
2
PF_SKETCH20
8
0
10
0
20
0
30
0
0
INSERT
2
PF_OBJECT21
8
0
10
0
20
0
30
0
0
INSERT
2
PF_OBJECT22
8
0
10
0
20
0
30
0
0
INSERT
2
PF_OBJECT23
8
0
10
0
20
0
30
0
0
INSERT
2
PF_OBJECT24
8
0
10
0
20
0
30
0
0
INSERT
2
PF_OBJECT25
8
0
10
0
20
0
30
0
0
INSERT
2
PF_OBJECT26
8
0
10
0
20
0
30
0
0
INSERT
2
PF_OBJECT27
8
0
10
0
20
0
30
0
0
INSERT
2
PF_OBJECT28
8
0
10
0
20
0
30
0
0
INSERT
2
PF_OBJECT29
8
0
10
0
20
0
30
0
0
INSERT
2
PF_OBJECT30
8
0
10
0
20
0
30
0
0
INSERT
2
PF_OBJECT31
8
0
10
0
20
0
30
0
0
INSERT
2
PF_OBJECT32
8
0
10
0
20
0
30
0
0
INSERT
2
PF_OBJECT33
8
0
10
0
20
0
30
0
0
INSERT
2
PF_OBJECT34
8
0
10
0
20
0
30
0
0
INSERT
2
PF_OBJECT35
8
0
10
0
20
0
30
0
0
INSERT
2
PF_OBJECT36
8
0
10
0
20
0
30
0
0
INSERT
2
PF_OBJECT37
8
0
10
0
20
0
30
0
0
INSERT
2
PF_SKETCH38
8
0
10
0
20
0
30
0
0
INSERT
2
PF_SKETCH39
8
0
10
0
20
0
30
0
0
INSERT
2
PF_SKETCH40
8
0
10
0
20
0
30
0
0
INSERT
2
PF_SKETCH41
8
0
10
0
20
0
30
0
0
INSERT
2
PF_SKETCH42
8
0
10
0
20
0
30
0
0
INSERT
2
PF_SKETCH43
8
0
10
0
20
0
30
0
0
INSERT
2
PF_OBJECT44
8
0
10
0
20
0
30
0
0
INSERT
2
PF_OBJECT45
8
0
10
0
20
0
30
0
0
INSERT
2
PF_OBJECT46
8
0
10
0
20
0
30
0
0
INSERT
2
PF_OBJECT47
8
0
10
0
20
0
30
0
0
INSERT
2
PF_OBJECT48
8
0
10
0
20
0
30
0
0
INSERT
2
PF_OBJECT49
8
0
10
0
20
0
30
0
0
INSERT
2
PF_OBJECT50
8
0
10
0
20
0
30
0
0
INSERT
2
PF_OBJECT51
8
0
10
0
20
0
30
0
0
INSERT
2
PF_OBJECT52
8
0
10
0
20
0
30
0
0
INSERT
2
PF_OBJECT53
8
0
10
0
20
0
30
0
0
INSERT
2
PF_OBJECT54
8
0
10
0
20
0
30
0
0
INSERT
2
PF_OBJECT55
8
0
10
0
20
0
30
0
0
INSERT
2
PF_SKETCH56
8
0
10
0
20
0
30
0
0
INSERT
2
PF_SKETCH57
8
0
10
0
20
0
30
0
0
INSERT
2
PF_SKETCH58
8
0
10
0
20
0
30
0
0
INSERT
2
PF_SKETCH59
8
0
10
0
20
0
30
0
0
INSERT
2
PF_SKETCH60
8
0
10
0
20
0
30
0
0
INSERT
2
PF_SKETCH61
8
0
10
0
20
0
30
0
0
INSERT
2
PF_OBJECT62
8
0
10
0
20
0
30
0
0
INSERT
2
PF_OBJECT63
8
0
10
0
20
0
30
0
0
INSERT
2
PF_OBJECT64
8
0
10
0
20
0
30
0
0
INSERT
2
PF_OBJECT65
8
0
10
0
20
0
30
0
0
INSERT
2
PF_OBJECT66
8
0
10
0
20
0
30
0
0
INSERT
2
PF_OBJECT67
8
0
10
0
20
0
30
0
0
INSERT
2
PF_OBJECT68
8
0
10
0
20
0
30
0
0
INSERT
2
PF_OBJECT69
8
0
10
0
20
0
30
0
0
INSERT
2
PF_OBJECT70
8
0
10
0
20
0
30
0
0
ENDSEC
0
EOF
