0
SECTION
2
HEADER
9
$EXTMIN
10
-570.000000000001
20
-570
30
0
9
$EXTMAX
10
4570
20
2750
30
0
0
ENDSEC
0
SECTION
2
TABLES
0
TABLE
2
LAYER
5
2
70
3
0
LAYER
5
14
2
layer0
5
14
70
0
62
7
6
CONTINUOUS
0
ENDTAB
0
TABLE
2
DIMSTYLE
70
2
0
DIMSTYLE
2
PFDIMSTYLE
70
0
3

4

5

6

7

40
1
41
30
42
0
43
0
44
1
45
0
46
0
47
0
48
0
71
0
72
0
73
0
74
0
75
0
76
0
77
2
78
12
140
30
141
0
142
0
143
1
144
1
145
0
146
1
147
5
170
0
171
1
172
0
173
1
174
0
175
0
176
7
177
7
178
7
0
ENDTAB
0
ENDSEC
0
SECTION
2
BLOCKS
0
BLOCK
8
layer0
2
PF_OBJECT0
70
0
10
0
20
0
30
0
0
LINE
8
layer0
10
3499.10161513775
20
1325.27820916122
30
0
11
3499.10161513775
21
-969.689110867545
31
0
0
LINE
8
layer0
10
3499.10161513775
20
-969.689110867545
30
0
11
-25.6217782649107
21
47.8108891324554
31
0
0
LINE
8
layer0
10
-25.6217782649107
20
47.8108891324554
30
0
11
-25.6217782649108
21
2342.77820916122
31
0
0
LINE
8
layer0
10
-25.6217782649108
20
2342.77820916122
30
0
11
3499.10161513775
21
1325.27820916122
31
0
0
LINE
8
layer0
10
3464.10161513775
20
1294.96732002876
30
0
11
3499.10161513775
21
1325.27820916122
31
0
0
LINE
8
layer0
10
3499.10161513775
20
1325.27820916122
30
0
11
-25.6217782649107
21
2342.77820916122
31
0
0
LINE
8
layer0
10
-25.6217782649107
20
2342.77820916122
30
0
11
-2.46139223857096E-14
21
2294.96732002876
31
0
0
LINE
8
layer0
10
-2.46139223857096E-14
20
2294.96732002876
30
0
11
3464.10161513775
21
1294.96732002876
31
0
0
LINE
8
layer0
10
0
20
0
30
0
11
-25.6217782649108
21
47.8108891324554
31
0
0
LINE
8
layer0
10
-25.6217782649108
20
47.8108891324554
30
0
11
3499.10161513775
21
-969.689110867545
31
0
0
LINE
8
layer0
10
3499.10161513775
20
-969.689110867545
30
0
11
3464.10161513775
21
-1000
31
0
0
LINE
8
layer0
10
3464.10161513775
20
-1000
30
0
11
0
21
0
31
0
0
LINE
8
layer0
10
3464.10161513775
20
1294.96732002876
30
0
11
3464.10161513775
21
-1000
31
0
0
LINE
8
layer0
10
3464.10161513775
20
-1000
30
0
11
3499.10161513775
21
-969.689110867545
31
0
0
LINE
8
layer0
10
3499.10161513775
20
-969.689110867545
30
0
11
3499.10161513775
21
1325.27820916122
31
0
0
LINE
8
layer0
10
3499.10161513775
20
1325.27820916122
30
0
11
3464.10161513775
21
1294.96732002876
31
0
0
LINE
8
layer0
10
-25.6217782649108
20
2342.77820916122
30
0
11
-25.6217782649108
21
47.8108891324554
31
0
0
LINE
8
layer0
10
-25.6217782649108
20
47.8108891324554
30
0
11
-3.69208835785644E-14
21
1.06581410364015E-14
31
0
0
LINE
8
layer0
10
-3.69208835785644E-14
20
1.06581410364015E-14
30
0
11
-2.46139223857096E-14
21
2294.96732002876
31
0
0
LINE
8
layer0
10
-2.46139223857096E-14
20
2294.96732002876
30
0
11
-25.6217782649108
21
2342.77820916122
31
0
0
LINE
8
layer0
10
0
20
2294.96732002876
30
0
11
-2.46139223857096E-14
21
7.105427357601E-15
31
0
0
LINE
8
layer0
10
-2.46139223857096E-14
20
7.105427357601E-15
30
0
11
3464.10161513775
21
-1000
31
0
0
LINE
8
layer0
10
3464.10161513775
20
-1000
30
0
11
3464.10161513775
21
1294.96732002876
31
0
0
LINE
8
layer0
10
3464.10161513775
20
1294.96732002876
30
0
11
0
21
2294.96732002876
31
0
0
ENDBLK
0
BLOCK
8
layer0
2
PF_OBJECT1
70
0
10
0
20
0
30
0
0
LINE
8
layer0
10
-25.621778264911
20
2342.77820916122
30
0
11
-25.621778264911
21
47.8108891324557
31
0
0
LINE
8
layer0
10
-25.621778264911
20
47.8108891324557
30
0
11
-1560.62177826491
21
-1281.53810567666
31
0
0
LINE
8
layer0
10
-1560.62177826491
20
-1281.53810567666
30
0
11
-1560.62177826491
21
1013.4292143521
31
0
0
LINE
8
layer0
10
-1560.62177826491
20
1013.4292143521
30
0
11
-25.621778264911
21
2342.77820916122
31
0
0
LINE
8
layer0
10
-2.27373675443232E-13
20
2294.96732002876
30
0
11
-25.621778264911
21
2342.77820916122
31
0
0
LINE
8
layer0
10
-25.621778264911
20
2342.77820916122
30
0
11
-1560.62177826491
21
1013.4292143521
31
0
0
LINE
8
layer0
10
-1560.62177826491
20
1013.4292143521
30
0
11
-1500
21
995.929214352105
31
0
0
LINE
8
layer0
10
-1500
20
995.929214352105
30
0
11
-2.27373675443232E-13
21
2294.96732002876
31
0
0
LINE
8
layer0
10
-1500
20
-1299.03810567666
30
0
11
-1560.62177826491
21
-1281.53810567666
31
0
0
LINE
8
layer0
10
-1560.62177826491
20
-1281.53810567666
30
0
11
-25.621778264911
21
47.8108891324557
31
0
0
LINE
8
layer0
10
-25.621778264911
20
47.8108891324557
30
0
11
-2.27373675443232E-13
21
4.54747350886464E-13
31
0
0
LINE
8
layer0
10
-2.27373675443232E-13
20
4.54747350886464E-13
30
0
11
-1500
21
-1299.03810567666
31
0
0
LINE
8
layer0
10
-1560.62177826491
20
1013.4292143521
30
0
11
-1560.62177826491
21
-1281.53810567666
31
0
0
LINE
8
layer0
10
-1560.62177826491
20
-1281.53810567666
30
0
11
-1500
21
-1299.03810567666
31
0
0
LINE
8
layer0
10
-1500
20
-1299.03810567666
30
0
11
-1500
21
995.929214352105
31
0
0
LINE
8
layer0
10
-1500
20
995.929214352105
30
0
11
-1560.62177826491
21
1013.4292143521
31
0
0
LINE
8
layer0
10
-4.54747350886464E-13
20
2294.96732002876
30
0
11
-4.54747350886464E-13
21
2.27373675443232E-13
31
0
0
LINE
8
layer0
10
-4.54747350886464E-13
20
2.27373675443232E-13
30
0
11
-25.6217782649112
21
47.8108891324555
31
0
0
LINE
8
layer0
10
-25.6217782649112
20
47.8108891324555
30
0
11
-25.6217782649112
21
2342.77820916122
31
0
0
LINE
8
layer0
10
-25.6217782649112
20
2342.77820916122
30
0
11
-4.54747350886464E-13
21
2294.96732002876
31
0
0
LINE
8
layer0
10
-1500
20
995.929214352105
30
0
11
-1500
21
-1299.03810567666
31
0
0
LINE
8
layer0
10
-1500
20
-1299.03810567666
30
0
11
-2.27373675443232E-13
21
4.54747350886464E-13
31
0
0
LINE
8
layer0
10
-2.27373675443232E-13
20
4.54747350886464E-13
30
0
11
-2.27373675443232E-13
21
2294.96732002876
31
0
0
LINE
8
layer0
10
-2.27373675443232E-13
20
2294.96732002876
30
0
11
-1500
21
995.929214352105
31
0
0
ENDBLK
0
BLOCK
8
layer0
2
PF_OBJECT2
70
0
10
0
20
0
30
0
0
LINE
8
layer0
10
0
20
0
30
0
11
-1500
21
-1299.03810567666
31
0
0
LINE
8
layer0
10
-1500
20
-1299.03810567666
30
0
11
1964.10161513776
21
-2299.03810567666
31
0
0
LINE
8
layer0
10
1964.10161513776
20
-2299.03810567666
30
0
11
3464.10161513775
21
-1000
31
0
0
LINE
8
layer0
10
3464.10161513775
20
-1000
30
0
11
0
21
0
31
0
0
LINE
8
layer0
10
0
20
0
30
0
11
3464.10161513775
21
-1000
31
0
0
LINE
8
layer0
10
3464.10161513775
20
-1000
30
0
11
-1500
21
-1299.03810567666
31
0
0
LINE
8
layer0
10
-1500
20
-1299.03810567666
30
0
11
0
21
0
31
0
0
LINE
8
layer0
10
3464.10161513775
20
-1000
30
0
11
1964.10161513776
21
-2299.03810567666
31
0
0
LINE
8
layer0
10
1964.10161513776
20
-2299.03810567666
30
0
11
-1500
21
-1299.03810567666
31
0
0
LINE
8
layer0
10
-1500
20
-1299.03810567666
30
0
11
3464.10161513775
21
-1000
31
0
0
ENDBLK
0
BLOCK
8
layer0
2
PF_OBJECT3
70
0
10
0
20
0
30
0
0
LINE
8
layer0
10
1041.67534827
20
-201.978875334514
30
0
11
549.772918920436
21
-59.978875334514
31
0
0
LINE
8
layer0
10
549.772918920436
20
-59.978875334514
30
0
11
549.772918920436
21
-46.122468873963
31
0
0
LINE
8
layer0
10
549.772918920436
20
-46.122468873963
30
0
11
1041.67534827
21
-188.122468873963
31
0
0
LINE
8
layer0
10
1041.67534827
20
-188.122468873963
30
0
11
1041.67534827
21
-201.978875334514
31
0
0
LINE
8
layer0
10
294.272918920436
20
-281.248366001438
30
0
11
786.175348269997
21
-423.248366001438
31
0
0
LINE
8
layer0
10
786.175348269997
20
-423.248366001438
30
0
11
786.175348269997
21
-409.391959540887
31
0
0
LINE
8
layer0
10
786.175348269997
20
-409.391959540887
30
0
11
294.272918920436
21
-267.391959540887
31
0
0
LINE
8
layer0
10
294.272918920436
20
-267.391959540887
30
0
11
294.272918920436
21
-281.248366001438
31
0
0
LINE
8
layer0
10
549.772918920436
20
-59.978875334514
30
0
11
294.272918920436
21
-281.248366001438
31
0
0
LINE
8
layer0
10
294.272918920436
20
-281.248366001438
30
0
11
294.272918920436
21
-267.391959540887
31
0
0
LINE
8
layer0
10
294.272918920436
20
-267.391959540887
30
0
11
549.772918920436
21
-46.122468873963
31
0
0
LINE
8
layer0
10
549.772918920436
20
-46.122468873963
30
0
11
549.772918920436
21
-59.978875334514
31
0
0
LINE
8
layer0
10
786.175348269997
20
-423.248366001438
30
0
11
1041.67534827
21
-201.978875334514
31
0
0
LINE
8
layer0
10
1041.67534827
20
-201.978875334514
30
0
11
1041.67534827
21
-188.122468873963
31
0
0
LINE
8
layer0
10
1041.67534827
20
-188.122468873963
30
0
11
786.175348269997
21
-409.391959540887
31
0
0
LINE
8
layer0
10
786.175348269997
20
-409.391959540887
30
0
11
786.175348269997
21
-423.248366001438
31
0
0
LINE
8
layer0
10
1041.67534827
20
-188.122468873963
30
0
11
549.772918920436
21
-46.122468873963
31
0
0
LINE
8
layer0
10
549.772918920436
20
-46.122468873963
30
0
11
294.272918920436
21
-267.391959540887
31
0
0
LINE
8
layer0
10
294.272918920436
20
-267.391959540887
30
0
11
786.175348269997
21
-409.391959540887
31
0
0
LINE
8
layer0
10
786.175348269997
20
-409.391959540887
30
0
11
1041.67534827
21
-188.122468873963
31
0
0
LINE
8
layer0
10
549.772918920436
20
-59.978875334514
30
0
11
1041.67534827
21
-201.978875334514
31
0
0
LINE
8
layer0
10
1041.67534827
20
-201.978875334514
30
0
11
786.175348269997
21
-423.248366001438
31
0
0
LINE
8
layer0
10
786.175348269997
20
-423.248366001438
30
0
11
294.272918920436
21
-281.248366001438
31
0
0
LINE
8
layer0
10
294.272918920436
20
-281.248366001438
30
0
11
549.772918920436
21
-59.978875334514
31
0
0
ENDBLK
0
BLOCK
8
layer0
2
PF_OBJECT4
70
0
10
0
20
0
30
0
0
LINE
8
layer0
10
1043.67534827
20
-200.246824526945
30
0
11
551.772918920436
21
-58.2468245269451
31
0
0
LINE
8
layer0
10
551.772918920436
20
-58.2468245269451
30
0
11
551.772918920436
21
439.717782649107
31
0
0
LINE
8
layer0
10
551.772918920436
20
439.717782649107
30
0
11
1043.67534827
21
297.717782649107
31
0
0
LINE
8
layer0
10
1043.67534827
20
297.717782649107
30
0
11
1043.67534827
21
-200.246824526945
31
0
0
LINE
8
layer0
10
549.772918920436
20
-59.978875334514
30
0
11
1041.67534827
21
-201.978875334514
31
0
0
LINE
8
layer0
10
1041.67534827
20
-201.978875334514
30
0
11
1041.67534827
21
295.985731841538
31
0
0
LINE
8
layer0
10
1041.67534827
20
295.985731841538
30
0
11
549.772918920436
21
437.985731841538
31
0
0
LINE
8
layer0
10
549.772918920436
20
437.985731841538
30
0
11
549.772918920436
21
-59.978875334514
31
0
0
LINE
8
layer0
10
551.772918920436
20
-58.2468245269451
30
0
11
549.772918920436
21
-59.978875334514
31
0
0
LINE
8
layer0
10
549.772918920436
20
-59.978875334514
30
0
11
549.772918920436
21
437.985731841538
31
0
0
LINE
8
layer0
10
549.772918920436
20
437.985731841538
30
0
11
551.772918920436
21
439.717782649107
31
0
0
LINE
8
layer0
10
551.772918920436
20
439.717782649107
30
0
11
551.772918920436
21
-58.2468245269451
31
0
0
LINE
8
layer0
10
1041.67534827
20
-201.978875334514
30
0
11
1043.67534827
21
-200.246824526945
31
0
0
LINE
8
layer0
10
1043.67534827
20
-200.246824526945
30
0
11
1043.67534827
21
297.717782649107
31
0
0
LINE
8
layer0
10
1043.67534827
20
297.717782649107
30
0
11
1041.67534827
21
295.985731841538
31
0
0
LINE
8
layer0
10
1041.67534827
20
295.985731841538
30
0
11
1041.67534827
21
-201.978875334514
31
0
0
LINE
8
layer0
10
1043.67534827
20
297.717782649107
30
0
11
551.772918920436
21
439.717782649107
31
0
0
LINE
8
layer0
10
551.772918920436
20
439.717782649107
30
0
11
549.772918920436
21
437.985731841538
31
0
0
LINE
8
layer0
10
549.772918920436
20
437.985731841538
30
0
11
1041.67534827
21
295.985731841538
31
0
0
LINE
8
layer0
10
1041.67534827
20
295.985731841538
30
0
11
1043.67534827
21
297.717782649107
31
0
0
LINE
8
layer0
10
551.772918920436
20
-58.2468245269451
30
0
11
1043.67534827
21
-200.246824526945
31
0
0
LINE
8
layer0
10
1043.67534827
20
-200.246824526945
30
0
11
1041.67534827
21
-201.978875334514
31
0
0
LINE
8
layer0
10
1041.67534827
20
-201.978875334514
30
0
11
549.772918920436
21
-59.978875334514
31
0
0
LINE
8
layer0
10
549.772918920436
20
-59.978875334514
30
0
11
551.772918920436
21
-58.2468245269451
31
0
0
ENDBLK
0
BLOCK
8
layer0
2
PF_OBJECT5
70
0
10
0
20
0
30
0
0
LINE
8
layer0
10
1016.67534827
20
274.335096746927
30
0
11
524.772918920436
21
416.335096746927
31
0
0
LINE
8
layer0
10
524.772918920436
20
416.335096746927
30
0
11
524.772918920436
21
402.478690286376
31
0
0
LINE
8
layer0
10
524.772918920436
20
402.478690286376
30
0
11
1016.67534827
21
260.478690286376
31
0
0
LINE
8
layer0
10
1016.67534827
20
260.478690286376
30
0
11
1016.67534827
21
274.335096746927
31
0
0
LINE
8
layer0
10
549.772918920436
20
437.985731841538
30
0
11
1041.67534827
21
295.985731841538
31
0
0
LINE
8
layer0
10
1041.67534827
20
295.985731841538
30
0
11
1041.67534827
21
282.129325380987
31
0
0
LINE
8
layer0
10
1041.67534827
20
282.129325380987
30
0
11
549.772918920436
21
424.129325380987
31
0
0
LINE
8
layer0
10
549.772918920436
20
424.129325380987
30
0
11
549.772918920436
21
437.985731841538
31
0
0
LINE
8
layer0
10
524.772918920436
20
416.335096746927
30
0
11
549.772918920436
21
437.985731841538
31
0
0
LINE
8
layer0
10
549.772918920436
20
437.985731841538
30
0
11
549.772918920436
21
424.129325380987
31
0
0
LINE
8
layer0
10
549.772918920436
20
424.129325380987
30
0
11
524.772918920436
21
402.478690286376
31
0
0
LINE
8
layer0
10
524.772918920436
20
402.478690286376
30
0
11
524.772918920436
21
416.335096746927
31
0
0
LINE
8
layer0
10
1041.67534827
20
295.985731841538
30
0
11
1016.67534827
21
274.335096746927
31
0
0
LINE
8
layer0
10
1016.67534827
20
274.335096746927
30
0
11
1016.67534827
21
260.478690286376
31
0
0
LINE
8
layer0
10
1016.67534827
20
260.478690286376
30
0
11
1041.67534827
21
282.129325380987
31
0
0
LINE
8
layer0
10
1041.67534827
20
282.129325380987
30
0
11
1041.67534827
21
295.985731841538
31
0
0
LINE
8
layer0
10
1016.67534827
20
260.478690286376
30
0
11
524.772918920436
21
402.478690286376
31
0
0
LINE
8
layer0
10
524.772918920436
20
402.478690286376
30
0
11
549.772918920436
21
424.129325380987
31
0
0
LINE
8
layer0
10
549.772918920436
20
424.129325380987
30
0
11
1041.67534827
21
282.129325380987
31
0
0
LINE
8
layer0
10
1041.67534827
20
282.129325380987
30
0
11
1016.67534827
21
260.478690286376
31
0
0
LINE
8
layer0
10
524.772918920436
20
416.335096746927
30
0
11
1016.67534827
21
274.335096746927
31
0
0
LINE
8
layer0
10
1016.67534827
20
274.335096746927
30
0
11
1041.67534827
21
295.985731841538
31
0
0
LINE
8
layer0
10
1041.67534827
20
295.985731841538
30
0
11
549.772918920436
21
437.985731841538
31
0
0
LINE
8
layer0
10
549.772918920436
20
437.985731841538
30
0
11
524.772918920436
21
416.335096746927
31
0
0
ENDBLK
0
BLOCK
8
layer0
2
PF_OBJECT6
70
0
10
0
20
0
30
0
0
LINE
8
layer0
10
319.272918920436
20
224.510469808674
30
0
11
811.175348269997
21
82.5104698086741
31
0
0
LINE
8
layer0
10
811.175348269997
20
82.5104698086741
30
0
11
786.175348269997
21
60.8598347140631
31
0
0
LINE
8
layer0
10
786.175348269997
20
60.8598347140631
30
0
11
294.272918920436
21
202.859834714063
31
0
0
LINE
8
layer0
10
294.272918920436
20
202.859834714063
30
0
11
319.272918920436
21
224.510469808674
31
0
0
LINE
8
layer0
10
811.175348269997
20
96.3668762692251
30
0
11
319.272918920436
21
238.366876269225
31
0
0
LINE
8
layer0
10
319.272918920436
20
238.366876269225
30
0
11
294.272918920436
21
216.716241174614
31
0
0
LINE
8
layer0
10
294.272918920436
20
216.716241174614
30
0
11
786.175348269997
21
74.7162411746141
31
0
0
LINE
8
layer0
10
786.175348269997
20
74.7162411746141
30
0
11
811.175348269997
21
96.3668762692251
31
0
0
LINE
8
layer0
10
786.175348269997
20
60.8598347140631
30
0
11
811.175348269997
21
82.5104698086741
31
0
0
LINE
8
layer0
10
811.175348269997
20
82.5104698086741
30
0
11
811.175348269997
21
96.3668762692251
31
0
0
LINE
8
layer0
10
811.175348269997
20
96.3668762692251
30
0
11
786.175348269997
21
74.7162411746141
31
0
0
LINE
8
layer0
10
786.175348269997
20
74.7162411746141
30
0
11
786.175348269997
21
60.8598347140631
31
0
0
LINE
8
layer0
10
319.272918920436
20
224.510469808674
30
0
11
294.272918920436
21
202.859834714063
31
0
0
LINE
8
layer0
10
294.272918920436
20
202.859834714063
30
0
11
294.272918920436
21
216.716241174614
31
0
0
LINE
8
layer0
10
294.272918920436
20
216.716241174614
30
0
11
319.272918920436
21
238.366876269225
31
0
0
LINE
8
layer0
10
319.272918920436
20
238.366876269225
30
0
11
319.272918920436
21
224.510469808674
31
0
0
LINE
8
layer0
10
294.272918920436
20
202.859834714063
30
0
11
786.175348269997
21
60.8598347140631
31
0
0
LINE
8
layer0
10
786.175348269997
20
60.8598347140631
30
0
11
786.175348269997
21
74.7162411746141
31
0
0
LINE
8
layer0
10
786.175348269997
20
74.7162411746141
30
0
11
294.272918920436
21
216.716241174614
31
0
0
LINE
8
layer0
10
294.272918920436
20
216.716241174614
30
0
11
294.272918920436
21
202.859834714063
31
0
0
LINE
8
layer0
10
811.175348269997
20
82.5104698086741
30
0
11
319.272918920436
21
224.510469808674
31
0
0
LINE
8
layer0
10
319.272918920436
20
224.510469808674
30
0
11
319.272918920436
21
238.366876269225
31
0
0
LINE
8
layer0
10
319.272918920436
20
238.366876269225
30
0
11
811.175348269997
21
96.3668762692251
31
0
0
LINE
8
layer0
10
811.175348269997
20
96.3668762692251
30
0
11
811.175348269997
21
82.5104698086741
31
0
0
LINE
8
layer0
10
1068.67534827
20
-178.596189432334
30
0
11
1082.53175473055
21
-182.596189432334
31
0
0
LINE
8
layer0
10
1082.53175473055
20
-182.596189432334
30
0
11
799.531754730549
21
-427.68137870333
31
0
0
LINE
8
layer0
10
799.531754730549
20
-427.68137870333
30
0
11
785.675348269997
21
-423.68137870333
31
0
0
LINE
8
layer0
10
785.675348269997
20
-423.68137870333
30
0
11
1068.67534827
21
-178.596189432334
31
0
0
LINE
8
layer0
10
1082.53175473055
20
315.368417743718
30
0
11
1068.67534827
21
319.368417743718
31
0
0
LINE
8
layer0
10
1068.67534827
20
319.368417743718
30
0
11
785.675348269997
21
74.2832284727219
31
0
0
LINE
8
layer0
10
785.675348269997
20
74.2832284727219
30
0
11
799.531754730549
21
70.2832284727219
31
0
0
LINE
8
layer0
10
799.531754730549
20
70.2832284727219
30
0
11
1082.53175473055
21
315.368417743718
31
0
0
LINE
8
layer0
10
799.531754730549
20
-427.68137870333
30
0
11
1082.53175473055
21
-182.596189432334
31
0
0
LINE
8
layer0
10
1082.53175473055
20
-182.596189432334
30
0
11
1082.53175473055
21
315.368417743718
31
0
0
LINE
8
layer0
10
1082.53175473055
20
315.368417743718
30
0
11
799.531754730549
21
70.2832284727219
31
0
0
LINE
8
layer0
10
799.531754730549
20
70.2832284727219
30
0
11
799.531754730549
21
-427.68137870333
31
0
0
LINE
8
layer0
10
1068.67534827
20
-178.596189432334
30
0
11
785.675348269997
21
-423.68137870333
31
0
0
LINE
8
layer0
10
785.675348269997
20
-423.68137870333
30
0
11
785.675348269997
21
74.2832284727219
31
0
0
LINE
8
layer0
10
785.675348269997
20
74.2832284727219
30
0
11
1068.67534827
21
319.368417743718
31
0
0
LINE
8
layer0
10
1068.67534827
20
319.368417743718
30
0
11
1068.67534827
21
-178.596189432334
31
0
0
LINE
8
layer0
10
785.675348269997
20
-423.68137870333
30
0
11
799.531754730549
21
-427.68137870333
31
0
0
LINE
8
layer0
10
799.531754730549
20
-427.68137870333
30
0
11
799.531754730549
21
70.2832284727219
31
0
0
LINE
8
layer0
10
799.531754730549
20
70.2832284727219
30
0
11
785.675348269997
21
74.2832284727219
31
0
0
LINE
8
layer0
10
785.675348269997
20
74.2832284727219
30
0
11
785.675348269997
21
-423.68137870333
31
0
0
LINE
8
layer0
10
1082.53175473055
20
-182.596189432334
30
0
11
1068.67534827
21
-178.596189432334
31
0
0
LINE
8
layer0
10
1068.67534827
20
-178.596189432334
30
0
11
1068.67534827
21
319.368417743718
31
0
0
LINE
8
layer0
10
1068.67534827
20
319.368417743718
30
0
11
1082.53175473055
21
315.368417743718
31
0
0
LINE
8
layer0
10
1082.53175473055
20
315.368417743718
30
0
11
1082.53175473055
21
-182.596189432334
31
0
0
LINE
8
layer0
10
562.916512459885
20
-32.5961894323342
30
0
11
576.772918920436
21
-36.5961894323342
31
0
0
LINE
8
layer0
10
576.772918920436
20
-36.5961894323342
30
0
11
293.772918920436
21
-281.68137870333
31
0
0
LINE
8
layer0
10
293.772918920436
20
-281.68137870333
30
0
11
279.916512459885
21
-277.68137870333
31
0
0
LINE
8
layer0
10
279.916512459885
20
-277.68137870333
30
0
11
562.916512459885
21
-32.5961894323342
31
0
0
LINE
8
layer0
10
576.772918920436
20
461.368417743718
30
0
11
562.916512459885
21
465.368417743718
31
0
0
LINE
8
layer0
10
562.916512459885
20
465.368417743718
30
0
11
279.916512459885
21
220.283228472722
31
0
0
LINE
8
layer0
10
279.916512459885
20
220.283228472722
30
0
11
293.772918920436
21
216.283228472722
31
0
0
LINE
8
layer0
10
293.772918920436
20
216.283228472722
30
0
11
576.772918920436
21
461.368417743718
31
0
0
LINE
8
layer0
10
293.772918920436
20
-281.68137870333
30
0
11
576.772918920436
21
-36.5961894323342
31
0
0
LINE
8
layer0
10
576.772918920436
20
-36.5961894323342
30
0
11
576.772918920436
21
461.368417743718
31
0
0
LINE
8
layer0
10
576.772918920436
20
461.368417743718
30
0
11
293.772918920436
21
216.283228472722
31
0
0
LINE
8
layer0
10
293.772918920436
20
216.283228472722
30
0
11
293.772918920436
21
-281.68137870333
31
0
0
LINE
8
layer0
10
562.916512459885
20
-32.5961894323342
30
0
11
279.916512459885
21
-277.68137870333
31
0
0
LINE
8
layer0
10
279.916512459885
20
-277.68137870333
30
0
11
279.916512459885
21
220.283228472722
31
0
0
LINE
8
layer0
10
279.916512459885
20
220.283228472722
30
0
11
562.916512459885
21
465.368417743718
31
0
0
LINE
8
layer0
10
562.916512459885
20
465.368417743718
30
0
11
562.916512459885
21
-32.5961894323342
31
0
0
LINE
8
layer0
10
279.916512459885
20
-277.68137870333
30
0
11
293.772918920436
21
-281.68137870333
31
0
0
LINE
8
layer0
10
293.772918920436
20
-281.68137870333
30
0
11
293.772918920436
21
216.283228472722
31
0
0
LINE
8
layer0
10
293.772918920436
20
216.283228472722
30
0
11
279.916512459885
21
220.283228472722
31
0
0
LINE
8
layer0
10
279.916512459885
20
220.283228472722
30
0
11
279.916512459885
21
-277.68137870333
31
0
0
LINE
8
layer0
10
576.772918920436
20
-36.5961894323342
30
0
11
562.916512459885
21
-32.5961894323342
31
0
0
LINE
8
layer0
10
562.916512459885
20
-32.5961894323342
30
0
11
562.916512459885
21
465.368417743718
31
0
0
LINE
8
layer0
10
562.916512459885
20
465.368417743718
30
0
11
576.772918920436
21
461.368417743718
31
0
0
LINE
8
layer0
10
576.772918920436
20
461.368417743718
30
0
11
576.772918920436
21
-36.5961894323342
31
0
0
ENDBLK
0
BLOCK
8
layer0
2
PF_OBJECT7
70
0
10
0
20
0
30
0
0
LINE
8
layer0
10
716.818636873639
20
21.3736941109504
30
0
11
757.959351708797
21
21.3736941109504
31
0
0
LINE
8
layer0
10
757.959351708797
20
21.3736941109504
30
0
11
757.959351708797
21
30.0339481487948
31
0
0
LINE
8
layer0
10
757.959351708797
20
30.0339481487948
30
0
11
716.818636873639
21
30.0339481487948
31
0
0
LINE
8
layer0
10
716.818636873639
20
30.0339481487948
30
0
11
716.818636873639
21
21.3736941109504
31
0
0
LINE
8
layer0
10
708.453473836261
20
32.4487627145175
30
0
11
708.453473836261
21
23.788508676673
31
0
0
LINE
8
layer0
10
708.453473836261
20
23.788508676673
30
0
11
716.818636873639
21
21.3736941109504
31
0
0
LINE
8
layer0
10
716.818636873639
20
21.3736941109504
30
0
11
716.818636873639
21
30.0339481487948
31
0
0
LINE
8
layer0
10
716.818636873639
20
30.0339481487948
30
0
11
708.453473836261
21
32.4487627145175
31
0
0
LINE
8
layer0
10
658.541231182716
20
38.1969320426142
30
0
11
708.453473836261
21
23.788508676673
31
0
0
LINE
8
layer0
10
708.453473836261
20
23.788508676673
30
0
11
708.453473836261
21
32.4487627145175
31
0
0
LINE
8
layer0
10
708.453473836261
20
32.4487627145175
30
0
11
658.541231182716
21
46.8571860804587
31
0
0
LINE
8
layer0
10
658.541231182716
20
46.8571860804587
30
0
11
658.541231182716
21
38.1969320426142
31
0
0
LINE
8
layer0
10
653.71160205127
20
51.0397675991477
30
0
11
653.71160205127
21
42.3795135613032
31
0
0
LINE
8
layer0
10
653.71160205127
20
42.3795135613032
30
0
11
658.541231182716
21
38.1969320426142
31
0
0
LINE
8
layer0
10
658.541231182716
20
38.1969320426142
30
0
11
658.541231182716
21
46.8571860804587
31
0
0
LINE
8
layer0
10
658.541231182716
20
46.8571860804587
30
0
11
653.71160205127
21
51.0397675991477
31
0
0
LINE
8
layer0
10
637.970873765137
20
64.6716381690076
30
0
11
637.970873765137
21
56.0113841311632
31
0
0
LINE
8
layer0
10
637.970873765137
20
56.0113841311632
30
0
11
653.71160205127
21
42.3795135613032
31
0
0
LINE
8
layer0
10
653.71160205127
20
42.3795135613032
30
0
11
653.71160205127
21
51.0397675991477
31
0
0
LINE
8
layer0
10
653.71160205127
20
51.0397675991477
30
0
11
637.970873765137
21
64.6716381690076
31
0
0
LINE
8
layer0
10
708.453473836261
20
23.788508676673
30
0
11
749.594188671419
21
23.7885086766731
31
0
0
LINE
8
layer0
10
749.594188671419
20
23.7885086766731
30
0
11
757.959351708797
21
21.3736941109504
31
0
0
LINE
8
layer0
10
757.959351708797
20
21.3736941109504
30
0
11
716.818636873639
21
21.3736941109504
31
0
0
LINE
8
layer0
10
716.818636873639
20
21.3736941109504
30
0
11
708.453473836261
21
23.788508676673
31
0
0
LINE
8
layer0
10
653.71160205127
20
42.3795135613032
30
0
11
718.112732099152
21
23.788508676673
31
0
0
LINE
8
layer0
10
718.112732099152
20
23.788508676673
30
0
11
708.453473836261
21
23.788508676673
31
0
0
LINE
8
layer0
10
708.453473836261
20
23.788508676673
30
0
11
658.541231182716
21
38.1969320426142
31
0
0
LINE
8
layer0
10
658.541231182716
20
38.1969320426142
30
0
11
653.71160205127
21
42.3795135613032
31
0
0
LINE
8
layer0
10
637.970873765137
20
56.0113841311632
30
0
11
646.336036802515
21
53.5965695654405
31
0
0
LINE
8
layer0
10
646.336036802515
20
53.5965695654405
30
0
11
662.076765088648
21
39.9646989955806
31
0
0
LINE
8
layer0
10
662.076765088648
20
39.9646989955806
30
0
11
653.71160205127
21
42.3795135613032
31
0
0
LINE
8
layer0
10
653.71160205127
20
42.3795135613032
30
0
11
637.970873765137
21
56.0113841311632
31
0
0
LINE
8
layer0
10
749.594188671419
20
32.4487627145175
30
0
11
749.594188671419
21
23.7885086766731
31
0
0
LINE
8
layer0
10
749.594188671419
20
23.7885086766731
30
0
11
718.112732099152
21
23.788508676673
31
0
0
LINE
8
layer0
10
718.112732099152
20
23.788508676673
30
0
11
718.112732099152
21
32.4487627145175
31
0
0
LINE
8
layer0
10
718.112732099152
20
32.4487627145175
30
0
11
749.594188671419
21
32.4487627145175
31
0
0
LINE
8
layer0
10
718.112732099152
20
23.788508676673
30
0
11
662.076765088648
21
39.9646989955806
31
0
0
LINE
8
layer0
10
662.076765088648
20
39.9646989955806
30
0
11
662.076765088648
21
48.624953033425
31
0
0
LINE
8
layer0
10
662.076765088648
20
48.624953033425
30
0
11
718.112732099152
21
32.4487627145175
31
0
0
LINE
8
layer0
10
718.112732099152
20
32.4487627145175
30
0
11
718.112732099152
21
23.788508676673
31
0
0
LINE
8
layer0
10
662.076765088648
20
39.9646989955806
30
0
11
646.336036802515
21
53.5965695654405
31
0
0
LINE
8
layer0
10
646.336036802515
20
53.5965695654405
30
0
11
646.336036802515
21
62.2568236032849
31
0
0
LINE
8
layer0
10
646.336036802515
20
62.2568236032849
30
0
11
662.076765088648
21
48.624953033425
31
0
0
LINE
8
layer0
10
662.076765088648
20
48.624953033425
30
0
11
662.076765088648
21
39.9646989955806
31
0
0
LINE
8
layer0
10
749.594188671419
20
23.7885086766731
30
0
11
749.594188671419
21
32.4487627145175
31
0
0
LINE
8
layer0
10
749.594188671419
20
32.4487627145175
30
0
11
757.959351708797
21
30.0339481487948
31
0
0
LINE
8
layer0
10
757.959351708797
20
30.0339481487948
30
0
11
757.959351708797
21
21.3736941109504
31
0
0
LINE
8
layer0
10
757.959351708797
20
21.3736941109504
30
0
11
749.594188671419
21
23.7885086766731
31
0
0
LINE
8
layer0
10
637.970873765137
20
64.6716381690076
30
0
11
646.336036802515
21
62.2568236032849
31
0
0
LINE
8
layer0
10
646.336036802515
20
62.2568236032849
30
0
11
646.336036802515
21
53.5965695654405
31
0
0
LINE
8
layer0
10
646.336036802515
20
53.5965695654405
30
0
11
637.970873765137
21
56.0113841311632
31
0
0
LINE
8
layer0
10
637.970873765137
20
56.0113841311632
30
0
11
637.970873765137
21
64.6716381690076
31
0
0
LINE
8
layer0
10
757.959351708797
20
30.0339481487948
30
0
11
749.594188671419
21
32.4487627145175
31
0
0
LINE
8
layer0
10
749.594188671419
20
32.4487627145175
30
0
11
708.453473836261
21
32.4487627145175
31
0
0
LINE
8
layer0
10
708.453473836261
20
32.4487627145175
30
0
11
716.818636873639
21
30.0339481487948
31
0
0
LINE
8
layer0
10
716.818636873639
20
30.0339481487948
30
0
11
757.959351708797
21
30.0339481487948
31
0
0
LINE
8
layer0
10
708.453473836261
20
32.4487627145175
30
0
11
718.112732099152
21
32.4487627145175
31
0
0
LINE
8
layer0
10
718.112732099152
20
32.4487627145175
30
0
11
653.71160205127
21
51.0397675991477
31
0
0
LINE
8
layer0
10
653.71160205127
20
51.0397675991477
30
0
11
658.541231182716
21
46.8571860804587
31
0
0
LINE
8
layer0
10
658.541231182716
20
46.8571860804587
30
0
11
708.453473836261
21
32.4487627145175
31
0
0
LINE
8
layer0
10
653.71160205127
20
51.0397675991477
30
0
11
662.076765088648
21
48.624953033425
31
0
0
LINE
8
layer0
10
662.076765088648
20
48.624953033425
30
0
11
646.336036802515
21
62.2568236032849
31
0
0
LINE
8
layer0
10
646.336036802515
20
62.2568236032849
30
0
11
637.970873765137
21
64.6716381690076
31
0
0
LINE
8
layer0
10
637.970873765137
20
64.6716381690076
30
0
11
653.71160205127
21
51.0397675991477
31
0
0
ENDBLK
0
BLOCK
8
layer0
2
PF_OBJECT8
70
0
10
0
20
0
30
0
0
LINE
8
layer0
10
795.433678519195
20
-425.632340597654
30
0
11
281.014588671239
21
-277.132340597654
31
0
0
LINE
8
layer0
10
281.014588671239
20
-277.132340597654
30
0
11
281.014588671239
21
212.172012540554
31
0
0
LINE
8
layer0
10
281.014588671239
20
212.172012540554
30
0
11
795.433678519195
21
63.6720125405542
31
0
0
LINE
8
layer0
10
795.433678519195
20
63.6720125405542
30
0
11
795.433678519195
21
-425.632340597654
31
0
0
LINE
8
layer0
10
271.014588671239
20
-285.792594635498
30
0
11
785.433678519195
21
-434.292594635498
31
0
0
LINE
8
layer0
10
785.433678519195
20
-434.292594635498
30
0
11
785.433678519195
21
55.0117585027098
31
0
0
LINE
8
layer0
10
785.433678519195
20
55.0117585027098
30
0
11
271.014588671239
21
203.51175850271
31
0
0
LINE
8
layer0
10
271.014588671239
20
203.51175850271
30
0
11
271.014588671239
21
-285.792594635498
31
0
0
LINE
8
layer0
10
281.014588671239
20
-277.132340597654
30
0
11
271.014588671239
21
-285.792594635498
31
0
0
LINE
8
layer0
10
271.014588671239
20
-285.792594635498
30
0
11
271.014588671239
21
203.51175850271
31
0
0
LINE
8
layer0
10
271.014588671239
20
203.51175850271
30
0
11
281.014588671239
21
212.172012540554
31
0
0
LINE
8
layer0
10
281.014588671239
20
212.172012540554
30
0
11
281.014588671239
21
-277.132340597654
31
0
0
LINE
8
layer0
10
785.433678519195
20
-434.292594635498
30
0
11
795.433678519195
21
-425.632340597654
31
0
0
LINE
8
layer0
10
795.433678519195
20
-425.632340597654
30
0
11
795.433678519195
21
63.6720125405542
31
0
0
LINE
8
layer0
10
795.433678519195
20
63.6720125405542
30
0
11
785.433678519195
21
55.0117585027098
31
0
0
LINE
8
layer0
10
785.433678519195
20
55.0117585027098
30
0
11
785.433678519195
21
-434.292594635498
31
0
0
LINE
8
layer0
10
795.433678519195
20
63.6720125405542
30
0
11
281.014588671239
21
212.172012540554
31
0
0
LINE
8
layer0
10
281.014588671239
20
212.172012540554
30
0
11
271.014588671239
21
203.51175850271
31
0
0
LINE
8
layer0
10
271.014588671239
20
203.51175850271
30
0
11
785.433678519195
21
55.0117585027098
31
0
0
LINE
8
layer0
10
785.433678519195
20
55.0117585027098
30
0
11
795.433678519195
21
63.6720125405542
31
0
0
LINE
8
layer0
10
281.014588671239
20
-277.132340597654
30
0
11
795.433678519195
21
-425.632340597654
31
0
0
LINE
8
layer0
10
795.433678519195
20
-425.632340597654
30
0
11
785.433678519195
21
-434.292594635498
31
0
0
LINE
8
layer0
10
785.433678519195
20
-434.292594635498
30
0
11
271.014588671239
21
-285.792594635498
31
0
0
LINE
8
layer0
10
271.014588671239
20
-285.792594635498
30
0
11
281.014588671239
21
-277.132340597654
31
0
0
ENDBLK
0
BLOCK
8
layer0
2
PF_OBJECT9
70
0
10
0
20
0
30
0
0
LINE
8
layer0
10
590.858798800485
20
-228.301270189222
30
0
11
556.217782649107
21
-218.301270189222
31
0
0
LINE
8
layer0
10
556.217782649107
20
-218.301270189222
30
0
11
556.217782649107
21
-88.3974596215561
31
0
0
LINE
8
layer0
10
556.217782649107
20
-88.3974596215561
30
0
11
590.858798800485
21
-98.3974596215561
31
0
0
LINE
8
layer0
10
590.858798800485
20
-98.3974596215561
30
0
11
590.858798800485
21
-228.301270189222
31
0
0
LINE
8
layer0
10
536.217782649107
20
-235.621778264911
30
0
11
570.858798800485
21
-245.621778264911
31
0
0
LINE
8
layer0
10
570.858798800485
20
-245.621778264911
30
0
11
570.858798800485
21
-115.717967697245
31
0
0
LINE
8
layer0
10
570.858798800485
20
-115.717967697245
30
0
11
536.217782649107
21
-105.717967697245
31
0
0
LINE
8
layer0
10
536.217782649107
20
-105.717967697245
30
0
11
536.217782649107
21
-235.621778264911
31
0
0
LINE
8
layer0
10
556.217782649107
20
-218.301270189222
30
0
11
536.217782649107
21
-235.621778264911
31
0
0
LINE
8
layer0
10
536.217782649107
20
-235.621778264911
30
0
11
536.217782649107
21
-105.717967697245
31
0
0
LINE
8
layer0
10
536.217782649107
20
-105.717967697245
30
0
11
556.217782649107
21
-88.3974596215561
31
0
0
LINE
8
layer0
10
556.217782649107
20
-88.3974596215561
30
0
11
556.217782649107
21
-218.301270189222
31
0
0
LINE
8
layer0
10
570.858798800485
20
-245.621778264911
30
0
11
590.858798800485
21
-228.301270189222
31
0
0
LINE
8
layer0
10
590.858798800485
20
-228.301270189222
30
0
11
590.858798800485
21
-98.3974596215561
31
0
0
LINE
8
layer0
10
590.858798800485
20
-98.3974596215561
30
0
11
570.858798800485
21
-115.717967697245
31
0
0
LINE
8
layer0
10
570.858798800485
20
-115.717967697245
30
0
11
570.858798800485
21
-245.621778264911
31
0
0
LINE
8
layer0
10
590.858798800485
20
-98.3974596215561
30
0
11
556.217782649107
21
-88.3974596215561
31
0
0
LINE
8
layer0
10
556.217782649107
20
-88.3974596215561
30
0
11
536.217782649107
21
-105.717967697245
31
0
0
LINE
8
layer0
10
536.217782649107
20
-105.717967697245
30
0
11
570.858798800485
21
-115.717967697245
31
0
0
LINE
8
layer0
10
570.858798800485
20
-115.717967697245
30
0
11
590.858798800485
21
-98.3974596215561
31
0
0
LINE
8
layer0
10
556.217782649107
20
-218.301270189222
30
0
11
590.858798800485
21
-228.301270189222
31
0
0
LINE
8
layer0
10
590.858798800485
20
-228.301270189222
30
0
11
570.858798800485
21
-245.621778264911
31
0
0
LINE
8
layer0
10
570.858798800485
20
-245.621778264911
30
0
11
536.217782649107
21
-235.621778264911
31
0
0
LINE
8
layer0
10
536.217782649107
20
-235.621778264911
30
0
11
556.217782649107
21
-218.301270189222
31
0
0
ENDBLK
0
BLOCK
8
layer0
2
PF_OBJECT10
70
0
10
0
20
0
30
0
0
LINE
8
layer0
10
432.858798800485
20
-365.133283987163
30
0
11
398.217782649107
21
-355.133283987163
31
0
0
LINE
8
layer0
10
398.217782649107
20
-355.133283987163
30
0
11
398.217782649107
21
-225.229473419497
31
0
0
LINE
8
layer0
10
398.217782649107
20
-225.229473419497
30
0
11
432.858798800485
21
-235.229473419497
31
0
0
LINE
8
layer0
10
432.858798800485
20
-235.229473419497
30
0
11
432.858798800485
21
-365.133283987163
31
0
0
LINE
8
layer0
10
378.217782649107
20
-372.453792062852
30
0
11
412.858798800485
21
-382.453792062852
31
0
0
LINE
8
layer0
10
412.858798800485
20
-382.453792062852
30
0
11
412.858798800485
21
-252.549981495186
31
0
0
LINE
8
layer0
10
412.858798800485
20
-252.549981495186
30
0
11
378.217782649107
21
-242.549981495186
31
0
0
LINE
8
layer0
10
378.217782649107
20
-242.549981495186
30
0
11
378.217782649107
21
-372.453792062852
31
0
0
LINE
8
layer0
10
398.217782649107
20
-355.133283987163
30
0
11
378.217782649107
21
-372.453792062852
31
0
0
LINE
8
layer0
10
378.217782649107
20
-372.453792062852
30
0
11
378.217782649107
21
-242.549981495186
31
0
0
LINE
8
layer0
10
378.217782649107
20
-242.549981495186
30
0
11
398.217782649107
21
-225.229473419497
31
0
0
LINE
8
layer0
10
398.217782649107
20
-225.229473419497
30
0
11
398.217782649107
21
-355.133283987163
31
0
0
LINE
8
layer0
10
412.858798800485
20
-382.453792062852
30
0
11
432.858798800485
21
-365.133283987163
31
0
0
LINE
8
layer0
10
432.858798800485
20
-365.133283987163
30
0
11
432.858798800485
21
-235.229473419497
31
0
0
LINE
8
layer0
10
432.858798800485
20
-235.229473419497
30
0
11
412.858798800485
21
-252.549981495186
31
0
0
LINE
8
layer0
10
412.858798800485
20
-252.549981495186
30
0
11
412.858798800485
21
-382.453792062852
31
0
0
LINE
8
layer0
10
432.858798800485
20
-235.229473419497
30
0
11
398.217782649107
21
-225.229473419497
31
0
0
LINE
8
layer0
10
398.217782649107
20
-225.229473419497
30
0
11
378.217782649107
21
-242.549981495186
31
0
0
LINE
8
layer0
10
378.217782649107
20
-242.549981495186
30
0
11
412.858798800485
21
-252.549981495186
31
0
0
LINE
8
layer0
10
412.858798800485
20
-252.549981495186
30
0
11
432.858798800485
21
-235.229473419497
31
0
0
LINE
8
layer0
10
398.217782649107
20
-355.133283987163
30
0
11
432.858798800485
21
-365.133283987163
31
0
0
LINE
8
layer0
10
432.858798800485
20
-365.133283987163
30
0
11
412.858798800485
21
-382.453792062852
31
0
0
LINE
8
layer0
10
412.858798800485
20
-382.453792062852
30
0
11
378.217782649107
21
-372.453792062852
31
0
0
LINE
8
layer0
10
378.217782649107
20
-372.453792062852
30
0
11
398.217782649107
21
-355.133283987163
31
0
0
ENDBLK
0
BLOCK
8
layer0
2
PF_OBJECT11
70
0
10
0
20
0
30
0
0
LINE
8
layer0
10
989.230484541327
20
-343.301270189222
30
0
11
954.589468389949
21
-333.301270189222
31
0
0
LINE
8
layer0
10
954.589468389949
20
-333.301270189222
30
0
11
954.589468389949
21
-203.397459621556
31
0
0
LINE
8
layer0
10
954.589468389949
20
-203.397459621556
30
0
11
989.230484541327
21
-213.397459621556
31
0
0
LINE
8
layer0
10
989.230484541327
20
-213.397459621556
30
0
11
989.230484541327
21
-343.301270189222
31
0
0
LINE
8
layer0
10
934.589468389949
20
-350.621778264911
30
0
11
969.230484541327
21
-360.621778264911
31
0
0
LINE
8
layer0
10
969.230484541327
20
-360.621778264911
30
0
11
969.230484541327
21
-230.717967697245
31
0
0
LINE
8
layer0
10
969.230484541327
20
-230.717967697245
30
0
11
934.589468389949
21
-220.717967697245
31
0
0
LINE
8
layer0
10
934.589468389949
20
-220.717967697245
30
0
11
934.589468389949
21
-350.621778264911
31
0
0
LINE
8
layer0
10
954.589468389949
20
-333.301270189222
30
0
11
934.589468389949
21
-350.621778264911
31
0
0
LINE
8
layer0
10
934.589468389949
20
-350.621778264911
30
0
11
934.589468389949
21
-220.717967697245
31
0
0
LINE
8
layer0
10
934.589468389949
20
-220.717967697245
30
0
11
954.589468389949
21
-203.397459621556
31
0
0
LINE
8
layer0
10
954.589468389949
20
-203.397459621556
30
0
11
954.589468389949
21
-333.301270189222
31
0
0
LINE
8
layer0
10
969.230484541327
20
-360.621778264911
30
0
11
989.230484541327
21
-343.301270189222
31
0
0
LINE
8
layer0
10
989.230484541327
20
-343.301270189222
30
0
11
989.230484541327
21
-213.397459621556
31
0
0
LINE
8
layer0
10
989.230484541327
20
-213.397459621556
30
0
11
969.230484541327
21
-230.717967697245
31
0
0
LINE
8
layer0
10
969.230484541327
20
-230.717967697245
30
0
11
969.230484541327
21
-360.621778264911
31
0
0
LINE
8
layer0
10
989.230484541327
20
-213.397459621556
30
0
11
954.589468389949
21
-203.397459621556
31
0
0
LINE
8
layer0
10
954.589468389949
20
-203.397459621556
30
0
11
934.589468389949
21
-220.717967697245
31
0
0
LINE
8
layer0
10
934.589468389949
20
-220.717967697245
30
0
11
969.230484541327
21
-230.717967697245
31
0
0
LINE
8
layer0
10
969.230484541327
20
-230.717967697245
30
0
11
989.230484541327
21
-213.397459621556
31
0
0
LINE
8
layer0
10
954.589468389949
20
-333.301270189222
30
0
11
989.230484541327
21
-343.301270189222
31
0
0
LINE
8
layer0
10
989.230484541327
20
-343.301270189222
30
0
11
969.230484541327
21
-360.621778264911
31
0
0
LINE
8
layer0
10
969.230484541327
20
-360.621778264911
30
0
11
934.589468389949
21
-350.621778264911
31
0
0
LINE
8
layer0
10
934.589468389949
20
-350.621778264911
30
0
11
954.589468389949
21
-333.301270189222
31
0
0
ENDBLK
0
BLOCK
8
layer0
2
PF_OBJECT12
70
0
10
0
20
0
30
0
0
LINE
8
layer0
10
831.230484541327
20
-480.133283987163
30
0
11
796.589468389949
21
-470.133283987163
31
0
0
LINE
8
layer0
10
796.589468389949
20
-470.133283987163
30
0
11
796.589468389949
21
-340.229473419497
31
0
0
LINE
8
layer0
10
796.589468389949
20
-340.229473419497
30
0
11
831.230484541327
21
-350.229473419497
31
0
0
LINE
8
layer0
10
831.230484541327
20
-350.229473419497
30
0
11
831.230484541327
21
-480.133283987163
31
0
0
LINE
8
layer0
10
776.589468389949
20
-487.453792062852
30
0
11
811.230484541327
21
-497.453792062852
31
0
0
LINE
8
layer0
10
811.230484541327
20
-497.453792062852
30
0
11
811.230484541327
21
-367.549981495186
31
0
0
LINE
8
layer0
10
811.230484541327
20
-367.549981495186
30
0
11
776.589468389949
21
-357.549981495186
31
0
0
LINE
8
layer0
10
776.589468389949
20
-357.549981495186
30
0
11
776.589468389949
21
-487.453792062852
31
0
0
LINE
8
layer0
10
796.589468389949
20
-470.133283987163
30
0
11
776.589468389949
21
-487.453792062852
31
0
0
LINE
8
layer0
10
776.589468389949
20
-487.453792062852
30
0
11
776.589468389949
21
-357.549981495186
31
0
0
LINE
8
layer0
10
776.589468389949
20
-357.549981495186
30
0
11
796.589468389949
21
-340.229473419497
31
0
0
LINE
8
layer0
10
796.589468389949
20
-340.229473419497
30
0
11
796.589468389949
21
-470.133283987163
31
0
0
LINE
8
layer0
10
811.230484541327
20
-497.453792062852
30
0
11
831.230484541327
21
-480.133283987163
31
0
0
LINE
8
layer0
10
831.230484541327
20
-480.133283987163
30
0
11
831.230484541327
21
-350.229473419497
31
0
0
LINE
8
layer0
10
831.230484541327
20
-350.229473419497
30
0
11
811.230484541327
21
-367.549981495186
31
0
0
LINE
8
layer0
10
811.230484541327
20
-367.549981495186
30
0
11
811.230484541327
21
-497.453792062852
31
0
0
LINE
8
layer0
10
831.230484541327
20
-350.229473419497
30
0
11
796.589468389949
21
-340.229473419497
31
0
0
LINE
8
layer0
10
796.589468389949
20
-340.229473419497
30
0
11
776.589468389949
21
-357.549981495186
31
0
0
LINE
8
layer0
10
776.589468389949
20
-357.549981495186
30
0
11
811.230484541327
21
-367.549981495186
31
0
0
LINE
8
layer0
10
811.230484541327
20
-367.549981495186
30
0
11
831.230484541327
21
-350.229473419497
31
0
0
LINE
8
layer0
10
796.589468389949
20
-470.133283987163
30
0
11
831.230484541327
21
-480.133283987163
31
0
0
LINE
8
layer0
10
831.230484541327
20
-480.133283987163
30
0
11
811.230484541327
21
-497.453792062852
31
0
0
LINE
8
layer0
10
811.230484541327
20
-497.453792062852
30
0
11
776.589468389949
21
-487.453792062852
31
0
0
LINE
8
layer0
10
776.589468389949
20
-487.453792062852
30
0
11
796.589468389949
21
-470.133283987163
31
0
0
ENDBLK
0
BLOCK
8
layer0
70
0
10
0
20
0
30
0
2
PF_SKETCH13
0
LINE
8
layer0
10
515.749845793219
20
424.520886198552
30
0
11
468.583179126552
21
383.673354653386
31
0
0
ENDBLK
0
BLOCK
8
layer0
70
0
10
0
20
0
30
0
2
PF_SKETCH14
0
LINE
8
layer0
10
1035.36508806388
20
274.520886198552
30
0
11
988.198421397215
21
233.673354653386
31
0
0
ENDBLK
0
BLOCK
8
layer0
70
0
10
0
20
0
30
0
2
PF_SKETCH15
0
LINE
8
layer0
10
421.416512459885
20
342.82582310822
30
0
11
374.249845793219
21
301.978291563054
31
0
0
ENDBLK
0
BLOCK
8
layer0
70
0
10
0
20
0
30
0
2
PF_SKETCH16
0
LINE
8
layer0
10
941.031754730548
20
192.82582310822
30
0
11
893.865088063882
21
151.978291563054
31
0
0
ENDBLK
0
BLOCK
8
layer0
70
0
10
0
20
0
30
0
2
PF_SKETCH17
0
LINE
8
layer0
10
327.083179126552
20
261.130760017888
30
0
11
279.916512459885
21
220.283228472722
31
0
0
ENDBLK
0
BLOCK
8
layer0
70
0
10
0
20
0
30
0
2
PF_SKETCH18
0
LINE
8
layer0
10
846.698421397215
20
111.130760017888
30
0
11
799.531754730549
21
70.2832284727219
31
0
0
ENDBLK
0
BLOCK
8
layer0
2
PF_OBJECT19
70
0
10
0
20
0
30
0
0
LINE
8
layer0
10
2080.90583281132
20
-501.978875334514
30
0
11
1069.3881611911
21
-209.978875334514
31
0
0
LINE
8
layer0
10
1069.3881611911
20
-209.978875334514
30
0
11
1069.3881611911
21
-196.122468873963
31
0
0
LINE
8
layer0
10
1069.3881611911
20
-196.122468873963
30
0
11
2080.90583281132
21
-488.122468873963
31
0
0
LINE
8
layer0
10
2080.90583281132
20
-488.122468873963
30
0
11
2080.90583281132
21
-501.978875334514
31
0
0
LINE
8
layer0
10
813.888161191099
20
-431.248366001438
30
0
11
1825.40583281132
21
-723.248366001438
31
0
0
LINE
8
layer0
10
1825.40583281132
20
-723.248366001438
30
0
11
1825.40583281132
21
-709.391959540887
31
0
0
LINE
8
layer0
10
1825.40583281132
20
-709.391959540887
30
0
11
813.888161191099
21
-417.391959540887
31
0
0
LINE
8
layer0
10
813.888161191099
20
-417.391959540887
30
0
11
813.888161191099
21
-431.248366001438
31
0
0
LINE
8
layer0
10
1069.3881611911
20
-209.978875334514
30
0
11
813.888161191099
21
-431.248366001438
31
0
0
LINE
8
layer0
10
813.888161191099
20
-431.248366001438
30
0
11
813.888161191099
21
-417.391959540887
31
0
0
LINE
8
layer0
10
813.888161191099
20
-417.391959540887
30
0
11
1069.3881611911
21
-196.122468873963
31
0
0
LINE
8
layer0
10
1069.3881611911
20
-196.122468873963
30
0
11
1069.3881611911
21
-209.978875334514
31
0
0
LINE
8
layer0
10
1825.40583281132
20
-723.248366001438
30
0
11
2080.90583281132
21
-501.978875334514
31
0
0
LINE
8
layer0
10
2080.90583281132
20
-501.978875334514
30
0
11
2080.90583281132
21
-488.122468873963
31
0
0
LINE
8
layer0
10
2080.90583281132
20
-488.122468873963
30
0
11
1825.40583281132
21
-709.391959540887
31
0
0
LINE
8
layer0
10
1825.40583281132
20
-709.391959540887
30
0
11
1825.40583281132
21
-723.248366001438
31
0
0
LINE
8
layer0
10
2080.90583281132
20
-488.122468873963
30
0
11
1069.3881611911
21
-196.122468873963
31
0
0
LINE
8
layer0
10
1069.3881611911
20
-196.122468873963
30
0
11
813.888161191099
21
-417.391959540887
31
0
0
LINE
8
layer0
10
813.888161191099
20
-417.391959540887
30
0
11
1825.40583281132
21
-709.391959540887
31
0
0
LINE
8
layer0
10
1825.40583281132
20
-709.391959540887
30
0
11
2080.90583281132
21
-488.122468873963
31
0
0
LINE
8
layer0
10
1069.3881611911
20
-209.978875334514
30
0
11
2080.90583281132
21
-501.978875334514
31
0
0
LINE
8
layer0
10
2080.90583281132
20
-501.978875334514
30
0
11
1825.40583281132
21
-723.248366001438
31
0
0
LINE
8
layer0
10
1825.40583281132
20
-723.248366001438
30
0
11
813.888161191099
21
-431.248366001438
31
0
0
LINE
8
layer0
10
813.888161191099
20
-431.248366001438
30
0
11
1069.3881611911
21
-209.978875334514
31
0
0
ENDBLK
0
BLOCK
8
layer0
2
PF_OBJECT20
70
0
10
0
20
0
30
0
0
LINE
8
layer0
10
2082.90583281132
20
-500.246824526945
30
0
11
1071.3881611911
21
-208.246824526945
31
0
0
LINE
8
layer0
10
1071.3881611911
20
-208.246824526945
30
0
11
1071.3881611911
21
289.717782649107
31
0
0
LINE
8
layer0
10
1071.3881611911
20
289.717782649107
30
0
11
2082.90583281132
21
-2.28221735089278
31
0
0
LINE
8
layer0
10
2082.90583281132
20
-2.28221735089278
30
0
11
2082.90583281132
21
-500.246824526945
31
0
0
LINE
8
layer0
10
1069.3881611911
20
-209.978875334514
30
0
11
2080.90583281132
21
-501.978875334514
31
0
0
LINE
8
layer0
10
2080.90583281132
20
-501.978875334514
30
0
11
2080.90583281132
21
-4.01426815846168
31
0
0
LINE
8
layer0
10
2080.90583281132
20
-4.01426815846168
30
0
11
1069.3881611911
21
287.985731841538
31
0
0
LINE
8
layer0
10
1069.3881611911
20
287.985731841538
30
0
11
1069.3881611911
21
-209.978875334514
31
0
0
LINE
8
layer0
10
1071.3881611911
20
-208.246824526945
30
0
11
1069.3881611911
21
-209.978875334514
31
0
0
LINE
8
layer0
10
1069.3881611911
20
-209.978875334514
30
0
11
1069.3881611911
21
287.985731841538
31
0
0
LINE
8
layer0
10
1069.3881611911
20
287.985731841538
30
0
11
1071.3881611911
21
289.717782649107
31
0
0
LINE
8
layer0
10
1071.3881611911
20
289.717782649107
30
0
11
1071.3881611911
21
-208.246824526945
31
0
0
LINE
8
layer0
10
2080.90583281132
20
-501.978875334514
30
0
11
2082.90583281132
21
-500.246824526945
31
0
0
LINE
8
layer0
10
2082.90583281132
20
-500.246824526945
30
0
11
2082.90583281132
21
-2.28221735089278
31
0
0
LINE
8
layer0
10
2082.90583281132
20
-2.28221735089278
30
0
11
2080.90583281132
21
-4.01426815846168
31
0
0
LINE
8
layer0
10
2080.90583281132
20
-4.01426815846168
30
0
11
2080.90583281132
21
-501.978875334514
31
0
0
LINE
8
layer0
10
2082.90583281132
20
-2.28221735089278
30
0
11
1071.3881611911
21
289.717782649107
31
0
0
LINE
8
layer0
10
1071.3881611911
20
289.717782649107
30
0
11
1069.3881611911
21
287.985731841538
31
0
0
LINE
8
layer0
10
1069.3881611911
20
287.985731841538
30
0
11
2080.90583281132
21
-4.01426815846168
31
0
0
LINE
8
layer0
10
2080.90583281132
20
-4.01426815846168
30
0
11
2082.90583281132
21
-2.28221735089278
31
0
0
LINE
8
layer0
10
1071.3881611911
20
-208.246824526945
30
0
11
2082.90583281132
21
-500.246824526945
31
0
0
LINE
8
layer0
10
2082.90583281132
20
-500.246824526945
30
0
11
2080.90583281132
21
-501.978875334514
31
0
0
LINE
8
layer0
10
2080.90583281132
20
-501.978875334514
30
0
11
1069.3881611911
21
-209.978875334514
31
0
0
LINE
8
layer0
10
1069.3881611911
20
-209.978875334514
30
0
11
1071.3881611911
21
-208.246824526945
31
0
0
ENDBLK
0
BLOCK
8
layer0
2
PF_OBJECT21
70
0
10
0
20
0
30
0
0
LINE
8
layer0
10
2055.90583281132
20
-25.6649032530726
30
0
11
1044.3881611911
21
266.335096746927
31
0
0
LINE
8
layer0
10
1044.3881611911
20
266.335096746927
30
0
11
1044.3881611911
21
252.478690286376
31
0
0
LINE
8
layer0
10
1044.3881611911
20
252.478690286376
30
0
11
2055.90583281132
21
-39.5213097136237
31
0
0
LINE
8
layer0
10
2055.90583281132
20
-39.5213097136237
30
0
11
2055.90583281132
21
-25.6649032530726
31
0
0
LINE
8
layer0
10
1069.3881611911
20
287.985731841538
30
0
11
2080.90583281132
21
-4.01426815846168
31
0
0
LINE
8
layer0
10
2080.90583281132
20
-4.01426815846168
30
0
11
2080.90583281132
21
-17.8706746190127
31
0
0
LINE
8
layer0
10
2080.90583281132
20
-17.8706746190127
30
0
11
1069.3881611911
21
274.129325380987
31
0
0
LINE
8
layer0
10
1069.3881611911
20
274.129325380987
30
0
11
1069.3881611911
21
287.985731841538
31
0
0
LINE
8
layer0
10
1044.3881611911
20
266.335096746927
30
0
11
1069.3881611911
21
287.985731841538
31
0
0
LINE
8
layer0
10
1069.3881611911
20
287.985731841538
30
0
11
1069.3881611911
21
274.129325380987
31
0
0
LINE
8
layer0
10
1069.3881611911
20
274.129325380987
30
0
11
1044.3881611911
21
252.478690286376
31
0
0
LINE
8
layer0
10
1044.3881611911
20
252.478690286376
30
0
11
1044.3881611911
21
266.335096746927
31
0
0
LINE
8
layer0
10
2080.90583281132
20
-4.01426815846168
30
0
11
2055.90583281132
21
-25.6649032530726
31
0
0
LINE
8
layer0
10
2055.90583281132
20
-25.6649032530726
30
0
11
2055.90583281132
21
-39.5213097136237
31
0
0
LINE
8
layer0
10
2055.90583281132
20
-39.5213097136237
30
0
11
2080.90583281132
21
-17.8706746190127
31
0
0
LINE
8
layer0
10
2080.90583281132
20
-17.8706746190127
30
0
11
2080.90583281132
21
-4.01426815846168
31
0
0
LINE
8
layer0
10
2055.90583281132
20
-39.5213097136237
30
0
11
1044.3881611911
21
252.478690286376
31
0
0
LINE
8
layer0
10
1044.3881611911
20
252.478690286376
30
0
11
1069.3881611911
21
274.129325380987
31
0
0
LINE
8
layer0
10
1069.3881611911
20
274.129325380987
30
0
11
2080.90583281132
21
-17.8706746190127
31
0
0
LINE
8
layer0
10
2080.90583281132
20
-17.8706746190127
30
0
11
2055.90583281132
21
-39.5213097136237
31
0
0
LINE
8
layer0
10
1044.3881611911
20
266.335096746927
30
0
11
2055.90583281132
21
-25.6649032530726
31
0
0
LINE
8
layer0
10
2055.90583281132
20
-25.6649032530726
30
0
11
2080.90583281132
21
-4.01426815846168
31
0
0
LINE
8
layer0
10
2080.90583281132
20
-4.01426815846168
30
0
11
1069.3881611911
21
287.985731841538
31
0
0
LINE
8
layer0
10
1069.3881611911
20
287.985731841538
30
0
11
1044.3881611911
21
266.335096746927
31
0
0
ENDBLK
0
BLOCK
8
layer0
2
PF_OBJECT22
70
0
10
0
20
0
30
0
0
LINE
8
layer0
10
1313.29059054066
20
-552.896769012504
30
0
11
1341.00340346176
21
-560.896769012504
31
0
0
LINE
8
layer0
10
1341.00340346176
20
-560.896769012504
30
0
11
1333.00340346176
21
-567.824972242779
31
0
0
LINE
8
layer0
10
1333.00340346176
20
-567.824972242779
30
0
11
1305.29059054066
21
-559.824972242779
31
0
0
LINE
8
layer0
10
1305.29059054066
20
-559.824972242779
30
0
11
1313.29059054066
21
-552.896769012504
31
0
0
LINE
8
layer0
10
1341.00340346176
20
-90.6449747575536
30
0
11
1313.29059054066
21
-82.6449747575536
31
0
0
LINE
8
layer0
10
1313.29059054066
20
-82.6449747575536
30
0
11
1305.29059054066
21
-89.5731779878291
31
0
0
LINE
8
layer0
10
1305.29059054066
20
-89.5731779878291
30
0
11
1333.00340346176
21
-97.5731779878291
31
0
0
LINE
8
layer0
10
1333.00340346176
20
-97.5731779878291
30
0
11
1341.00340346176
21
-90.6449747575536
31
0
0
LINE
8
layer0
10
1333.00340346176
20
-567.824972242779
30
0
11
1341.00340346176
21
-560.896769012504
31
0
0
LINE
8
layer0
10
1341.00340346176
20
-560.896769012504
30
0
11
1341.00340346176
21
-90.6449747575536
31
0
0
LINE
8
layer0
10
1341.00340346176
20
-90.6449747575536
30
0
11
1333.00340346176
21
-97.5731779878291
31
0
0
LINE
8
layer0
10
1333.00340346176
20
-97.5731779878291
30
0
11
1333.00340346176
21
-567.824972242779
31
0
0
LINE
8
layer0
10
1313.29059054066
20
-552.896769012504
30
0
11
1305.29059054066
21
-559.824972242779
31
0
0
LINE
8
layer0
10
1305.29059054066
20
-559.824972242779
30
0
11
1305.29059054066
21
-89.5731779878291
31
0
0
LINE
8
layer0
10
1305.29059054066
20
-89.5731779878291
30
0
11
1313.29059054066
21
-82.6449747575536
31
0
0
LINE
8
layer0
10
1313.29059054066
20
-82.6449747575536
30
0
11
1313.29059054066
21
-552.896769012504
31
0
0
LINE
8
layer0
10
1305.29059054066
20
-559.824972242779
30
0
11
1333.00340346176
21
-567.824972242779
31
0
0
LINE
8
layer0
10
1333.00340346176
20
-567.824972242779
30
0
11
1333.00340346176
21
-97.5731779878291
31
0
0
LINE
8
layer0
10
1333.00340346176
20
-97.5731779878291
30
0
11
1305.29059054066
21
-89.5731779878291
31
0
0
LINE
8
layer0
10
1305.29059054066
20
-89.5731779878291
30
0
11
1305.29059054066
21
-559.824972242779
31
0
0
LINE
8
layer0
10
1341.00340346176
20
-560.896769012504
30
0
11
1313.29059054066
21
-552.896769012504
31
0
0
LINE
8
layer0
10
1313.29059054066
20
-552.896769012504
30
0
11
1313.29059054066
21
-82.6449747575536
31
0
0
LINE
8
layer0
10
1313.29059054066
20
-82.6449747575536
30
0
11
1341.00340346176
21
-90.6449747575536
31
0
0
LINE
8
layer0
10
1341.00340346176
20
-90.6449747575536
30
0
11
1341.00340346176
21
-560.896769012504
31
0
0
LINE
8
layer0
10
838.888161191099
20
74.5104698086741
30
0
11
1850.40583281132
21
-217.489530191326
31
0
0
LINE
8
layer0
10
1850.40583281132
20
-217.489530191326
30
0
11
1825.40583281132
21
-239.140165285937
31
0
0
LINE
8
layer0
10
1825.40583281132
20
-239.140165285937
30
0
11
813.888161191099
21
52.8598347140631
31
0
0
LINE
8
layer0
10
813.888161191099
20
52.8598347140631
30
0
11
838.888161191099
21
74.5104698086741
31
0
0
LINE
8
layer0
10
1850.40583281132
20
-203.633123730775
30
0
11
838.888161191099
21
88.3668762692251
31
0
0
LINE
8
layer0
10
838.888161191099
20
88.3668762692251
30
0
11
813.888161191099
21
66.7162411746141
31
0
0
LINE
8
layer0
10
813.888161191099
20
66.7162411746141
30
0
11
1825.40583281132
21
-225.283758825386
31
0
0
LINE
8
layer0
10
1825.40583281132
20
-225.283758825386
30
0
11
1850.40583281132
21
-203.633123730775
31
0
0
LINE
8
layer0
10
1825.40583281132
20
-239.140165285937
30
0
11
1850.40583281132
21
-217.489530191326
31
0
0
LINE
8
layer0
10
1850.40583281132
20
-217.489530191326
30
0
11
1850.40583281132
21
-203.633123730775
31
0
0
LINE
8
layer0
10
1850.40583281132
20
-203.633123730775
30
0
11
1825.40583281132
21
-225.283758825386
31
0
0
LINE
8
layer0
10
1825.40583281132
20
-225.283758825386
30
0
11
1825.40583281132
21
-239.140165285937
31
0
0
LINE
8
layer0
10
838.888161191099
20
74.5104698086741
30
0
11
813.888161191099
21
52.8598347140631
31
0
0
LINE
8
layer0
10
813.888161191099
20
52.8598347140631
30
0
11
813.888161191099
21
66.7162411746141
31
0
0
LINE
8
layer0
10
813.888161191099
20
66.7162411746141
30
0
11
838.888161191099
21
88.3668762692251
31
0
0
LINE
8
layer0
10
838.888161191099
20
88.3668762692251
30
0
11
838.888161191099
21
74.5104698086741
31
0
0
LINE
8
layer0
10
813.888161191099
20
52.8598347140631
30
0
11
1825.40583281132
21
-239.140165285937
31
0
0
LINE
8
layer0
10
1825.40583281132
20
-239.140165285937
30
0
11
1825.40583281132
21
-225.283758825386
31
0
0
LINE
8
layer0
10
1825.40583281132
20
-225.283758825386
30
0
11
813.888161191099
21
66.7162411746141
31
0
0
LINE
8
layer0
10
813.888161191099
20
66.7162411746141
30
0
11
813.888161191099
21
52.8598347140631
31
0
0
LINE
8
layer0
10
1850.40583281132
20
-217.489530191326
30
0
11
838.888161191099
21
74.5104698086741
31
0
0
LINE
8
layer0
10
838.888161191099
20
74.5104698086741
30
0
11
838.888161191099
21
88.3668762692251
31
0
0
LINE
8
layer0
10
838.888161191099
20
88.3668762692251
30
0
11
1850.40583281132
21
-203.633123730775
31
0
0
LINE
8
layer0
10
1850.40583281132
20
-203.633123730775
30
0
11
1850.40583281132
21
-217.489530191326
31
0
0
LINE
8
layer0
10
2107.90583281132
20
-478.596189432334
30
0
11
2121.76223927187
21
-482.596189432334
31
0
0
LINE
8
layer0
10
2121.76223927187
20
-482.596189432334
30
0
11
1838.76223927187
21
-727.68137870333
31
0
0
LINE
8
layer0
10
1838.76223927187
20
-727.68137870333
30
0
11
1824.90583281132
21
-723.68137870333
31
0
0
LINE
8
layer0
10
1824.90583281132
20
-723.68137870333
30
0
11
2107.90583281132
21
-478.596189432334
31
0
0
LINE
8
layer0
10
2121.76223927187
20
15.3684177437182
30
0
11
2107.90583281132
21
19.3684177437182
31
0
0
LINE
8
layer0
10
2107.90583281132
20
19.3684177437182
30
0
11
1824.90583281132
21
-225.716771527278
31
0
0
LINE
8
layer0
10
1824.90583281132
20
-225.716771527278
30
0
11
1838.76223927187
21
-229.716771527278
31
0
0
LINE
8
layer0
10
1838.76223927187
20
-229.716771527278
30
0
11
2121.76223927187
21
15.3684177437182
31
0
0
LINE
8
layer0
10
1838.76223927187
20
-727.68137870333
30
0
11
2121.76223927187
21
-482.596189432334
31
0
0
LINE
8
layer0
10
2121.76223927187
20
-482.596189432334
30
0
11
2121.76223927187
21
15.3684177437182
31
0
0
LINE
8
layer0
10
2121.76223927187
20
15.3684177437182
30
0
11
1838.76223927187
21
-229.716771527278
31
0
0
LINE
8
layer0
10
1838.76223927187
20
-229.716771527278
30
0
11
1838.76223927187
21
-727.68137870333
31
0
0
LINE
8
layer0
10
2107.90583281132
20
-478.596189432334
30
0
11
1824.90583281132
21
-723.68137870333
31
0
0
LINE
8
layer0
10
1824.90583281132
20
-723.68137870333
30
0
11
1824.90583281132
21
-225.716771527278
31
0
0
LINE
8
layer0
10
1824.90583281132
20
-225.716771527278
30
0
11
2107.90583281132
21
19.3684177437182
31
0
0
LINE
8
layer0
10
2107.90583281132
20
19.3684177437182
30
0
11
2107.90583281132
21
-478.596189432334
31
0
0
LINE
8
layer0
10
1824.90583281132
20
-723.68137870333
30
0
11
1838.76223927187
21
-727.68137870333
31
0
0
LINE
8
layer0
10
1838.76223927187
20
-727.68137870333
30
0
11
1838.76223927187
21
-229.716771527278
31
0
0
LINE
8
layer0
10
1838.76223927187
20
-229.716771527278
30
0
11
1824.90583281132
21
-225.716771527278
31
0
0
LINE
8
layer0
10
1824.90583281132
20
-225.716771527278
30
0
11
1824.90583281132
21
-723.68137870333
31
0
0
LINE
8
layer0
10
2121.76223927187
20
-482.596189432334
30
0
11
2107.90583281132
21
-478.596189432334
31
0
0
LINE
8
layer0
10
2107.90583281132
20
-478.596189432334
30
0
11
2107.90583281132
21
19.3684177437182
31
0
0
LINE
8
layer0
10
2107.90583281132
20
19.3684177437182
30
0
11
2121.76223927187
21
15.3684177437182
31
0
0
LINE
8
layer0
10
2121.76223927187
20
15.3684177437182
30
0
11
2121.76223927187
21
-482.596189432334
31
0
0
LINE
8
layer0
10
1082.53175473055
20
-182.596189432334
30
0
11
1096.3881611911
21
-186.596189432334
31
0
0
LINE
8
layer0
10
1096.3881611911
20
-186.596189432334
30
0
11
813.388161191099
21
-431.68137870333
31
0
0
LINE
8
layer0
10
813.388161191099
20
-431.68137870333
30
0
11
799.531754730548
21
-427.68137870333
31
0
0
LINE
8
layer0
10
799.531754730548
20
-427.68137870333
30
0
11
1082.53175473055
21
-182.596189432334
31
0
0
LINE
8
layer0
10
1096.3881611911
20
311.368417743718
30
0
11
1082.53175473055
21
315.368417743718
31
0
0
LINE
8
layer0
10
1082.53175473055
20
315.368417743718
30
0
11
799.531754730548
21
70.283228472722
31
0
0
LINE
8
layer0
10
799.531754730548
20
70.283228472722
30
0
11
813.388161191099
21
66.283228472722
31
0
0
LINE
8
layer0
10
813.388161191099
20
66.283228472722
30
0
11
1096.3881611911
21
311.368417743718
31
0
0
LINE
8
layer0
10
813.388161191099
20
-431.68137870333
30
0
11
1096.3881611911
21
-186.596189432334
31
0
0
LINE
8
layer0
10
1096.3881611911
20
-186.596189432334
30
0
11
1096.3881611911
21
311.368417743718
31
0
0
LINE
8
layer0
10
1096.3881611911
20
311.368417743718
30
0
11
813.388161191099
21
66.283228472722
31
0
0
LINE
8
layer0
10
813.388161191099
20
66.283228472722
30
0
11
813.388161191099
21
-431.68137870333
31
0
0
LINE
8
layer0
10
1082.53175473055
20
-182.596189432334
30
0
11
799.531754730548
21
-427.68137870333
31
0
0
LINE
8
layer0
10
799.531754730548
20
-427.68137870333
30
0
11
799.531754730548
21
70.283228472722
31
0
0
LINE
8
layer0
10
799.531754730548
20
70.283228472722
30
0
11
1082.53175473055
21
315.368417743718
31
0
0
LINE
8
layer0
10
1082.53175473055
20
315.368417743718
30
0
11
1082.53175473055
21
-182.596189432334
31
0
0
LINE
8
layer0
10
799.531754730548
20
-427.68137870333
30
0
11
813.388161191099
21
-431.68137870333
31
0
0
LINE
8
layer0
10
813.388161191099
20
-431.68137870333
30
0
11
813.388161191099
21
66.283228472722
31
0
0
LINE
8
layer0
10
813.388161191099
20
66.283228472722
30
0
11
799.531754730548
21
70.283228472722
31
0
0
LINE
8
layer0
10
799.531754730548
20
70.283228472722
30
0
11
799.531754730548
21
-427.68137870333
31
0
0
LINE
8
layer0
10
1096.3881611911
20
-186.596189432334
30
0
11
1082.53175473055
21
-182.596189432334
31
0
0
LINE
8
layer0
10
1082.53175473055
20
-182.596189432334
30
0
11
1082.53175473055
21
315.368417743718
31
0
0
LINE
8
layer0
10
1082.53175473055
20
315.368417743718
30
0
11
1096.3881611911
21
311.368417743718
31
0
0
LINE
8
layer0
10
1096.3881611911
20
311.368417743718
30
0
11
1096.3881611911
21
-186.596189432334
31
0
0
ENDBLK
0
BLOCK
8
layer0
2
PF_OBJECT23
70
0
10
0
20
0
30
0
0
LINE
8
layer0
10
1236.4338791443
20
-128.62630588905
30
0
11
1277.57459397946
21
-128.62630588905
31
0
0
LINE
8
layer0
10
1277.57459397946
20
-128.62630588905
30
0
11
1277.57459397946
21
-119.966051851205
31
0
0
LINE
8
layer0
10
1277.57459397946
20
-119.966051851205
30
0
11
1236.4338791443
21
-119.966051851205
31
0
0
LINE
8
layer0
10
1236.4338791443
20
-119.966051851205
30
0
11
1236.4338791443
21
-128.62630588905
31
0
0
LINE
8
layer0
10
1228.06871610692
20
-117.551237285483
30
0
11
1228.06871610692
21
-126.211491323327
31
0
0
LINE
8
layer0
10
1228.06871610692
20
-126.211491323327
30
0
11
1236.4338791443
21
-128.62630588905
31
0
0
LINE
8
layer0
10
1236.4338791443
20
-128.62630588905
30
0
11
1236.4338791443
21
-119.966051851205
31
0
0
LINE
8
layer0
10
1236.4338791443
20
-119.966051851205
30
0
11
1228.06871610692
21
-117.551237285483
31
0
0
LINE
8
layer0
10
1178.15647345338
20
-111.803067957386
30
0
11
1228.06871610692
21
-126.211491323327
31
0
0
LINE
8
layer0
10
1228.06871610692
20
-126.211491323327
30
0
11
1228.06871610692
21
-117.551237285483
31
0
0
LINE
8
layer0
10
1228.06871610692
20
-117.551237285483
30
0
11
1178.15647345338
21
-103.142813919541
31
0
0
LINE
8
layer0
10
1178.15647345338
20
-103.142813919541
30
0
11
1178.15647345338
21
-111.803067957386
31
0
0
LINE
8
layer0
10
1173.32684432193
20
-98.9602324008523
30
0
11
1173.32684432193
21
-107.620486438697
31
0
0
LINE
8
layer0
10
1173.32684432193
20
-107.620486438697
30
0
11
1178.15647345338
21
-111.803067957386
31
0
0
LINE
8
layer0
10
1178.15647345338
20
-111.803067957386
30
0
11
1178.15647345338
21
-103.142813919541
31
0
0
LINE
8
layer0
10
1178.15647345338
20
-103.142813919541
30
0
11
1173.32684432193
21
-98.9602324008523
31
0
0
LINE
8
layer0
10
1157.5861160358
20
-85.3283618309924
30
0
11
1157.5861160358
21
-93.9886158688368
31
0
0
LINE
8
layer0
10
1157.5861160358
20
-93.9886158688368
30
0
11
1173.32684432193
21
-107.620486438697
31
0
0
LINE
8
layer0
10
1173.32684432193
20
-107.620486438697
30
0
11
1173.32684432193
21
-98.9602324008523
31
0
0
LINE
8
layer0
10
1173.32684432193
20
-98.9602324008523
30
0
11
1157.5861160358
21
-85.3283618309924
31
0
0
LINE
8
layer0
10
1228.06871610692
20
-126.211491323327
30
0
11
1269.20943094208
21
-126.211491323327
31
0
0
LINE
8
layer0
10
1269.20943094208
20
-126.211491323327
30
0
11
1277.57459397946
21
-128.62630588905
31
0
0
LINE
8
layer0
10
1277.57459397946
20
-128.62630588905
30
0
11
1236.4338791443
21
-128.62630588905
31
0
0
LINE
8
layer0
10
1236.4338791443
20
-128.62630588905
30
0
11
1228.06871610692
21
-126.211491323327
31
0
0
LINE
8
layer0
10
1173.32684432193
20
-107.620486438697
30
0
11
1237.72797436982
21
-126.211491323327
31
0
0
LINE
8
layer0
10
1237.72797436982
20
-126.211491323327
30
0
11
1228.06871610692
21
-126.211491323327
31
0
0
LINE
8
layer0
10
1228.06871610692
20
-126.211491323327
30
0
11
1178.15647345338
21
-111.803067957386
31
0
0
LINE
8
layer0
10
1178.15647345338
20
-111.803067957386
30
0
11
1173.32684432193
21
-107.620486438697
31
0
0
LINE
8
layer0
10
1157.5861160358
20
-93.9886158688368
30
0
11
1165.95127907318
21
-96.4034304345595
31
0
0
LINE
8
layer0
10
1165.95127907318
20
-96.4034304345595
30
0
11
1181.69200735931
21
-110.035301004419
31
0
0
LINE
8
layer0
10
1181.69200735931
20
-110.035301004419
30
0
11
1173.32684432193
21
-107.620486438697
31
0
0
LINE
8
layer0
10
1173.32684432193
20
-107.620486438697
30
0
11
1157.5861160358
21
-93.9886158688368
31
0
0
LINE
8
layer0
10
1269.20943094208
20
-117.551237285482
30
0
11
1269.20943094208
21
-126.211491323327
31
0
0
LINE
8
layer0
10
1269.20943094208
20
-126.211491323327
30
0
11
1237.72797436982
21
-126.211491323327
31
0
0
LINE
8
layer0
10
1237.72797436982
20
-126.211491323327
30
0
11
1237.72797436982
21
-117.551237285483
31
0
0
LINE
8
layer0
10
1237.72797436982
20
-117.551237285483
30
0
11
1269.20943094208
21
-117.551237285482
31
0
0
LINE
8
layer0
10
1237.72797436982
20
-126.211491323327
30
0
11
1181.69200735931
21
-110.035301004419
31
0
0
LINE
8
layer0
10
1181.69200735931
20
-110.035301004419
30
0
11
1181.69200735931
21
-101.375046966575
31
0
0
LINE
8
layer0
10
1181.69200735931
20
-101.375046966575
30
0
11
1237.72797436982
21
-117.551237285483
31
0
0
LINE
8
layer0
10
1237.72797436982
20
-117.551237285483
30
0
11
1237.72797436982
21
-126.211491323327
31
0
0
LINE
8
layer0
10
1181.69200735931
20
-110.035301004419
30
0
11
1165.95127907318
21
-96.4034304345595
31
0
0
LINE
8
layer0
10
1165.95127907318
20
-96.4034304345595
30
0
11
1165.95127907318
21
-87.743176396715
31
0
0
LINE
8
layer0
10
1165.95127907318
20
-87.743176396715
30
0
11
1181.69200735931
21
-101.375046966575
31
0
0
LINE
8
layer0
10
1181.69200735931
20
-101.375046966575
30
0
11
1181.69200735931
21
-110.035301004419
31
0
0
LINE
8
layer0
10
1269.20943094208
20
-126.211491323327
30
0
11
1269.20943094208
21
-117.551237285482
31
0
0
LINE
8
layer0
10
1269.20943094208
20
-117.551237285482
30
0
11
1277.57459397946
21
-119.966051851205
31
0
0
LINE
8
layer0
10
1277.57459397946
20
-119.966051851205
30
0
11
1277.57459397946
21
-128.62630588905
31
0
0
LINE
8
layer0
10
1277.57459397946
20
-128.62630588905
30
0
11
1269.20943094208
21
-126.211491323327
31
0
0
LINE
8
layer0
10
1157.5861160358
20
-85.3283618309924
30
0
11
1165.95127907318
21
-87.743176396715
31
0
0
LINE
8
layer0
10
1165.95127907318
20
-87.743176396715
30
0
11
1165.95127907318
21
-96.4034304345595
31
0
0
LINE
8
layer0
10
1165.95127907318
20
-96.4034304345595
30
0
11
1157.5861160358
21
-93.9886158688368
31
0
0
LINE
8
layer0
10
1157.5861160358
20
-93.9886158688368
30
0
11
1157.5861160358
21
-85.3283618309924
31
0
0
LINE
8
layer0
10
1277.57459397946
20
-119.966051851205
30
0
11
1269.20943094208
21
-117.551237285482
31
0
0
LINE
8
layer0
10
1269.20943094208
20
-117.551237285482
30
0
11
1228.06871610692
21
-117.551237285483
31
0
0
LINE
8
layer0
10
1228.06871610692
20
-117.551237285483
30
0
11
1236.4338791443
21
-119.966051851205
31
0
0
LINE
8
layer0
10
1236.4338791443
20
-119.966051851205
30
0
11
1277.57459397946
21
-119.966051851205
31
0
0
LINE
8
layer0
10
1228.06871610692
20
-117.551237285483
30
0
11
1237.72797436982
21
-117.551237285483
31
0
0
LINE
8
layer0
10
1237.72797436982
20
-117.551237285483
30
0
11
1173.32684432193
21
-98.9602324008523
31
0
0
LINE
8
layer0
10
1173.32684432193
20
-98.9602324008523
30
0
11
1178.15647345338
21
-103.142813919541
31
0
0
LINE
8
layer0
10
1178.15647345338
20
-103.142813919541
30
0
11
1228.06871610692
21
-117.551237285483
31
0
0
LINE
8
layer0
10
1173.32684432193
20
-98.9602324008523
30
0
11
1181.69200735931
21
-101.375046966575
31
0
0
LINE
8
layer0
10
1181.69200735931
20
-101.375046966575
30
0
11
1165.95127907318
21
-87.743176396715
31
0
0
LINE
8
layer0
10
1165.95127907318
20
-87.743176396715
30
0
11
1157.5861160358
21
-85.3283618309924
31
0
0
LINE
8
layer0
10
1157.5861160358
20
-85.3283618309924
30
0
11
1173.32684432193
21
-98.9602324008523
31
0
0
ENDBLK
0
BLOCK
8
layer0
2
PF_OBJECT24
70
0
10
0
20
0
30
0
0
LINE
8
layer0
10
1315.04892078986
20
-575.632340597654
30
0
11
800.629830941902
21
-427.132340597654
31
0
0
LINE
8
layer0
10
800.629830941902
20
-427.132340597654
30
0
11
800.629830941902
21
62.1720125405542
31
0
0
LINE
8
layer0
10
800.629830941902
20
62.1720125405542
30
0
11
1315.04892078986
21
-86.3279874594458
31
0
0
LINE
8
layer0
10
1315.04892078986
20
-86.3279874594458
30
0
11
1315.04892078986
21
-575.632340597654
31
0
0
LINE
8
layer0
10
790.629830941902
20
-435.792594635498
30
0
11
1305.04892078986
21
-584.292594635498
31
0
0
LINE
8
layer0
10
1305.04892078986
20
-584.292594635498
30
0
11
1305.04892078986
21
-94.9882414972901
31
0
0
LINE
8
layer0
10
1305.04892078986
20
-94.9882414972901
30
0
11
790.629830941902
21
53.5117585027098
31
0
0
LINE
8
layer0
10
790.629830941902
20
53.5117585027098
30
0
11
790.629830941902
21
-435.792594635498
31
0
0
LINE
8
layer0
10
800.629830941902
20
-427.132340597654
30
0
11
790.629830941902
21
-435.792594635498
31
0
0
LINE
8
layer0
10
790.629830941902
20
-435.792594635498
30
0
11
790.629830941902
21
53.5117585027098
31
0
0
LINE
8
layer0
10
790.629830941902
20
53.5117585027098
30
0
11
800.629830941902
21
62.1720125405542
31
0
0
LINE
8
layer0
10
800.629830941902
20
62.1720125405542
30
0
11
800.629830941902
21
-427.132340597654
31
0
0
LINE
8
layer0
10
1305.04892078986
20
-584.292594635498
30
0
11
1315.04892078986
21
-575.632340597654
31
0
0
LINE
8
layer0
10
1315.04892078986
20
-575.632340597654
30
0
11
1315.04892078986
21
-86.3279874594458
31
0
0
LINE
8
layer0
10
1315.04892078986
20
-86.3279874594458
30
0
11
1305.04892078986
21
-94.9882414972901
31
0
0
LINE
8
layer0
10
1305.04892078986
20
-94.9882414972901
30
0
11
1305.04892078986
21
-584.292594635498
31
0
0
LINE
8
layer0
10
1315.04892078986
20
-86.3279874594458
30
0
11
800.629830941902
21
62.1720125405542
31
0
0
LINE
8
layer0
10
800.629830941902
20
62.1720125405542
30
0
11
790.629830941902
21
53.5117585027098
31
0
0
LINE
8
layer0
10
790.629830941902
20
53.5117585027098
30
0
11
1305.04892078986
21
-94.9882414972901
31
0
0
LINE
8
layer0
10
1305.04892078986
20
-94.9882414972901
30
0
11
1315.04892078986
21
-86.3279874594458
31
0
0
LINE
8
layer0
10
800.629830941902
20
-427.132340597654
30
0
11
1315.04892078986
21
-575.632340597654
31
0
0
LINE
8
layer0
10
1315.04892078986
20
-575.632340597654
30
0
11
1305.04892078986
21
-584.292594635498
31
0
0
LINE
8
layer0
10
1305.04892078986
20
-584.292594635498
30
0
11
790.629830941902
21
-435.792594635498
31
0
0
LINE
8
layer0
10
790.629830941902
20
-435.792594635498
30
0
11
800.629830941902
21
-427.132340597654
31
0
0
ENDBLK
0
BLOCK
8
layer0
2
PF_OBJECT25
70
0
10
0
20
0
30
0
0
LINE
8
layer0
10
1416.56716313147
20
-180.62630588905
30
0
11
1457.70787796662
21
-180.62630588905
31
0
0
LINE
8
layer0
10
1457.70787796662
20
-180.62630588905
30
0
11
1457.70787796662
21
-171.966051851205
31
0
0
LINE
8
layer0
10
1457.70787796662
20
-171.966051851205
30
0
11
1416.56716313147
21
-171.966051851205
31
0
0
LINE
8
layer0
10
1416.56716313147
20
-171.966051851205
30
0
11
1416.56716313147
21
-180.62630588905
31
0
0
LINE
8
layer0
10
1408.20200009409
20
-169.551237285483
30
0
11
1408.20200009409
21
-178.211491323327
31
0
0
LINE
8
layer0
10
1408.20200009409
20
-178.211491323327
30
0
11
1416.56716313147
21
-180.62630588905
31
0
0
LINE
8
layer0
10
1416.56716313147
20
-180.62630588905
30
0
11
1416.56716313147
21
-171.966051851205
31
0
0
LINE
8
layer0
10
1416.56716313147
20
-171.966051851205
30
0
11
1408.20200009409
21
-169.551237285483
31
0
0
LINE
8
layer0
10
1358.28975744054
20
-163.803067957386
30
0
11
1408.20200009409
21
-178.211491323327
31
0
0
LINE
8
layer0
10
1408.20200009409
20
-178.211491323327
30
0
11
1408.20200009409
21
-169.551237285483
31
0
0
LINE
8
layer0
10
1408.20200009409
20
-169.551237285483
30
0
11
1358.28975744054
21
-155.142813919541
31
0
0
LINE
8
layer0
10
1358.28975744054
20
-155.142813919541
30
0
11
1358.28975744054
21
-163.803067957386
31
0
0
LINE
8
layer0
10
1353.4601283091
20
-150.960232400852
30
0
11
1353.4601283091
21
-159.620486438697
31
0
0
LINE
8
layer0
10
1353.4601283091
20
-159.620486438697
30
0
11
1358.28975744054
21
-163.803067957386
31
0
0
LINE
8
layer0
10
1358.28975744054
20
-163.803067957386
30
0
11
1358.28975744054
21
-155.142813919541
31
0
0
LINE
8
layer0
10
1358.28975744054
20
-155.142813919541
30
0
11
1353.4601283091
21
-150.960232400852
31
0
0
LINE
8
layer0
10
1337.71940002296
20
-137.328361830992
30
0
11
1337.71940002296
21
-145.988615868837
31
0
0
LINE
8
layer0
10
1337.71940002296
20
-145.988615868837
30
0
11
1353.4601283091
21
-159.620486438697
31
0
0
LINE
8
layer0
10
1353.4601283091
20
-159.620486438697
30
0
11
1353.4601283091
21
-150.960232400852
31
0
0
LINE
8
layer0
10
1353.4601283091
20
-150.960232400852
30
0
11
1337.71940002296
21
-137.328361830992
31
0
0
LINE
8
layer0
10
1408.20200009409
20
-178.211491323327
30
0
11
1449.34271492925
21
-178.211491323327
31
0
0
LINE
8
layer0
10
1449.34271492925
20
-178.211491323327
30
0
11
1457.70787796662
21
-180.62630588905
31
0
0
LINE
8
layer0
10
1457.70787796662
20
-180.62630588905
30
0
11
1416.56716313147
21
-180.62630588905
31
0
0
LINE
8
layer0
10
1416.56716313147
20
-180.62630588905
30
0
11
1408.20200009409
21
-178.211491323327
31
0
0
LINE
8
layer0
10
1353.4601283091
20
-159.620486438697
30
0
11
1417.86125835698
21
-178.211491323327
31
0
0
LINE
8
layer0
10
1417.86125835698
20
-178.211491323327
30
0
11
1408.20200009409
21
-178.211491323327
31
0
0
LINE
8
layer0
10
1408.20200009409
20
-178.211491323327
30
0
11
1358.28975744054
21
-163.803067957386
31
0
0
LINE
8
layer0
10
1358.28975744054
20
-163.803067957386
30
0
11
1353.4601283091
21
-159.620486438697
31
0
0
LINE
8
layer0
10
1337.71940002296
20
-145.988615868837
30
0
11
1346.08456306034
21
-148.403430434559
31
0
0
LINE
8
layer0
10
1346.08456306034
20
-148.403430434559
30
0
11
1361.82529134647
21
-162.035301004419
31
0
0
LINE
8
layer0
10
1361.82529134647
20
-162.035301004419
30
0
11
1353.4601283091
21
-159.620486438697
31
0
0
LINE
8
layer0
10
1353.4601283091
20
-159.620486438697
30
0
11
1337.71940002296
21
-145.988615868837
31
0
0
LINE
8
layer0
10
1449.34271492925
20
-169.551237285482
30
0
11
1449.34271492925
21
-178.211491323327
31
0
0
LINE
8
layer0
10
1449.34271492925
20
-178.211491323327
30
0
11
1417.86125835698
21
-178.211491323327
31
0
0
LINE
8
layer0
10
1417.86125835698
20
-178.211491323327
30
0
11
1417.86125835698
21
-169.551237285483
31
0
0
LINE
8
layer0
10
1417.86125835698
20
-169.551237285483
30
0
11
1449.34271492925
21
-169.551237285482
31
0
0
LINE
8
layer0
10
1417.86125835698
20
-178.211491323327
30
0
11
1361.82529134647
21
-162.035301004419
31
0
0
LINE
8
layer0
10
1361.82529134647
20
-162.035301004419
30
0
11
1361.82529134647
21
-153.375046966575
31
0
0
LINE
8
layer0
10
1361.82529134647
20
-153.375046966575
30
0
11
1417.86125835698
21
-169.551237285483
31
0
0
LINE
8
layer0
10
1417.86125835698
20
-169.551237285483
30
0
11
1417.86125835698
21
-178.211491323327
31
0
0
LINE
8
layer0
10
1361.82529134647
20
-162.035301004419
30
0
11
1346.08456306034
21
-148.403430434559
31
0
0
LINE
8
layer0
10
1346.08456306034
20
-148.403430434559
30
0
11
1346.08456306034
21
-139.743176396715
31
0
0
LINE
8
layer0
10
1346.08456306034
20
-139.743176396715
30
0
11
1361.82529134647
21
-153.375046966575
31
0
0
LINE
8
layer0
10
1361.82529134647
20
-153.375046966575
30
0
11
1361.82529134647
21
-162.035301004419
31
0
0
LINE
8
layer0
10
1449.34271492925
20
-178.211491323327
30
0
11
1449.34271492925
21
-169.551237285482
31
0
0
LINE
8
layer0
10
1449.34271492925
20
-169.551237285482
30
0
11
1457.70787796662
21
-171.966051851205
31
0
0
LINE
8
layer0
10
1457.70787796662
20
-171.966051851205
30
0
11
1457.70787796662
21
-180.62630588905
31
0
0
LINE
8
layer0
10
1457.70787796662
20
-180.62630588905
30
0
11
1449.34271492925
21
-178.211491323327
31
0
0
LINE
8
layer0
10
1337.71940002296
20
-137.328361830992
30
0
11
1346.08456306034
21
-139.743176396715
31
0
0
LINE
8
layer0
10
1346.08456306034
20
-139.743176396715
30
0
11
1346.08456306034
21
-148.403430434559
31
0
0
LINE
8
layer0
10
1346.08456306034
20
-148.403430434559
30
0
11
1337.71940002296
21
-145.988615868837
31
0
0
LINE
8
layer0
10
1337.71940002296
20
-145.988615868837
30
0
11
1337.71940002296
21
-137.328361830992
31
0
0
LINE
8
layer0
10
1457.70787796662
20
-171.966051851205
30
0
11
1449.34271492925
21
-169.551237285482
31
0
0
LINE
8
layer0
10
1449.34271492925
20
-169.551237285482
30
0
11
1408.20200009409
21
-169.551237285483
31
0
0
LINE
8
layer0
10
1408.20200009409
20
-169.551237285483
30
0
11
1416.56716313147
21
-171.966051851205
31
0
0
LINE
8
layer0
10
1416.56716313147
20
-171.966051851205
30
0
11
1457.70787796662
21
-171.966051851205
31
0
0
LINE
8
layer0
10
1408.20200009409
20
-169.551237285483
30
0
11
1417.86125835698
21
-169.551237285483
31
0
0
LINE
8
layer0
10
1417.86125835698
20
-169.551237285483
30
0
11
1353.4601283091
21
-150.960232400852
31
0
0
LINE
8
layer0
10
1353.4601283091
20
-150.960232400852
30
0
11
1358.28975744054
21
-155.142813919541
31
0
0
LINE
8
layer0
10
1358.28975744054
20
-155.142813919541
30
0
11
1408.20200009409
21
-169.551237285483
31
0
0
LINE
8
layer0
10
1353.4601283091
20
-150.960232400852
30
0
11
1361.82529134647
21
-153.375046966575
31
0
0
LINE
8
layer0
10
1361.82529134647
20
-153.375046966575
30
0
11
1346.08456306034
21
-139.743176396715
31
0
0
LINE
8
layer0
10
1346.08456306034
20
-139.743176396715
30
0
11
1337.71940002296
21
-137.328361830992
31
0
0
LINE
8
layer0
10
1337.71940002296
20
-137.328361830992
30
0
11
1353.4601283091
21
-150.960232400852
31
0
0
ENDBLK
0
BLOCK
8
layer0
2
PF_OBJECT26
70
0
10
0
20
0
30
0
0
LINE
8
layer0
10
1834.66416306052
20
-725.632340597654
30
0
11
1320.24507321256
21
-577.132340597654
31
0
0
LINE
8
layer0
10
1320.24507321256
20
-577.132340597654
30
0
11
1320.24507321256
21
-87.8279874594458
31
0
0
LINE
8
layer0
10
1320.24507321256
20
-87.8279874594458
30
0
11
1834.66416306052
21
-236.327987459446
31
0
0
LINE
8
layer0
10
1834.66416306052
20
-236.327987459446
30
0
11
1834.66416306052
21
-725.632340597654
31
0
0
LINE
8
layer0
10
1310.24507321256
20
-585.792594635498
30
0
11
1824.66416306052
21
-734.292594635498
31
0
0
LINE
8
layer0
10
1824.66416306052
20
-734.292594635498
30
0
11
1824.66416306052
21
-244.98824149729
31
0
0
LINE
8
layer0
10
1824.66416306052
20
-244.98824149729
30
0
11
1310.24507321256
21
-96.4882414972901
31
0
0
LINE
8
layer0
10
1310.24507321256
20
-96.4882414972901
30
0
11
1310.24507321256
21
-585.792594635498
31
0
0
LINE
8
layer0
10
1320.24507321256
20
-577.132340597654
30
0
11
1310.24507321256
21
-585.792594635498
31
0
0
LINE
8
layer0
10
1310.24507321256
20
-585.792594635498
30
0
11
1310.24507321256
21
-96.4882414972901
31
0
0
LINE
8
layer0
10
1310.24507321256
20
-96.4882414972901
30
0
11
1320.24507321256
21
-87.8279874594458
31
0
0
LINE
8
layer0
10
1320.24507321256
20
-87.8279874594458
30
0
11
1320.24507321256
21
-577.132340597654
31
0
0
LINE
8
layer0
10
1824.66416306052
20
-734.292594635498
30
0
11
1834.66416306052
21
-725.632340597654
31
0
0
LINE
8
layer0
10
1834.66416306052
20
-725.632340597654
30
0
11
1834.66416306052
21
-236.327987459446
31
0
0
LINE
8
layer0
10
1834.66416306052
20
-236.327987459446
30
0
11
1824.66416306052
21
-244.98824149729
31
0
0
LINE
8
layer0
10
1824.66416306052
20
-244.98824149729
30
0
11
1824.66416306052
21
-734.292594635498
31
0
0
LINE
8
layer0
10
1834.66416306052
20
-236.327987459446
30
0
11
1320.24507321256
21
-87.8279874594458
31
0
0
LINE
8
layer0
10
1320.24507321256
20
-87.8279874594458
30
0
11
1310.24507321256
21
-96.4882414972901
31
0
0
LINE
8
layer0
10
1310.24507321256
20
-96.4882414972901
30
0
11
1824.66416306052
21
-244.98824149729
31
0
0
LINE
8
layer0
10
1824.66416306052
20
-244.98824149729
30
0
11
1834.66416306052
21
-236.327987459446
31
0
0
LINE
8
layer0
10
1320.24507321256
20
-577.132340597654
30
0
11
1834.66416306052
21
-725.632340597654
31
0
0
LINE
8
layer0
10
1834.66416306052
20
-725.632340597654
30
0
11
1824.66416306052
21
-734.292594635498
31
0
0
LINE
8
layer0
10
1824.66416306052
20
-734.292594635498
30
0
11
1310.24507321256
21
-585.792594635498
31
0
0
LINE
8
layer0
10
1310.24507321256
20
-585.792594635498
30
0
11
1320.24507321256
21
-577.132340597654
31
0
0
ENDBLK
0
BLOCK
8
layer0
2
PF_OBJECT27
70
0
10
0
20
0
30
0
0
LINE
8
layer0
10
1110.47404107115
20
-378.301270189222
30
0
11
1075.83302491977
21
-368.301270189222
31
0
0
LINE
8
layer0
10
1075.83302491977
20
-368.301270189222
30
0
11
1075.83302491977
21
-238.397459621556
31
0
0
LINE
8
layer0
10
1075.83302491977
20
-238.397459621556
30
0
11
1110.47404107115
21
-248.397459621556
31
0
0
LINE
8
layer0
10
1110.47404107115
20
-248.397459621556
30
0
11
1110.47404107115
21
-378.301270189222
31
0
0
LINE
8
layer0
10
1055.83302491977
20
-385.621778264911
30
0
11
1090.47404107115
21
-395.621778264911
31
0
0
LINE
8
layer0
10
1090.47404107115
20
-395.621778264911
30
0
11
1090.47404107115
21
-265.717967697245
31
0
0
LINE
8
layer0
10
1090.47404107115
20
-265.717967697245
30
0
11
1055.83302491977
21
-255.717967697245
31
0
0
LINE
8
layer0
10
1055.83302491977
20
-255.717967697245
30
0
11
1055.83302491977
21
-385.621778264911
31
0
0
LINE
8
layer0
10
1075.83302491977
20
-368.301270189222
30
0
11
1055.83302491977
21
-385.621778264911
31
0
0
LINE
8
layer0
10
1055.83302491977
20
-385.621778264911
30
0
11
1055.83302491977
21
-255.717967697245
31
0
0
LINE
8
layer0
10
1055.83302491977
20
-255.717967697245
30
0
11
1075.83302491977
21
-238.397459621556
31
0
0
LINE
8
layer0
10
1075.83302491977
20
-238.397459621556
30
0
11
1075.83302491977
21
-368.301270189222
31
0
0
LINE
8
layer0
10
1090.47404107115
20
-395.621778264911
30
0
11
1110.47404107115
21
-378.301270189222
31
0
0
LINE
8
layer0
10
1110.47404107115
20
-378.301270189222
30
0
11
1110.47404107115
21
-248.397459621556
31
0
0
LINE
8
layer0
10
1110.47404107115
20
-248.397459621556
30
0
11
1090.47404107115
21
-265.717967697245
31
0
0
LINE
8
layer0
10
1090.47404107115
20
-265.717967697245
30
0
11
1090.47404107115
21
-395.621778264911
31
0
0
LINE
8
layer0
10
1110.47404107115
20
-248.397459621556
30
0
11
1075.83302491977
21
-238.397459621556
31
0
0
LINE
8
layer0
10
1075.83302491977
20
-238.397459621556
30
0
11
1055.83302491977
21
-255.717967697245
31
0
0
LINE
8
layer0
10
1055.83302491977
20
-255.717967697245
30
0
11
1090.47404107115
21
-265.717967697245
31
0
0
LINE
8
layer0
10
1090.47404107115
20
-265.717967697245
30
0
11
1110.47404107115
21
-248.397459621556
31
0
0
LINE
8
layer0
10
1075.83302491977
20
-368.301270189222
30
0
11
1110.47404107115
21
-378.301270189222
31
0
0
LINE
8
layer0
10
1110.47404107115
20
-378.301270189222
30
0
11
1090.47404107115
21
-395.621778264911
31
0
0
LINE
8
layer0
10
1090.47404107115
20
-395.621778264911
30
0
11
1055.83302491977
21
-385.621778264911
31
0
0
LINE
8
layer0
10
1055.83302491977
20
-385.621778264911
30
0
11
1075.83302491977
21
-368.301270189222
31
0
0
ENDBLK
0
BLOCK
8
layer0
2
PF_OBJECT28
70
0
10
0
20
0
30
0
0
LINE
8
layer0
10
952.474041071148
20
-515.133283987163
30
0
11
917.83302491977
21
-505.133283987163
31
0
0
LINE
8
layer0
10
917.83302491977
20
-505.133283987163
30
0
11
917.83302491977
21
-375.229473419497
31
0
0
LINE
8
layer0
10
917.83302491977
20
-375.229473419497
30
0
11
952.474041071148
21
-385.229473419497
31
0
0
LINE
8
layer0
10
952.474041071148
20
-385.229473419497
30
0
11
952.474041071148
21
-515.133283987163
31
0
0
LINE
8
layer0
10
897.83302491977
20
-522.453792062852
30
0
11
932.474041071148
21
-532.453792062852
31
0
0
LINE
8
layer0
10
932.474041071148
20
-532.453792062852
30
0
11
932.474041071148
21
-402.549981495186
31
0
0
LINE
8
layer0
10
932.474041071148
20
-402.549981495186
30
0
11
897.83302491977
21
-392.549981495186
31
0
0
LINE
8
layer0
10
897.83302491977
20
-392.549981495186
30
0
11
897.83302491977
21
-522.453792062852
31
0
0
LINE
8
layer0
10
917.83302491977
20
-505.133283987163
30
0
11
897.83302491977
21
-522.453792062852
31
0
0
LINE
8
layer0
10
897.83302491977
20
-522.453792062852
30
0
11
897.83302491977
21
-392.549981495186
31
0
0
LINE
8
layer0
10
897.83302491977
20
-392.549981495186
30
0
11
917.83302491977
21
-375.229473419497
31
0
0
LINE
8
layer0
10
917.83302491977
20
-375.229473419497
30
0
11
917.83302491977
21
-505.133283987163
31
0
0
LINE
8
layer0
10
932.474041071148
20
-532.453792062852
30
0
11
952.474041071148
21
-515.133283987163
31
0
0
LINE
8
layer0
10
952.474041071148
20
-515.133283987163
30
0
11
952.474041071148
21
-385.229473419497
31
0
0
LINE
8
layer0
10
952.474041071148
20
-385.229473419497
30
0
11
932.474041071148
21
-402.549981495186
31
0
0
LINE
8
layer0
10
932.474041071148
20
-402.549981495186
30
0
11
932.474041071148
21
-532.453792062852
31
0
0
LINE
8
layer0
10
952.474041071148
20
-385.229473419497
30
0
11
917.83302491977
21
-375.229473419497
31
0
0
LINE
8
layer0
10
917.83302491977
20
-375.229473419497
30
0
11
897.83302491977
21
-392.549981495186
31
0
0
LINE
8
layer0
10
897.83302491977
20
-392.549981495186
30
0
11
932.474041071148
21
-402.549981495186
31
0
0
LINE
8
layer0
10
932.474041071148
20
-402.549981495186
30
0
11
952.474041071148
21
-385.229473419497
31
0
0
LINE
8
layer0
10
917.83302491977
20
-505.133283987163
30
0
11
952.474041071148
21
-515.133283987163
31
0
0
LINE
8
layer0
10
952.474041071148
20
-515.133283987163
30
0
11
932.474041071148
21
-532.453792062852
31
0
0
LINE
8
layer0
10
932.474041071148
20
-532.453792062852
30
0
11
897.83302491977
21
-522.453792062852
31
0
0
LINE
8
layer0
10
897.83302491977
20
-522.453792062852
30
0
11
917.83302491977
21
-505.133283987163
31
0
0
ENDBLK
0
BLOCK
8
layer0
2
PF_OBJECT29
70
0
10
0
20
0
30
0
0
LINE
8
layer0
10
1411.4675050769
20
-647.633283987163
30
0
11
1376.82648892552
21
-637.633283987163
31
0
0
LINE
8
layer0
10
1376.82648892552
20
-637.633283987163
30
0
11
1376.82648892552
21
-507.729473419497
31
0
0
LINE
8
layer0
10
1376.82648892552
20
-507.729473419497
30
0
11
1411.4675050769
21
-517.729473419497
31
0
0
LINE
8
layer0
10
1411.4675050769
20
-517.729473419497
30
0
11
1411.4675050769
21
-647.633283987163
31
0
0
LINE
8
layer0
10
1356.82648892552
20
-654.953792062852
30
0
11
1391.4675050769
21
-664.953792062852
31
0
0
LINE
8
layer0
10
1391.4675050769
20
-664.953792062852
30
0
11
1391.4675050769
21
-535.049981495186
31
0
0
LINE
8
layer0
10
1391.4675050769
20
-535.049981495186
30
0
11
1356.82648892552
21
-525.049981495186
31
0
0
LINE
8
layer0
10
1356.82648892552
20
-525.049981495186
30
0
11
1356.82648892552
21
-654.953792062852
31
0
0
LINE
8
layer0
10
1376.82648892552
20
-637.633283987163
30
0
11
1356.82648892552
21
-654.953792062852
31
0
0
LINE
8
layer0
10
1356.82648892552
20
-654.953792062852
30
0
11
1356.82648892552
21
-525.049981495186
31
0
0
LINE
8
layer0
10
1356.82648892552
20
-525.049981495186
30
0
11
1376.82648892552
21
-507.729473419497
31
0
0
LINE
8
layer0
10
1376.82648892552
20
-507.729473419497
30
0
11
1376.82648892552
21
-637.633283987163
31
0
0
LINE
8
layer0
10
1391.4675050769
20
-664.953792062852
30
0
11
1411.4675050769
21
-647.633283987163
31
0
0
LINE
8
layer0
10
1411.4675050769
20
-647.633283987163
30
0
11
1411.4675050769
21
-517.729473419497
31
0
0
LINE
8
layer0
10
1411.4675050769
20
-517.729473419497
30
0
11
1391.4675050769
21
-535.049981495186
31
0
0
LINE
8
layer0
10
1391.4675050769
20
-535.049981495186
30
0
11
1391.4675050769
21
-664.953792062852
31
0
0
LINE
8
layer0
10
1411.4675050769
20
-517.729473419497
30
0
11
1376.82648892552
21
-507.729473419497
31
0
0
LINE
8
layer0
10
1376.82648892552
20
-507.729473419497
30
0
11
1356.82648892552
21
-525.049981495186
31
0
0
LINE
8
layer0
10
1356.82648892552
20
-525.049981495186
30
0
11
1391.4675050769
21
-535.049981495186
31
0
0
LINE
8
layer0
10
1391.4675050769
20
-535.049981495186
30
0
11
1411.4675050769
21
-517.729473419497
31
0
0
LINE
8
layer0
10
1376.82648892552
20
-637.633283987163
30
0
11
1411.4675050769
21
-647.633283987163
31
0
0
LINE
8
layer0
10
1411.4675050769
20
-647.633283987163
30
0
11
1391.4675050769
21
-664.953792062852
31
0
0
LINE
8
layer0
10
1391.4675050769
20
-664.953792062852
30
0
11
1356.82648892552
21
-654.953792062852
31
0
0
LINE
8
layer0
10
1356.82648892552
20
-654.953792062852
30
0
11
1376.82648892552
21
-637.633283987163
31
0
0
ENDBLK
0
BLOCK
8
layer0
2
PF_OBJECT30
70
0
10
0
20
0
30
0
0
LINE
8
layer0
10
2028.46096908265
20
-643.301270189222
30
0
11
1993.81995293128
21
-633.301270189222
31
0
0
LINE
8
layer0
10
1993.81995293128
20
-633.301270189222
30
0
11
1993.81995293128
21
-503.397459621556
31
0
0
LINE
8
layer0
10
1993.81995293128
20
-503.397459621556
30
0
11
2028.46096908265
21
-513.397459621556
31
0
0
LINE
8
layer0
10
2028.46096908265
20
-513.397459621556
30
0
11
2028.46096908265
21
-643.301270189222
31
0
0
LINE
8
layer0
10
1973.81995293128
20
-650.621778264911
30
0
11
2008.46096908265
21
-660.621778264911
31
0
0
LINE
8
layer0
10
2008.46096908265
20
-660.621778264911
30
0
11
2008.46096908265
21
-530.717967697245
31
0
0
LINE
8
layer0
10
2008.46096908265
20
-530.717967697245
30
0
11
1973.81995293128
21
-520.717967697245
31
0
0
LINE
8
layer0
10
1973.81995293128
20
-520.717967697245
30
0
11
1973.81995293128
21
-650.621778264911
31
0
0
LINE
8
layer0
10
1993.81995293128
20
-633.301270189222
30
0
11
1973.81995293128
21
-650.621778264911
31
0
0
LINE
8
layer0
10
1973.81995293128
20
-650.621778264911
30
0
11
1973.81995293128
21
-520.717967697245
31
0
0
LINE
8
layer0
10
1973.81995293128
20
-520.717967697245
30
0
11
1993.81995293128
21
-503.397459621556
31
0
0
LINE
8
layer0
10
1993.81995293128
20
-503.397459621556
30
0
11
1993.81995293128
21
-633.301270189222
31
0
0
LINE
8
layer0
10
2008.46096908265
20
-660.621778264911
30
0
11
2028.46096908265
21
-643.301270189222
31
0
0
LINE
8
layer0
10
2028.46096908265
20
-643.301270189222
30
0
11
2028.46096908265
21
-513.397459621556
31
0
0
LINE
8
layer0
10
2028.46096908265
20
-513.397459621556
30
0
11
2008.46096908265
21
-530.717967697245
31
0
0
LINE
8
layer0
10
2008.46096908265
20
-530.717967697245
30
0
11
2008.46096908265
21
-660.621778264911
31
0
0
LINE
8
layer0
10
2028.46096908265
20
-513.397459621556
30
0
11
1993.81995293128
21
-503.397459621556
31
0
0
LINE
8
layer0
10
1993.81995293128
20
-503.397459621556
30
0
11
1973.81995293128
21
-520.717967697245
31
0
0
LINE
8
layer0
10
1973.81995293128
20
-520.717967697245
30
0
11
2008.46096908265
21
-530.717967697245
31
0
0
LINE
8
layer0
10
2008.46096908265
20
-530.717967697245
30
0
11
2028.46096908265
21
-513.397459621556
31
0
0
LINE
8
layer0
10
1993.81995293128
20
-633.301270189222
30
0
11
2028.46096908265
21
-643.301270189222
31
0
0
LINE
8
layer0
10
2028.46096908265
20
-643.301270189222
30
0
11
2008.46096908265
21
-660.621778264911
31
0
0
LINE
8
layer0
10
2008.46096908265
20
-660.621778264911
30
0
11
1973.81995293128
21
-650.621778264911
31
0
0
LINE
8
layer0
10
1973.81995293128
20
-650.621778264911
30
0
11
1993.81995293128
21
-633.301270189222
31
0
0
ENDBLK
0
BLOCK
8
layer0
2
PF_OBJECT31
70
0
10
0
20
0
30
0
0
LINE
8
layer0
10
1870.46096908265
20
-780.133283987163
30
0
11
1835.81995293128
21
-770.133283987163
31
0
0
LINE
8
layer0
10
1835.81995293128
20
-770.133283987163
30
0
11
1835.81995293128
21
-640.229473419497
31
0
0
LINE
8
layer0
10
1835.81995293128
20
-640.229473419497
30
0
11
1870.46096908265
21
-650.229473419497
31
0
0
LINE
8
layer0
10
1870.46096908265
20
-650.229473419497
30
0
11
1870.46096908265
21
-780.133283987163
31
0
0
LINE
8
layer0
10
1815.81995293128
20
-787.453792062852
30
0
11
1850.46096908265
21
-797.453792062852
31
0
0
LINE
8
layer0
10
1850.46096908265
20
-797.453792062852
30
0
11
1850.46096908265
21
-667.549981495186
31
0
0
LINE
8
layer0
10
1850.46096908265
20
-667.549981495186
30
0
11
1815.81995293128
21
-657.549981495186
31
0
0
LINE
8
layer0
10
1815.81995293128
20
-657.549981495186
30
0
11
1815.81995293128
21
-787.453792062852
31
0
0
LINE
8
layer0
10
1835.81995293128
20
-770.133283987163
30
0
11
1815.81995293128
21
-787.453792062852
31
0
0
LINE
8
layer0
10
1815.81995293128
20
-787.453792062852
30
0
11
1815.81995293128
21
-657.549981495186
31
0
0
LINE
8
layer0
10
1815.81995293128
20
-657.549981495186
30
0
11
1835.81995293128
21
-640.229473419497
31
0
0
LINE
8
layer0
10
1835.81995293128
20
-640.229473419497
30
0
11
1835.81995293128
21
-770.133283987163
31
0
0
LINE
8
layer0
10
1850.46096908265
20
-797.453792062852
30
0
11
1870.46096908265
21
-780.133283987163
31
0
0
LINE
8
layer0
10
1870.46096908265
20
-780.133283987163
30
0
11
1870.46096908265
21
-650.229473419497
31
0
0
LINE
8
layer0
10
1870.46096908265
20
-650.229473419497
30
0
11
1850.46096908265
21
-667.549981495186
31
0
0
LINE
8
layer0
10
1850.46096908265
20
-667.549981495186
30
0
11
1850.46096908265
21
-797.453792062852
31
0
0
LINE
8
layer0
10
1870.46096908265
20
-650.229473419497
30
0
11
1835.81995293128
21
-640.229473419497
31
0
0
LINE
8
layer0
10
1835.81995293128
20
-640.229473419497
30
0
11
1815.81995293128
21
-657.549981495186
31
0
0
LINE
8
layer0
10
1815.81995293128
20
-657.549981495186
30
0
11
1850.46096908265
21
-667.549981495186
31
0
0
LINE
8
layer0
10
1850.46096908265
20
-667.549981495186
30
0
11
1870.46096908265
21
-650.229473419497
31
0
0
LINE
8
layer0
10
1835.81995293128
20
-770.133283987163
30
0
11
1870.46096908265
21
-780.133283987163
31
0
0
LINE
8
layer0
10
1870.46096908265
20
-780.133283987163
30
0
11
1850.46096908265
21
-797.453792062852
31
0
0
LINE
8
layer0
10
1850.46096908265
20
-797.453792062852
30
0
11
1815.81995293128
21
-787.453792062852
31
0
0
LINE
8
layer0
10
1815.81995293128
20
-787.453792062852
30
0
11
1835.81995293128
21
-770.133283987163
31
0
0
ENDBLK
0
BLOCK
8
layer0
70
0
10
0
20
0
30
0
2
PF_SKETCH32
0
LINE
8
layer0
10
1035.36508806388
20
274.520886198552
30
0
11
988.198421397215
21
233.673354653386
31
0
0
ENDBLK
0
BLOCK
8
layer0
70
0
10
0
20
0
30
0
2
PF_SKETCH33
0
LINE
8
layer0
10
2074.59557260521
20
-25.4791138014479
30
0
11
2027.42890593854
21
-66.3266453466139
31
0
0
ENDBLK
0
BLOCK
8
layer0
70
0
10
0
20
0
30
0
2
PF_SKETCH34
0
LINE
8
layer0
10
941.031754730548
20
192.82582310822
30
0
11
893.865088063882
21
151.978291563054
31
0
0
ENDBLK
0
BLOCK
8
layer0
70
0
10
0
20
0
30
0
2
PF_SKETCH35
0
LINE
8
layer0
10
1980.26223927187
20
-107.17417689178
30
0
11
1933.09557260521
21
-148.021708436946
31
0
0
ENDBLK
0
BLOCK
8
layer0
70
0
10
0
20
0
30
0
2
PF_SKETCH36
0
LINE
8
layer0
10
846.698421397215
20
111.130760017888
30
0
11
799.531754730548
21
70.283228472722
31
0
0
ENDBLK
0
BLOCK
8
layer0
70
0
10
0
20
0
30
0
2
PF_SKETCH37
0
LINE
8
layer0
10
1885.92890593854
20
-188.869239982112
30
0
11
1838.76223927187
21
-229.716771527278
31
0
0
ENDBLK
0
BLOCK
8
layer0
2
PF_OBJECT38
70
0
10
0
20
0
30
0
0
LINE
8
layer0
10
2600.52107508199
20
-651.978875334514
30
0
11
2108.61864573243
21
-509.978875334514
31
0
0
LINE
8
layer0
10
2108.61864573243
20
-509.978875334514
30
0
11
2108.61864573243
21
-496.122468873963
31
0
0
LINE
8
layer0
10
2108.61864573243
20
-496.122468873963
30
0
11
2600.52107508199
21
-638.122468873963
31
0
0
LINE
8
layer0
10
2600.52107508199
20
-638.122468873963
30
0
11
2600.52107508199
21
-651.978875334514
31
0
0
LINE
8
layer0
10
1853.11864573243
20
-731.248366001438
30
0
11
2345.02107508199
21
-873.248366001438
31
0
0
LINE
8
layer0
10
2345.02107508199
20
-873.248366001438
30
0
11
2345.02107508199
21
-859.391959540887
31
0
0
LINE
8
layer0
10
2345.02107508199
20
-859.391959540887
30
0
11
1853.11864573243
21
-717.391959540887
31
0
0
LINE
8
layer0
10
1853.11864573243
20
-717.391959540887
30
0
11
1853.11864573243
21
-731.248366001438
31
0
0
LINE
8
layer0
10
2108.61864573243
20
-509.978875334514
30
0
11
1853.11864573243
21
-731.248366001438
31
0
0
LINE
8
layer0
10
1853.11864573243
20
-731.248366001438
30
0
11
1853.11864573243
21
-717.391959540887
31
0
0
LINE
8
layer0
10
1853.11864573243
20
-717.391959540887
30
0
11
2108.61864573243
21
-496.122468873963
31
0
0
LINE
8
layer0
10
2108.61864573243
20
-496.122468873963
30
0
11
2108.61864573243
21
-509.978875334514
31
0
0
LINE
8
layer0
10
2345.02107508199
20
-873.248366001438
30
0
11
2600.52107508199
21
-651.978875334514
31
0
0
LINE
8
layer0
10
2600.52107508199
20
-651.978875334514
30
0
11
2600.52107508199
21
-638.122468873963
31
0
0
LINE
8
layer0
10
2600.52107508199
20
-638.122468873963
30
0
11
2345.02107508199
21
-859.391959540887
31
0
0
LINE
8
layer0
10
2345.02107508199
20
-859.391959540887
30
0
11
2345.02107508199
21
-873.248366001438
31
0
0
LINE
8
layer0
10
2600.52107508199
20
-638.122468873963
30
0
11
2108.61864573243
21
-496.122468873963
31
0
0
LINE
8
layer0
10
2108.61864573243
20
-496.122468873963
30
0
11
1853.11864573243
21
-717.391959540887
31
0
0
LINE
8
layer0
10
1853.11864573243
20
-717.391959540887
30
0
11
2345.02107508199
21
-859.391959540887
31
0
0
LINE
8
layer0
10
2345.02107508199
20
-859.391959540887
30
0
11
2600.52107508199
21
-638.122468873963
31
0
0
LINE
8
layer0
10
2108.61864573243
20
-509.978875334514
30
0
11
2600.52107508199
21
-651.978875334514
31
0
0
LINE
8
layer0
10
2600.52107508199
20
-651.978875334514
30
0
11
2345.02107508199
21
-873.248366001438
31
0
0
LINE
8
layer0
10
2345.02107508199
20
-873.248366001438
30
0
11
1853.11864573243
21
-731.248366001438
31
0
0
LINE
8
layer0
10
1853.11864573243
20
-731.248366001438
30
0
11
2108.61864573243
21
-509.978875334514
31
0
0
ENDBLK
0
BLOCK
8
layer0
2
PF_OBJECT39
70
0
10
0
20
0
30
0
0
LINE
8
layer0
10
2602.52107508199
20
-650.246824526945
30
0
11
2110.61864573243
21
-508.246824526945
31
0
0
LINE
8
layer0
10
2110.61864573243
20
-508.246824526945
30
0
11
2110.61864573243
21
-10.2822173508928
31
0
0
LINE
8
layer0
10
2110.61864573243
20
-10.2822173508928
30
0
11
2602.52107508199
21
-152.282217350893
31
0
0
LINE
8
layer0
10
2602.52107508199
20
-152.282217350893
30
0
11
2602.52107508199
21
-650.246824526945
31
0
0
LINE
8
layer0
10
2108.61864573243
20
-509.978875334514
30
0
11
2600.52107508199
21
-651.978875334514
31
0
0
LINE
8
layer0
10
2600.52107508199
20
-651.978875334514
30
0
11
2600.52107508199
21
-154.014268158462
31
0
0
LINE
8
layer0
10
2600.52107508199
20
-154.014268158462
30
0
11
2108.61864573243
21
-12.0142681584617
31
0
0
LINE
8
layer0
10
2108.61864573243
20
-12.0142681584617
30
0
11
2108.61864573243
21
-509.978875334514
31
0
0
LINE
8
layer0
10
2110.61864573243
20
-508.246824526945
30
0
11
2108.61864573243
21
-509.978875334514
31
0
0
LINE
8
layer0
10
2108.61864573243
20
-509.978875334514
30
0
11
2108.61864573243
21
-12.0142681584617
31
0
0
LINE
8
layer0
10
2108.61864573243
20
-12.0142681584617
30
0
11
2110.61864573243
21
-10.2822173508928
31
0
0
LINE
8
layer0
10
2110.61864573243
20
-10.2822173508928
30
0
11
2110.61864573243
21
-508.246824526945
31
0
0
LINE
8
layer0
10
2600.52107508199
20
-651.978875334514
30
0
11
2602.52107508199
21
-650.246824526945
31
0
0
LINE
8
layer0
10
2602.52107508199
20
-650.246824526945
30
0
11
2602.52107508199
21
-152.282217350893
31
0
0
LINE
8
layer0
10
2602.52107508199
20
-152.282217350893
30
0
11
2600.52107508199
21
-154.014268158462
31
0
0
LINE
8
layer0
10
2600.52107508199
20
-154.014268158462
30
0
11
2600.52107508199
21
-651.978875334514
31
0
0
LINE
8
layer0
10
2602.52107508199
20
-152.282217350893
30
0
11
2110.61864573243
21
-10.2822173508928
31
0
0
LINE
8
layer0
10
2110.61864573243
20
-10.2822173508928
30
0
11
2108.61864573243
21
-12.0142681584617
31
0
0
LINE
8
layer0
10
2108.61864573243
20
-12.0142681584617
30
0
11
2600.52107508199
21
-154.014268158462
31
0
0
LINE
8
layer0
10
2600.52107508199
20
-154.014268158462
30
0
11
2602.52107508199
21
-152.282217350893
31
0
0
LINE
8
layer0
10
2110.61864573243
20
-508.246824526945
30
0
11
2602.52107508199
21
-650.246824526945
31
0
0
LINE
8
layer0
10
2602.52107508199
20
-650.246824526945
30
0
11
2600.52107508199
21
-651.978875334514
31
0
0
LINE
8
layer0
10
2600.52107508199
20
-651.978875334514
30
0
11
2108.61864573243
21
-509.978875334514
31
0
0
LINE
8
layer0
10
2108.61864573243
20
-509.978875334514
30
0
11
2110.61864573243
21
-508.246824526945
31
0
0
ENDBLK
0
BLOCK
8
layer0
2
PF_OBJECT40
70
0
10
0
20
0
30
0
0
LINE
8
layer0
10
2575.52107508199
20
-175.664903253073
30
0
11
2083.61864573243
21
-33.6649032530727
31
0
0
LINE
8
layer0
10
2083.61864573243
20
-33.6649032530727
30
0
11
2083.61864573243
21
-47.5213097136237
31
0
0
LINE
8
layer0
10
2083.61864573243
20
-47.5213097136237
30
0
11
2575.52107508199
21
-189.521309713624
31
0
0
LINE
8
layer0
10
2575.52107508199
20
-189.521309713624
30
0
11
2575.52107508199
21
-175.664903253073
31
0
0
LINE
8
layer0
10
2108.61864573243
20
-12.0142681584617
30
0
11
2600.52107508199
21
-154.014268158462
31
0
0
LINE
8
layer0
10
2600.52107508199
20
-154.014268158462
30
0
11
2600.52107508199
21
-167.870674619013
31
0
0
LINE
8
layer0
10
2600.52107508199
20
-167.870674619013
30
0
11
2108.61864573243
21
-25.8706746190127
31
0
0
LINE
8
layer0
10
2108.61864573243
20
-25.8706746190127
30
0
11
2108.61864573243
21
-12.0142681584617
31
0
0
LINE
8
layer0
10
2083.61864573243
20
-33.6649032530727
30
0
11
2108.61864573243
21
-12.0142681584617
31
0
0
LINE
8
layer0
10
2108.61864573243
20
-12.0142681584617
30
0
11
2108.61864573243
21
-25.8706746190127
31
0
0
LINE
8
layer0
10
2108.61864573243
20
-25.8706746190127
30
0
11
2083.61864573243
21
-47.5213097136237
31
0
0
LINE
8
layer0
10
2083.61864573243
20
-47.5213097136237
30
0
11
2083.61864573243
21
-33.6649032530727
31
0
0
LINE
8
layer0
10
2600.52107508199
20
-154.014268158462
30
0
11
2575.52107508199
21
-175.664903253073
31
0
0
LINE
8
layer0
10
2575.52107508199
20
-175.664903253073
30
0
11
2575.52107508199
21
-189.521309713624
31
0
0
LINE
8
layer0
10
2575.52107508199
20
-189.521309713624
30
0
11
2600.52107508199
21
-167.870674619013
31
0
0
LINE
8
layer0
10
2600.52107508199
20
-167.870674619013
30
0
11
2600.52107508199
21
-154.014268158462
31
0
0
LINE
8
layer0
10
2575.52107508199
20
-189.521309713624
30
0
11
2083.61864573243
21
-47.5213097136237
31
0
0
LINE
8
layer0
10
2083.61864573243
20
-47.5213097136237
30
0
11
2108.61864573243
21
-25.8706746190127
31
0
0
LINE
8
layer0
10
2108.61864573243
20
-25.8706746190127
30
0
11
2600.52107508199
21
-167.870674619013
31
0
0
LINE
8
layer0
10
2600.52107508199
20
-167.870674619013
30
0
11
2575.52107508199
21
-189.521309713624
31
0
0
LINE
8
layer0
10
2083.61864573243
20
-33.6649032530727
30
0
11
2575.52107508199
21
-175.664903253073
31
0
0
LINE
8
layer0
10
2575.52107508199
20
-175.664903253073
30
0
11
2600.52107508199
21
-154.014268158462
31
0
0
LINE
8
layer0
10
2600.52107508199
20
-154.014268158462
30
0
11
2108.61864573243
21
-12.0142681584617
31
0
0
LINE
8
layer0
10
2108.61864573243
20
-12.0142681584617
30
0
11
2083.61864573243
21
-33.6649032530727
31
0
0
ENDBLK
0
BLOCK
8
layer0
2
PF_OBJECT41
70
0
10
0
20
0
30
0
0
LINE
8
layer0
10
1878.11864573243
20
-225.489530191326
30
0
11
2370.02107508199
21
-367.489530191326
31
0
0
LINE
8
layer0
10
2370.02107508199
20
-367.489530191326
30
0
11
2345.02107508199
21
-389.140165285937
31
0
0
LINE
8
layer0
10
2345.02107508199
20
-389.140165285937
30
0
11
1853.11864573243
21
-247.140165285937
31
0
0
LINE
8
layer0
10
1853.11864573243
20
-247.140165285937
30
0
11
1878.11864573243
21
-225.489530191326
31
0
0
LINE
8
layer0
10
2370.02107508199
20
-353.633123730775
30
0
11
1878.11864573243
21
-211.633123730775
31
0
0
LINE
8
layer0
10
1878.11864573243
20
-211.633123730775
30
0
11
1853.11864573243
21
-233.283758825386
31
0
0
LINE
8
layer0
10
1853.11864573243
20
-233.283758825386
30
0
11
2345.02107508199
21
-375.283758825386
31
0
0
LINE
8
layer0
10
2345.02107508199
20
-375.283758825386
30
0
11
2370.02107508199
21
-353.633123730775
31
0
0
LINE
8
layer0
10
2345.02107508199
20
-389.140165285937
30
0
11
2370.02107508199
21
-367.489530191326
31
0
0
LINE
8
layer0
10
2370.02107508199
20
-367.489530191326
30
0
11
2370.02107508199
21
-353.633123730775
31
0
0
LINE
8
layer0
10
2370.02107508199
20
-353.633123730775
30
0
11
2345.02107508199
21
-375.283758825386
31
0
0
LINE
8
layer0
10
2345.02107508199
20
-375.283758825386
30
0
11
2345.02107508199
21
-389.140165285937
31
0
0
LINE
8
layer0
10
1878.11864573243
20
-225.489530191326
30
0
11
1853.11864573243
21
-247.140165285937
31
0
0
LINE
8
layer0
10
1853.11864573243
20
-247.140165285937
30
0
11
1853.11864573243
21
-233.283758825386
31
0
0
LINE
8
layer0
10
1853.11864573243
20
-233.283758825386
30
0
11
1878.11864573243
21
-211.633123730775
31
0
0
LINE
8
layer0
10
1878.11864573243
20
-211.633123730775
30
0
11
1878.11864573243
21
-225.489530191326
31
0
0
LINE
8
layer0
10
1853.11864573243
20
-247.140165285937
30
0
11
2345.02107508199
21
-389.140165285937
31
0
0
LINE
8
layer0
10
2345.02107508199
20
-389.140165285937
30
0
11
2345.02107508199
21
-375.283758825386
31
0
0
LINE
8
layer0
10
2345.02107508199
20
-375.283758825386
30
0
11
1853.11864573243
21
-233.283758825386
31
0
0
LINE
8
layer0
10
1853.11864573243
20
-233.283758825386
30
0
11
1853.11864573243
21
-247.140165285937
31
0
0
LINE
8
layer0
10
2370.02107508199
20
-367.489530191326
30
0
11
1878.11864573243
21
-225.489530191326
31
0
0
LINE
8
layer0
10
1878.11864573243
20
-225.489530191326
30
0
11
1878.11864573243
21
-211.633123730775
31
0
0
LINE
8
layer0
10
1878.11864573243
20
-211.633123730775
30
0
11
2370.02107508199
21
-353.633123730775
31
0
0
LINE
8
layer0
10
2370.02107508199
20
-353.633123730775
30
0
11
2370.02107508199
21
-367.489530191326
31
0
0
LINE
8
layer0
10
2627.52107508199
20
-628.596189432334
30
0
11
2641.37748154254
21
-632.596189432334
31
0
0
LINE
8
layer0
10
2641.37748154254
20
-632.596189432334
30
0
11
2358.37748154254
21
-877.68137870333
31
0
0
LINE
8
layer0
10
2358.37748154254
20
-877.68137870333
30
0
11
2344.52107508199
21
-873.68137870333
31
0
0
LINE
8
layer0
10
2344.52107508199
20
-873.68137870333
30
0
11
2627.52107508199
21
-628.596189432334
31
0
0
LINE
8
layer0
10
2641.37748154254
20
-134.631582256282
30
0
11
2627.52107508199
21
-130.631582256282
31
0
0
LINE
8
layer0
10
2627.52107508199
20
-130.631582256282
30
0
11
2344.52107508199
21
-375.716771527278
31
0
0
LINE
8
layer0
10
2344.52107508199
20
-375.716771527278
30
0
11
2358.37748154254
21
-379.716771527278
31
0
0
LINE
8
layer0
10
2358.37748154254
20
-379.716771527278
30
0
11
2641.37748154254
21
-134.631582256282
31
0
0
LINE
8
layer0
10
2358.37748154254
20
-877.68137870333
30
0
11
2641.37748154254
21
-632.596189432334
31
0
0
LINE
8
layer0
10
2641.37748154254
20
-632.596189432334
30
0
11
2641.37748154254
21
-134.631582256282
31
0
0
LINE
8
layer0
10
2641.37748154254
20
-134.631582256282
30
0
11
2358.37748154254
21
-379.716771527278
31
0
0
LINE
8
layer0
10
2358.37748154254
20
-379.716771527278
30
0
11
2358.37748154254
21
-877.68137870333
31
0
0
LINE
8
layer0
10
2627.52107508199
20
-628.596189432334
30
0
11
2344.52107508199
21
-873.68137870333
31
0
0
LINE
8
layer0
10
2344.52107508199
20
-873.68137870333
30
0
11
2344.52107508199
21
-375.716771527278
31
0
0
LINE
8
layer0
10
2344.52107508199
20
-375.716771527278
30
0
11
2627.52107508199
21
-130.631582256282
31
0
0
LINE
8
layer0
10
2627.52107508199
20
-130.631582256282
30
0
11
2627.52107508199
21
-628.596189432334
31
0
0
LINE
8
layer0
10
2344.52107508199
20
-873.68137870333
30
0
11
2358.37748154254
21
-877.68137870333
31
0
0
LINE
8
layer0
10
2358.37748154254
20
-877.68137870333
30
0
11
2358.37748154254
21
-379.716771527278
31
0
0
LINE
8
layer0
10
2358.37748154254
20
-379.716771527278
30
0
11
2344.52107508199
21
-375.716771527278
31
0
0
LINE
8
layer0
10
2344.52107508199
20
-375.716771527278
30
0
11
2344.52107508199
21
-873.68137870333
31
0
0
LINE
8
layer0
10
2641.37748154254
20
-632.596189432334
30
0
11
2627.52107508199
21
-628.596189432334
31
0
0
LINE
8
layer0
10
2627.52107508199
20
-628.596189432334
30
0
11
2627.52107508199
21
-130.631582256282
31
0
0
LINE
8
layer0
10
2627.52107508199
20
-130.631582256282
30
0
11
2641.37748154254
21
-134.631582256282
31
0
0
LINE
8
layer0
10
2641.37748154254
20
-134.631582256282
30
0
11
2641.37748154254
21
-632.596189432334
31
0
0
LINE
8
layer0
10
2121.76223927187
20
-482.596189432334
30
0
11
2135.61864573243
21
-486.596189432334
31
0
0
LINE
8
layer0
10
2135.61864573243
20
-486.596189432334
30
0
11
1852.61864573243
21
-731.68137870333
31
0
0
LINE
8
layer0
10
1852.61864573243
20
-731.68137870333
30
0
11
1838.76223927187
21
-727.68137870333
31
0
0
LINE
8
layer0
10
1838.76223927187
20
-727.68137870333
30
0
11
2121.76223927187
21
-482.596189432334
31
0
0
LINE
8
layer0
10
2135.61864573243
20
11.3684177437182
30
0
11
2121.76223927187
21
15.3684177437182
31
0
0
LINE
8
layer0
10
2121.76223927187
20
15.3684177437182
30
0
11
1838.76223927187
21
-229.716771527278
31
0
0
LINE
8
layer0
10
1838.76223927187
20
-229.716771527278
30
0
11
1852.61864573243
21
-233.716771527278
31
0
0
LINE
8
layer0
10
1852.61864573243
20
-233.716771527278
30
0
11
2135.61864573243
21
11.3684177437182
31
0
0
LINE
8
layer0
10
1852.61864573243
20
-731.68137870333
30
0
11
2135.61864573243
21
-486.596189432334
31
0
0
LINE
8
layer0
10
2135.61864573243
20
-486.596189432334
30
0
11
2135.61864573243
21
11.3684177437182
31
0
0
LINE
8
layer0
10
2135.61864573243
20
11.3684177437182
30
0
11
1852.61864573243
21
-233.716771527278
31
0
0
LINE
8
layer0
10
1852.61864573243
20
-233.716771527278
30
0
11
1852.61864573243
21
-731.68137870333
31
0
0
LINE
8
layer0
10
2121.76223927187
20
-482.596189432334
30
0
11
1838.76223927187
21
-727.68137870333
31
0
0
LINE
8
layer0
10
1838.76223927187
20
-727.68137870333
30
0
11
1838.76223927187
21
-229.716771527278
31
0
0
LINE
8
layer0
10
1838.76223927187
20
-229.716771527278
30
0
11
2121.76223927187
21
15.3684177437182
31
0
0
LINE
8
layer0
10
2121.76223927187
20
15.3684177437182
30
0
11
2121.76223927187
21
-482.596189432334
31
0
0
LINE
8
layer0
10
1838.76223927187
20
-727.68137870333
30
0
11
1852.61864573243
21
-731.68137870333
31
0
0
LINE
8
layer0
10
1852.61864573243
20
-731.68137870333
30
0
11
1852.61864573243
21
-233.716771527278
31
0
0
LINE
8
layer0
10
1852.61864573243
20
-233.716771527278
30
0
11
1838.76223927187
21
-229.716771527278
31
0
0
LINE
8
layer0
10
1838.76223927187
20
-229.716771527278
30
0
11
1838.76223927187
21
-727.68137870333
31
0
0
LINE
8
layer0
10
2135.61864573243
20
-486.596189432334
30
0
11
2121.76223927187
21
-482.596189432334
31
0
0
LINE
8
layer0
10
2121.76223927187
20
-482.596189432334
30
0
11
2121.76223927187
21
15.3684177437182
31
0
0
LINE
8
layer0
10
2121.76223927187
20
15.3684177437182
30
0
11
2135.61864573243
21
11.3684177437182
31
0
0
LINE
8
layer0
10
2135.61864573243
20
11.3684177437182
30
0
11
2135.61864573243
21
-486.596189432334
31
0
0
ENDBLK
0
BLOCK
8
layer0
2
PF_OBJECT42
70
0
10
0
20
0
30
0
0
LINE
8
layer0
10
1936.18240540213
20
-330.62630588905
30
0
11
1977.32312023729
21
-330.62630588905
31
0
0
LINE
8
layer0
10
1977.32312023729
20
-330.62630588905
30
0
11
1977.32312023729
21
-321.966051851205
31
0
0
LINE
8
layer0
10
1977.32312023729
20
-321.966051851205
30
0
11
1936.18240540213
21
-321.966051851205
31
0
0
LINE
8
layer0
10
1936.18240540213
20
-321.966051851205
30
0
11
1936.18240540213
21
-330.62630588905
31
0
0
LINE
8
layer0
10
1927.81724236475
20
-319.551237285482
30
0
11
1927.81724236475
21
-328.211491323327
31
0
0
LINE
8
layer0
10
1927.81724236475
20
-328.211491323327
30
0
11
1936.18240540213
21
-330.62630588905
31
0
0
LINE
8
layer0
10
1936.18240540213
20
-330.62630588905
30
0
11
1936.18240540213
21
-321.966051851205
31
0
0
LINE
8
layer0
10
1936.18240540213
20
-321.966051851205
30
0
11
1927.81724236475
21
-319.551237285482
31
0
0
LINE
8
layer0
10
1877.90499971121
20
-313.803067957386
30
0
11
1927.81724236475
21
-328.211491323327
31
0
0
LINE
8
layer0
10
1927.81724236475
20
-328.211491323327
30
0
11
1927.81724236475
21
-319.551237285482
31
0
0
LINE
8
layer0
10
1927.81724236475
20
-319.551237285482
30
0
11
1877.90499971121
21
-305.142813919541
31
0
0
LINE
8
layer0
10
1877.90499971121
20
-305.142813919541
30
0
11
1877.90499971121
21
-313.803067957386
31
0
0
LINE
8
layer0
10
1873.07537057976
20
-300.960232400852
30
0
11
1873.07537057976
21
-309.620486438697
31
0
0
LINE
8
layer0
10
1873.07537057976
20
-309.620486438697
30
0
11
1877.90499971121
21
-313.803067957386
31
0
0
LINE
8
layer0
10
1877.90499971121
20
-313.803067957386
30
0
11
1877.90499971121
21
-305.142813919541
31
0
0
LINE
8
layer0
10
1877.90499971121
20
-305.142813919541
30
0
11
1873.07537057976
21
-300.960232400852
31
0
0
LINE
8
layer0
10
1857.33464229363
20
-287.328361830992
30
0
11
1857.33464229363
21
-295.988615868837
31
0
0
LINE
8
layer0
10
1857.33464229363
20
-295.988615868837
30
0
11
1873.07537057976
21
-309.620486438697
31
0
0
LINE
8
layer0
10
1873.07537057976
20
-309.620486438697
30
0
11
1873.07537057976
21
-300.960232400852
31
0
0
LINE
8
layer0
10
1873.07537057976
20
-300.960232400852
30
0
11
1857.33464229363
21
-287.328361830992
31
0
0
LINE
8
layer0
10
1927.81724236475
20
-328.211491323327
30
0
11
1968.95795719991
21
-328.211491323327
31
0
0
LINE
8
layer0
10
1968.95795719991
20
-328.211491323327
30
0
11
1977.32312023729
21
-330.62630588905
31
0
0
LINE
8
layer0
10
1977.32312023729
20
-330.62630588905
30
0
11
1936.18240540213
21
-330.62630588905
31
0
0
LINE
8
layer0
10
1936.18240540213
20
-330.62630588905
30
0
11
1927.81724236475
21
-328.211491323327
31
0
0
LINE
8
layer0
10
1873.07537057976
20
-309.620486438697
30
0
11
1937.47650062764
21
-328.211491323327
31
0
0
LINE
8
layer0
10
1937.47650062764
20
-328.211491323327
30
0
11
1927.81724236475
21
-328.211491323327
31
0
0
LINE
8
layer0
10
1927.81724236475
20
-328.211491323327
30
0
11
1877.90499971121
21
-313.803067957386
31
0
0
LINE
8
layer0
10
1877.90499971121
20
-313.803067957386
30
0
11
1873.07537057976
21
-309.620486438697
31
0
0
LINE
8
layer0
10
1857.33464229363
20
-295.988615868837
30
0
11
1865.699805331
21
-298.403430434559
31
0
0
LINE
8
layer0
10
1865.699805331
20
-298.403430434559
30
0
11
1881.44053361714
21
-312.035301004419
31
0
0
LINE
8
layer0
10
1881.44053361714
20
-312.035301004419
30
0
11
1873.07537057976
21
-309.620486438697
31
0
0
LINE
8
layer0
10
1873.07537057976
20
-309.620486438697
30
0
11
1857.33464229363
21
-295.988615868837
31
0
0
LINE
8
layer0
10
1968.95795719991
20
-319.551237285482
30
0
11
1968.95795719991
21
-328.211491323327
31
0
0
LINE
8
layer0
10
1968.95795719991
20
-328.211491323327
30
0
11
1937.47650062764
21
-328.211491323327
31
0
0
LINE
8
layer0
10
1937.47650062764
20
-328.211491323327
30
0
11
1937.47650062764
21
-319.551237285483
31
0
0
LINE
8
layer0
10
1937.47650062764
20
-319.551237285483
30
0
11
1968.95795719991
21
-319.551237285482
31
0
0
LINE
8
layer0
10
1937.47650062764
20
-328.211491323327
30
0
11
1881.44053361714
21
-312.035301004419
31
0
0
LINE
8
layer0
10
1881.44053361714
20
-312.035301004419
30
0
11
1881.44053361714
21
-303.375046966575
31
0
0
LINE
8
layer0
10
1881.44053361714
20
-303.375046966575
30
0
11
1937.47650062764
21
-319.551237285483
31
0
0
LINE
8
layer0
10
1937.47650062764
20
-319.551237285483
30
0
11
1937.47650062764
21
-328.211491323327
31
0
0
LINE
8
layer0
10
1881.44053361714
20
-312.035301004419
30
0
11
1865.699805331
21
-298.403430434559
31
0
0
LINE
8
layer0
10
1865.699805331
20
-298.403430434559
30
0
11
1865.699805331
21
-289.743176396715
31
0
0
LINE
8
layer0
10
1865.699805331
20
-289.743176396715
30
0
11
1881.44053361714
21
-303.375046966575
31
0
0
LINE
8
layer0
10
1881.44053361714
20
-303.375046966575
30
0
11
1881.44053361714
21
-312.035301004419
31
0
0
LINE
8
layer0
10
1968.95795719991
20
-328.211491323327
30
0
11
1968.95795719991
21
-319.551237285482
31
0
0
LINE
8
layer0
10
1968.95795719991
20
-319.551237285482
30
0
11
1977.32312023729
21
-321.966051851205
31
0
0
LINE
8
layer0
10
1977.32312023729
20
-321.966051851205
30
0
11
1977.32312023729
21
-330.62630588905
31
0
0
LINE
8
layer0
10
1977.32312023729
20
-330.62630588905
30
0
11
1968.95795719991
21
-328.211491323327
31
0
0
LINE
8
layer0
10
1857.33464229363
20
-287.328361830992
30
0
11
1865.699805331
21
-289.743176396715
31
0
0
LINE
8
layer0
10
1865.699805331
20
-289.743176396715
30
0
11
1865.699805331
21
-298.403430434559
31
0
0
LINE
8
layer0
10
1865.699805331
20
-298.403430434559
30
0
11
1857.33464229363
21
-295.988615868837
31
0
0
LINE
8
layer0
10
1857.33464229363
20
-295.988615868837
30
0
11
1857.33464229363
21
-287.328361830992
31
0
0
LINE
8
layer0
10
1977.32312023729
20
-321.966051851205
30
0
11
1968.95795719991
21
-319.551237285482
31
0
0
LINE
8
layer0
10
1968.95795719991
20
-319.551237285482
30
0
11
1927.81724236475
21
-319.551237285482
31
0
0
LINE
8
layer0
10
1927.81724236475
20
-319.551237285482
30
0
11
1936.18240540213
21
-321.966051851205
31
0
0
LINE
8
layer0
10
1936.18240540213
20
-321.966051851205
30
0
11
1977.32312023729
21
-321.966051851205
31
0
0
LINE
8
layer0
10
1927.81724236475
20
-319.551237285482
30
0
11
1937.47650062764
21
-319.551237285483
31
0
0
LINE
8
layer0
10
1937.47650062764
20
-319.551237285483
30
0
11
1873.07537057976
21
-300.960232400852
31
0
0
LINE
8
layer0
10
1873.07537057976
20
-300.960232400852
30
0
11
1877.90499971121
21
-305.142813919541
31
0
0
LINE
8
layer0
10
1877.90499971121
20
-305.142813919541
30
0
11
1927.81724236475
21
-319.551237285482
31
0
0
LINE
8
layer0
10
1873.07537057976
20
-300.960232400852
30
0
11
1881.44053361714
21
-303.375046966575
31
0
0
LINE
8
layer0
10
1881.44053361714
20
-303.375046966575
30
0
11
1865.699805331
21
-289.743176396715
31
0
0
LINE
8
layer0
10
1865.699805331
20
-289.743176396715
30
0
11
1857.33464229363
21
-287.328361830992
31
0
0
LINE
8
layer0
10
1857.33464229363
20
-287.328361830992
30
0
11
1873.07537057976
21
-300.960232400852
31
0
0
ENDBLK
0
BLOCK
8
layer0
2
PF_OBJECT43
70
0
10
0
20
0
30
0
0
LINE
8
layer0
10
2354.27940533119
20
-875.632340597654
30
0
11
1839.86031548323
21
-727.132340597654
31
0
0
LINE
8
layer0
10
1839.86031548323
20
-727.132340597654
30
0
11
1839.86031548323
21
-237.827987459446
31
0
0
LINE
8
layer0
10
1839.86031548323
20
-237.827987459446
30
0
11
2354.27940533119
21
-386.327987459446
31
0
0
LINE
8
layer0
10
2354.27940533119
20
-386.327987459446
30
0
11
2354.27940533119
21
-875.632340597654
31
0
0
LINE
8
layer0
10
1829.86031548323
20
-735.792594635498
30
0
11
2344.27940533119
21
-884.292594635498
31
0
0
LINE
8
layer0
10
2344.27940533119
20
-884.292594635498
30
0
11
2344.27940533119
21
-394.98824149729
31
0
0
LINE
8
layer0
10
2344.27940533119
20
-394.98824149729
30
0
11
1829.86031548323
21
-246.48824149729
31
0
0
LINE
8
layer0
10
1829.86031548323
20
-246.48824149729
30
0
11
1829.86031548323
21
-735.792594635498
31
0
0
LINE
8
layer0
10
1839.86031548323
20
-727.132340597654
30
0
11
1829.86031548323
21
-735.792594635498
31
0
0
LINE
8
layer0
10
1829.86031548323
20
-735.792594635498
30
0
11
1829.86031548323
21
-246.48824149729
31
0
0
LINE
8
layer0
10
1829.86031548323
20
-246.48824149729
30
0
11
1839.86031548323
21
-237.827987459446
31
0
0
LINE
8
layer0
10
1839.86031548323
20
-237.827987459446
30
0
11
1839.86031548323
21
-727.132340597654
31
0
0
LINE
8
layer0
10
2344.27940533119
20
-884.292594635498
30
0
11
2354.27940533119
21
-875.632340597654
31
0
0
LINE
8
layer0
10
2354.27940533119
20
-875.632340597654
30
0
11
2354.27940533119
21
-386.327987459446
31
0
0
LINE
8
layer0
10
2354.27940533119
20
-386.327987459446
30
0
11
2344.27940533119
21
-394.98824149729
31
0
0
LINE
8
layer0
10
2344.27940533119
20
-394.98824149729
30
0
11
2344.27940533119
21
-884.292594635498
31
0
0
LINE
8
layer0
10
2354.27940533119
20
-386.327987459446
30
0
11
1839.86031548323
21
-237.827987459446
31
0
0
LINE
8
layer0
10
1839.86031548323
20
-237.827987459446
30
0
11
1829.86031548323
21
-246.48824149729
31
0
0
LINE
8
layer0
10
1829.86031548323
20
-246.48824149729
30
0
11
2344.27940533119
21
-394.98824149729
31
0
0
LINE
8
layer0
10
2344.27940533119
20
-394.98824149729
30
0
11
2354.27940533119
21
-386.327987459446
31
0
0
LINE
8
layer0
10
1839.86031548323
20
-727.132340597654
30
0
11
2354.27940533119
21
-875.632340597654
31
0
0
LINE
8
layer0
10
2354.27940533119
20
-875.632340597654
30
0
11
2344.27940533119
21
-884.292594635498
31
0
0
LINE
8
layer0
10
2344.27940533119
20
-884.292594635498
30
0
11
1829.86031548323
21
-735.792594635498
31
0
0
LINE
8
layer0
10
1829.86031548323
20
-735.792594635498
30
0
11
1839.86031548323
21
-727.132340597654
31
0
0
ENDBLK
0
BLOCK
8
layer0
2
PF_OBJECT44
70
0
10
0
20
0
30
0
0
LINE
8
layer0
10
2149.70452561247
20
-678.301270189222
30
0
11
2115.0635094611
21
-668.301270189222
31
0
0
LINE
8
layer0
10
2115.0635094611
20
-668.301270189222
30
0
11
2115.0635094611
21
-538.397459621556
31
0
0
LINE
8
layer0
10
2115.0635094611
20
-538.397459621556
30
0
11
2149.70452561247
21
-548.397459621556
31
0
0
LINE
8
layer0
10
2149.70452561247
20
-548.397459621556
30
0
11
2149.70452561247
21
-678.301270189222
31
0
0
LINE
8
layer0
10
2095.0635094611
20
-685.621778264911
30
0
11
2129.70452561247
21
-695.621778264911
31
0
0
LINE
8
layer0
10
2129.70452561247
20
-695.621778264911
30
0
11
2129.70452561247
21
-565.717967697245
31
0
0
LINE
8
layer0
10
2129.70452561247
20
-565.717967697245
30
0
11
2095.0635094611
21
-555.717967697245
31
0
0
LINE
8
layer0
10
2095.0635094611
20
-555.717967697245
30
0
11
2095.0635094611
21
-685.621778264911
31
0
0
LINE
8
layer0
10
2115.0635094611
20
-668.301270189222
30
0
11
2095.0635094611
21
-685.621778264911
31
0
0
LINE
8
layer0
10
2095.0635094611
20
-685.621778264911
30
0
11
2095.0635094611
21
-555.717967697245
31
0
0
LINE
8
layer0
10
2095.0635094611
20
-555.717967697245
30
0
11
2115.0635094611
21
-538.397459621556
31
0
0
LINE
8
layer0
10
2115.0635094611
20
-538.397459621556
30
0
11
2115.0635094611
21
-668.301270189222
31
0
0
LINE
8
layer0
10
2129.70452561247
20
-695.621778264911
30
0
11
2149.70452561247
21
-678.301270189222
31
0
0
LINE
8
layer0
10
2149.70452561247
20
-678.301270189222
30
0
11
2149.70452561247
21
-548.397459621556
31
0
0
LINE
8
layer0
10
2149.70452561247
20
-548.397459621556
30
0
11
2129.70452561247
21
-565.717967697245
31
0
0
LINE
8
layer0
10
2129.70452561247
20
-565.717967697245
30
0
11
2129.70452561247
21
-695.621778264911
31
0
0
LINE
8
layer0
10
2149.70452561247
20
-548.397459621556
30
0
11
2115.0635094611
21
-538.397459621556
31
0
0
LINE
8
layer0
10
2115.0635094611
20
-538.397459621556
30
0
11
2095.0635094611
21
-555.717967697245
31
0
0
LINE
8
layer0
10
2095.0635094611
20
-555.717967697245
30
0
11
2129.70452561247
21
-565.717967697245
31
0
0
LINE
8
layer0
10
2129.70452561247
20
-565.717967697245
30
0
11
2149.70452561247
21
-548.397459621556
31
0
0
LINE
8
layer0
10
2115.0635094611
20
-668.301270189222
30
0
11
2149.70452561247
21
-678.301270189222
31
0
0
LINE
8
layer0
10
2149.70452561247
20
-678.301270189222
30
0
11
2129.70452561247
21
-695.621778264911
31
0
0
LINE
8
layer0
10
2129.70452561247
20
-695.621778264911
30
0
11
2095.0635094611
21
-685.621778264911
31
0
0
LINE
8
layer0
10
2095.0635094611
20
-685.621778264911
30
0
11
2115.0635094611
21
-668.301270189222
31
0
0
ENDBLK
0
BLOCK
8
layer0
2
PF_OBJECT45
70
0
10
0
20
0
30
0
0
LINE
8
layer0
10
1991.70452561247
20
-815.133283987163
30
0
11
1957.0635094611
21
-805.133283987163
31
0
0
LINE
8
layer0
10
1957.0635094611
20
-805.133283987163
30
0
11
1957.0635094611
21
-675.229473419497
31
0
0
LINE
8
layer0
10
1957.0635094611
20
-675.229473419497
30
0
11
1991.70452561247
21
-685.229473419497
31
0
0
LINE
8
layer0
10
1991.70452561247
20
-685.229473419497
30
0
11
1991.70452561247
21
-815.133283987163
31
0
0
LINE
8
layer0
10
1937.0635094611
20
-822.453792062852
30
0
11
1971.70452561247
21
-832.453792062852
31
0
0
LINE
8
layer0
10
1971.70452561247
20
-832.453792062852
30
0
11
1971.70452561247
21
-702.549981495186
31
0
0
LINE
8
layer0
10
1971.70452561247
20
-702.549981495186
30
0
11
1937.0635094611
21
-692.549981495186
31
0
0
LINE
8
layer0
10
1937.0635094611
20
-692.549981495186
30
0
11
1937.0635094611
21
-822.453792062852
31
0
0
LINE
8
layer0
10
1957.0635094611
20
-805.133283987163
30
0
11
1937.0635094611
21
-822.453792062852
31
0
0
LINE
8
layer0
10
1937.0635094611
20
-822.453792062852
30
0
11
1937.0635094611
21
-692.549981495186
31
0
0
LINE
8
layer0
10
1937.0635094611
20
-692.549981495186
30
0
11
1957.0635094611
21
-675.229473419497
31
0
0
LINE
8
layer0
10
1957.0635094611
20
-675.229473419497
30
0
11
1957.0635094611
21
-805.133283987163
31
0
0
LINE
8
layer0
10
1971.70452561247
20
-832.453792062852
30
0
11
1991.70452561247
21
-815.133283987163
31
0
0
LINE
8
layer0
10
1991.70452561247
20
-815.133283987163
30
0
11
1991.70452561247
21
-685.229473419497
31
0
0
LINE
8
layer0
10
1991.70452561247
20
-685.229473419497
30
0
11
1971.70452561247
21
-702.549981495186
31
0
0
LINE
8
layer0
10
1971.70452561247
20
-702.549981495186
30
0
11
1971.70452561247
21
-832.453792062852
31
0
0
LINE
8
layer0
10
1991.70452561247
20
-685.229473419497
30
0
11
1957.0635094611
21
-675.229473419497
31
0
0
LINE
8
layer0
10
1957.0635094611
20
-675.229473419497
30
0
11
1937.0635094611
21
-692.549981495186
31
0
0
LINE
8
layer0
10
1937.0635094611
20
-692.549981495186
30
0
11
1971.70452561247
21
-702.549981495186
31
0
0
LINE
8
layer0
10
1971.70452561247
20
-702.549981495186
30
0
11
1991.70452561247
21
-685.229473419497
31
0
0
LINE
8
layer0
10
1957.0635094611
20
-805.133283987163
30
0
11
1991.70452561247
21
-815.133283987163
31
0
0
LINE
8
layer0
10
1991.70452561247
20
-815.133283987163
30
0
11
1971.70452561247
21
-832.453792062852
31
0
0
LINE
8
layer0
10
1971.70452561247
20
-832.453792062852
30
0
11
1937.0635094611
21
-822.453792062852
31
0
0
LINE
8
layer0
10
1937.0635094611
20
-822.453792062852
30
0
11
1957.0635094611
21
-805.133283987163
31
0
0
ENDBLK
0
BLOCK
8
layer0
2
PF_OBJECT46
70
0
10
0
20
0
30
0
0
LINE
8
layer0
10
2548.07621135332
20
-793.301270189222
30
0
11
2513.43519520194
21
-783.301270189222
31
0
0
LINE
8
layer0
10
2513.43519520194
20
-783.301270189222
30
0
11
2513.43519520194
21
-653.397459621556
31
0
0
LINE
8
layer0
10
2513.43519520194
20
-653.397459621556
30
0
11
2548.07621135332
21
-663.397459621556
31
0
0
LINE
8
layer0
10
2548.07621135332
20
-663.397459621556
30
0
11
2548.07621135332
21
-793.301270189222
31
0
0
LINE
8
layer0
10
2493.43519520194
20
-800.621778264911
30
0
11
2528.07621135332
21
-810.621778264911
31
0
0
LINE
8
layer0
10
2528.07621135332
20
-810.621778264911
30
0
11
2528.07621135332
21
-680.717967697245
31
0
0
LINE
8
layer0
10
2528.07621135332
20
-680.717967697245
30
0
11
2493.43519520194
21
-670.717967697245
31
0
0
LINE
8
layer0
10
2493.43519520194
20
-670.717967697245
30
0
11
2493.43519520194
21
-800.621778264911
31
0
0
LINE
8
layer0
10
2513.43519520194
20
-783.301270189222
30
0
11
2493.43519520194
21
-800.621778264911
31
0
0
LINE
8
layer0
10
2493.43519520194
20
-800.621778264911
30
0
11
2493.43519520194
21
-670.717967697245
31
0
0
LINE
8
layer0
10
2493.43519520194
20
-670.717967697245
30
0
11
2513.43519520194
21
-653.397459621556
31
0
0
LINE
8
layer0
10
2513.43519520194
20
-653.397459621556
30
0
11
2513.43519520194
21
-783.301270189222
31
0
0
LINE
8
layer0
10
2528.07621135332
20
-810.621778264911
30
0
11
2548.07621135332
21
-793.301270189222
31
0
0
LINE
8
layer0
10
2548.07621135332
20
-793.301270189222
30
0
11
2548.07621135332
21
-663.397459621556
31
0
0
LINE
8
layer0
10
2548.07621135332
20
-663.397459621556
30
0
11
2528.07621135332
21
-680.717967697245
31
0
0
LINE
8
layer0
10
2528.07621135332
20
-680.717967697245
30
0
11
2528.07621135332
21
-810.621778264911
31
0
0
LINE
8
layer0
10
2548.07621135332
20
-663.397459621556
30
0
11
2513.43519520194
21
-653.397459621556
31
0
0
LINE
8
layer0
10
2513.43519520194
20
-653.397459621556
30
0
11
2493.43519520194
21
-670.717967697245
31
0
0
LINE
8
layer0
10
2493.43519520194
20
-670.717967697245
30
0
11
2528.07621135332
21
-680.717967697245
31
0
0
LINE
8
layer0
10
2528.07621135332
20
-680.717967697245
30
0
11
2548.07621135332
21
-663.397459621556
31
0
0
LINE
8
layer0
10
2513.43519520194
20
-783.301270189222
30
0
11
2548.07621135332
21
-793.301270189222
31
0
0
LINE
8
layer0
10
2548.07621135332
20
-793.301270189222
30
0
11
2528.07621135332
21
-810.621778264911
31
0
0
LINE
8
layer0
10
2528.07621135332
20
-810.621778264911
30
0
11
2493.43519520194
21
-800.621778264911
31
0
0
LINE
8
layer0
10
2493.43519520194
20
-800.621778264911
30
0
11
2513.43519520194
21
-783.301270189222
31
0
0
ENDBLK
0
BLOCK
8
layer0
2
PF_OBJECT47
70
0
10
0
20
0
30
0
0
LINE
8
layer0
10
2390.07621135332
20
-930.133283987163
30
0
11
2355.43519520194
21
-920.133283987163
31
0
0
LINE
8
layer0
10
2355.43519520194
20
-920.133283987163
30
0
11
2355.43519520194
21
-790.229473419497
31
0
0
LINE
8
layer0
10
2355.43519520194
20
-790.229473419497
30
0
11
2390.07621135332
21
-800.229473419497
31
0
0
LINE
8
layer0
10
2390.07621135332
20
-800.229473419497
30
0
11
2390.07621135332
21
-930.133283987163
31
0
0
LINE
8
layer0
10
2335.43519520194
20
-937.453792062852
30
0
11
2370.07621135332
21
-947.453792062852
31
0
0
LINE
8
layer0
10
2370.07621135332
20
-947.453792062852
30
0
11
2370.07621135332
21
-817.549981495186
31
0
0
LINE
8
layer0
10
2370.07621135332
20
-817.549981495186
30
0
11
2335.43519520194
21
-807.549981495186
31
0
0
LINE
8
layer0
10
2335.43519520194
20
-807.549981495186
30
0
11
2335.43519520194
21
-937.453792062852
31
0
0
LINE
8
layer0
10
2355.43519520194
20
-920.133283987163
30
0
11
2335.43519520194
21
-937.453792062852
31
0
0
LINE
8
layer0
10
2335.43519520194
20
-937.453792062852
30
0
11
2335.43519520194
21
-807.549981495186
31
0
0
LINE
8
layer0
10
2335.43519520194
20
-807.549981495186
30
0
11
2355.43519520194
21
-790.229473419497
31
0
0
LINE
8
layer0
10
2355.43519520194
20
-790.229473419497
30
0
11
2355.43519520194
21
-920.133283987163
31
0
0
LINE
8
layer0
10
2370.07621135332
20
-947.453792062852
30
0
11
2390.07621135332
21
-930.133283987163
31
0
0
LINE
8
layer0
10
2390.07621135332
20
-930.133283987163
30
0
11
2390.07621135332
21
-800.229473419497
31
0
0
LINE
8
layer0
10
2390.07621135332
20
-800.229473419497
30
0
11
2370.07621135332
21
-817.549981495186
31
0
0
LINE
8
layer0
10
2370.07621135332
20
-817.549981495186
30
0
11
2370.07621135332
21
-947.453792062852
31
0
0
LINE
8
layer0
10
2390.07621135332
20
-800.229473419497
30
0
11
2355.43519520194
21
-790.229473419497
31
0
0
LINE
8
layer0
10
2355.43519520194
20
-790.229473419497
30
0
11
2335.43519520194
21
-807.549981495186
31
0
0
LINE
8
layer0
10
2335.43519520194
20
-807.549981495186
30
0
11
2370.07621135332
21
-817.549981495186
31
0
0
LINE
8
layer0
10
2370.07621135332
20
-817.549981495186
30
0
11
2390.07621135332
21
-800.229473419497
31
0
0
LINE
8
layer0
10
2355.43519520194
20
-920.133283987163
30
0
11
2390.07621135332
21
-930.133283987163
31
0
0
LINE
8
layer0
10
2390.07621135332
20
-930.133283987163
30
0
11
2370.07621135332
21
-947.453792062852
31
0
0
LINE
8
layer0
10
2370.07621135332
20
-947.453792062852
30
0
11
2335.43519520194
21
-937.453792062852
31
0
0
LINE
8
layer0
10
2335.43519520194
20
-937.453792062852
30
0
11
2355.43519520194
21
-920.133283987163
31
0
0
ENDBLK
0
BLOCK
8
layer0
70
0
10
0
20
0
30
0
2
PF_SKETCH48
0
LINE
8
layer0
10
2074.59557260521
20
-25.4791138014479
30
0
11
2027.42890593854
21
-66.3266453466139
31
0
0
ENDBLK
0
BLOCK
8
layer0
70
0
10
0
20
0
30
0
2
PF_SKETCH49
0
LINE
8
layer0
10
2594.21081487587
20
-175.479113801448
30
0
11
2547.0441482092
21
-216.326645346614
31
0
0
ENDBLK
0
BLOCK
8
layer0
70
0
10
0
20
0
30
0
2
PF_SKETCH50
0
LINE
8
layer0
10
1980.26223927187
20
-107.17417689178
30
0
11
1933.09557260521
21
-148.021708436946
31
0
0
ENDBLK
0
BLOCK
8
layer0
70
0
10
0
20
0
30
0
2
PF_SKETCH51
0
LINE
8
layer0
10
2499.87748154254
20
-257.17417689178
30
0
11
2452.71081487587
21
-298.021708436946
31
0
0
ENDBLK
0
BLOCK
8
layer0
70
0
10
0
20
0
30
0
2
PF_SKETCH52
0
LINE
8
layer0
10
1885.92890593854
20
-188.869239982112
30
0
11
1838.76223927187
21
-229.716771527278
31
0
0
ENDBLK
0
BLOCK
8
layer0
70
0
10
0
20
0
30
0
2
PF_SKETCH53
0
LINE
8
layer0
10
2405.5441482092
20
-338.869239982112
30
0
11
2358.37748154254
21
-379.716771527278
31
0
0
ENDBLK
0
BLOCK
8
layer0
2
PF_OBJECT54
70
0
10
0
20
0
30
0
0
LINE
8
layer0
10
316.772918920436
20
-261.762794416288
30
0
11
316.772918920436
21
-391.666604983954
31
0
0
LINE
8
layer0
10
316.772918920436
20
-391.666604983954
30
0
11
576.772918920436
21
-166.5
31
0
0
LINE
8
layer0
10
576.772918920436
20
-166.5
30
0
11
576.772918920436
21
-36.5961894323342
31
0
0
LINE
8
layer0
10
576.772918920436
20
-36.5961894323342
30
0
11
316.772918920436
21
-261.762794416288
31
0
0
LINE
8
layer0
10
562.925172713923
20
-162.5025
30
0
11
576.772918920436
21
-166.5
31
0
0
LINE
8
layer0
10
576.772918920436
20
-166.5
30
0
11
316.772918920436
21
-391.666604983954
31
0
0
LINE
8
layer0
10
316.772918920436
20
-391.666604983954
30
0
11
302.925172713923
21
-387.669104983954
31
0
0
LINE
8
layer0
10
302.925172713923
20
-387.669104983954
30
0
11
562.925172713923
21
-162.5025
31
0
0
LINE
8
layer0
10
562.925172713923
20
-32.5986894323342
30
0
11
576.772918920436
21
-36.5961894323342
31
0
0
LINE
8
layer0
10
576.772918920436
20
-36.5961894323342
30
0
11
576.772918920436
21
-166.5
31
0
0
LINE
8
layer0
10
576.772918920436
20
-166.5
30
0
11
562.925172713923
21
-162.5025
31
0
0
LINE
8
layer0
10
562.925172713923
20
-162.5025
30
0
11
562.925172713923
21
-32.5986894323342
31
0
0
LINE
8
layer0
10
316.772918920436
20
-261.762794416288
30
0
11
302.925172713923
21
-257.765294416288
31
0
0
LINE
8
layer0
10
302.925172713923
20
-257.765294416288
30
0
11
302.925172713923
21
-387.669104983954
31
0
0
LINE
8
layer0
10
302.925172713923
20
-387.669104983954
30
0
11
316.772918920436
21
-391.666604983954
31
0
0
LINE
8
layer0
10
316.772918920436
20
-391.666604983954
30
0
11
316.772918920436
21
-261.762794416288
31
0
0
LINE
8
layer0
10
302.925172713923
20
-257.765294416288
30
0
11
316.772918920436
21
-261.762794416288
31
0
0
LINE
8
layer0
10
316.772918920436
20
-261.762794416288
30
0
11
576.772918920436
21
-36.5961894323342
31
0
0
LINE
8
layer0
10
576.772918920436
20
-36.5961894323342
30
0
11
562.925172713923
21
-32.5986894323342
31
0
0
LINE
8
layer0
10
562.925172713923
20
-32.5986894323342
30
0
11
302.925172713923
21
-257.765294416288
31
0
0
LINE
8
layer0
10
562.925172713923
20
-32.5986894323342
30
0
11
562.925172713923
21
-162.5025
31
0
0
LINE
8
layer0
10
562.925172713923
20
-162.5025
30
0
11
302.925172713923
21
-387.669104983954
31
0
0
LINE
8
layer0
10
302.925172713923
20
-387.669104983954
30
0
11
302.925172713923
21
-257.765294416288
31
0
0
LINE
8
layer0
10
302.925172713923
20
-257.765294416288
30
0
11
562.925172713923
21
-32.5986894323342
31
0
0
ENDBLK
0
BLOCK
8
layer0
2
PF_OBJECT55
70
0
10
0
20
0
30
0
0
LINE
8
layer0
10
2381.37748154254
20
-857.762794416288
30
0
11
2381.37748154254
21
-987.666604983954
31
0
0
LINE
8
layer0
10
2381.37748154254
20
-987.666604983954
30
0
11
302.916512459885
21
-387.666604983954
31
0
0
LINE
8
layer0
10
302.916512459885
20
-387.666604983954
30
0
11
302.916512459885
21
-257.762794416288
31
0
0
LINE
8
layer0
10
302.916512459885
20
-257.762794416288
30
0
11
2381.37748154254
21
-857.762794416288
31
0
0
LINE
8
layer0
10
294.921512459885
20
-394.590478087211
30
0
11
302.916512459885
21
-387.666604983954
31
0
0
LINE
8
layer0
10
302.916512459885
20
-387.666604983954
30
0
11
2381.37748154254
21
-987.666604983954
31
0
0
LINE
8
layer0
10
2381.37748154254
20
-987.666604983954
30
0
11
2373.38248154254
21
-994.590478087211
31
0
0
LINE
8
layer0
10
2373.38248154254
20
-994.590478087211
30
0
11
294.921512459885
21
-394.590478087211
31
0
0
LINE
8
layer0
10
294.921512459885
20
-264.686667519545
30
0
11
302.916512459885
21
-257.762794416288
31
0
0
LINE
8
layer0
10
302.916512459885
20
-257.762794416288
30
0
11
302.916512459885
21
-387.666604983954
31
0
0
LINE
8
layer0
10
302.916512459885
20
-387.666604983954
30
0
11
294.921512459885
21
-394.590478087211
31
0
0
LINE
8
layer0
10
294.921512459885
20
-394.590478087211
30
0
11
294.921512459885
21
-264.686667519545
31
0
0
LINE
8
layer0
10
2381.37748154254
20
-857.762794416288
30
0
11
2373.38248154254
21
-864.686667519545
31
0
0
LINE
8
layer0
10
2373.38248154254
20
-864.686667519545
30
0
11
2373.38248154254
21
-994.590478087211
31
0
0
LINE
8
layer0
10
2373.38248154254
20
-994.590478087211
30
0
11
2381.37748154254
21
-987.666604983954
31
0
0
LINE
8
layer0
10
2381.37748154254
20
-987.666604983954
30
0
11
2381.37748154254
21
-857.762794416288
31
0
0
LINE
8
layer0
10
2373.38248154254
20
-864.686667519545
30
0
11
2381.37748154254
21
-857.762794416288
31
0
0
LINE
8
layer0
10
2381.37748154254
20
-857.762794416288
30
0
11
302.916512459885
21
-257.762794416288
31
0
0
LINE
8
layer0
10
302.916512459885
20
-257.762794416288
30
0
11
294.921512459885
21
-264.686667519545
31
0
0
LINE
8
layer0
10
294.921512459885
20
-264.686667519545
30
0
11
2373.38248154254
21
-864.686667519545
31
0
0
LINE
8
layer0
10
294.921512459885
20
-264.686667519545
30
0
11
294.921512459885
21
-394.590478087211
31
0
0
LINE
8
layer0
10
294.921512459885
20
-394.590478087211
30
0
11
2373.38248154254
21
-994.59047808721
31
0
0
LINE
8
layer0
10
2373.38248154254
20
-994.59047808721
30
0
11
2373.38248154254
21
-864.686667519545
31
0
0
LINE
8
layer0
10
2373.38248154254
20
-864.686667519545
30
0
11
294.921512459885
21
-264.686667519545
31
0
0
ENDBLK
0
BLOCK
8
layer0
2
PF_OBJECT56
70
0
10
0
20
0
30
0
0
LINE
8
layer0
10
2627.52107508199
20
-628.596189432334
30
0
11
2627.52107508199
21
-758.5
31
0
0
LINE
8
layer0
10
2627.52107508199
20
-758.5
30
0
11
2367.52107508199
21
-983.666604983954
31
0
0
LINE
8
layer0
10
2367.52107508199
20
-983.666604983954
30
0
11
2367.52107508199
21
-853.762794416288
31
0
0
LINE
8
layer0
10
2367.52107508199
20
-853.762794416288
30
0
11
2627.52107508199
21
-628.596189432334
31
0
0
LINE
8
layer0
10
2381.3688212885
20
-987.664104983954
30
0
11
2367.52107508199
21
-983.666604983954
31
0
0
LINE
8
layer0
10
2367.52107508199
20
-983.666604983954
30
0
11
2627.52107508199
21
-758.5
31
0
0
LINE
8
layer0
10
2627.52107508199
20
-758.5
30
0
11
2641.3688212885
21
-762.4975
31
0
0
LINE
8
layer0
10
2641.3688212885
20
-762.4975
30
0
11
2381.3688212885
21
-987.664104983954
31
0
0
LINE
8
layer0
10
2381.3688212885
20
-857.760294416288
30
0
11
2367.52107508199
21
-853.762794416288
31
0
0
LINE
8
layer0
10
2367.52107508199
20
-853.762794416288
30
0
11
2367.52107508199
21
-983.666604983954
31
0
0
LINE
8
layer0
10
2367.52107508199
20
-983.666604983954
30
0
11
2381.3688212885
21
-987.664104983954
31
0
0
LINE
8
layer0
10
2381.3688212885
20
-987.664104983954
30
0
11
2381.3688212885
21
-857.760294416288
31
0
0
LINE
8
layer0
10
2627.52107508199
20
-628.596189432334
30
0
11
2641.3688212885
21
-632.593689432334
31
0
0
LINE
8
layer0
10
2641.3688212885
20
-632.593689432334
30
0
11
2641.3688212885
21
-762.4975
31
0
0
LINE
8
layer0
10
2641.3688212885
20
-762.4975
30
0
11
2627.52107508199
21
-758.5
31
0
0
LINE
8
layer0
10
2627.52107508199
20
-758.5
30
0
11
2627.52107508199
21
-628.596189432334
31
0
0
LINE
8
layer0
10
2641.3688212885
20
-632.593689432334
30
0
11
2627.52107508199
21
-628.596189432334
31
0
0
LINE
8
layer0
10
2627.52107508199
20
-628.596189432334
30
0
11
2367.52107508199
21
-853.762794416288
31
0
0
LINE
8
layer0
10
2367.52107508199
20
-853.762794416288
30
0
11
2381.3688212885
21
-857.760294416288
31
0
0
LINE
8
layer0
10
2381.3688212885
20
-857.760294416288
30
0
11
2641.3688212885
21
-632.593689432334
31
0
0
LINE
8
layer0
10
2381.3688212885
20
-857.760294416288
30
0
11
2381.3688212885
21
-987.664104983954
31
0
0
LINE
8
layer0
10
2381.3688212885
20
-987.664104983954
30
0
11
2641.3688212885
21
-762.4975
31
0
0
LINE
8
layer0
10
2641.3688212885
20
-762.4975
30
0
11
2641.3688212885
21
-632.593689432334
31
0
0
LINE
8
layer0
10
2641.3688212885
20
-632.593689432334
30
0
11
2381.3688212885
21
-857.760294416288
31
0
0
ENDBLK
0
BLOCK
8
layer0
2
PF_OBJECT57
70
0
10
0
20
0
30
0
0
LINE
8
layer0
10
2645.70760856146
20
-135.881582256282
30
0
11
1578.0288456024
21
172.330728344948
31
0
0
LINE
8
layer0
10
1578.0288456024
20
172.330728344948
30
0
11
1578.0288456024
21
196.579439650912
31
0
0
LINE
8
layer0
10
1578.0288456024
20
196.579439650912
30
0
11
2645.70760856146
21
-111.632870950318
31
0
0
LINE
8
layer0
10
2645.70760856146
20
-111.632870950318
30
0
11
2645.70760856146
21
-135.881582256282
31
0
0
LINE
8
layer0
10
1504.85188597124
20
217.703808321676
30
0
11
1504.85188597124
21
193.455097015712
31
0
0
LINE
8
layer0
10
1504.85188597124
20
193.455097015712
30
0
11
554.256258422041
21
467.868417743718
31
0
0
LINE
8
layer0
10
554.256258422041
20
467.868417743718
30
0
11
554.256258422041
21
492.117129049682
31
0
0
LINE
8
layer0
10
554.256258422041
20
492.117129049682
30
0
11
1504.85188597124
21
217.703808321676
31
0
0
LINE
8
layer0
10
1574.78234383252
20
197.516623986294
30
0
11
1574.78234383252
21
173.26791268033
31
0
0
LINE
8
layer0
10
1574.78234383252
20
173.26791268033
30
0
11
1504.85188597124
21
193.455097015712
31
0
0
LINE
8
layer0
10
1504.85188597124
20
193.455097015712
30
0
11
1504.85188597124
21
217.703808321676
31
0
0
LINE
8
layer0
10
1504.85188597124
20
217.703808321676
30
0
11
1574.78234383252
21
197.516623986294
31
0
0
LINE
8
layer0
10
1578.0288456024
20
196.579439650912
30
0
11
1578.0288456024
21
172.330728344948
31
0
0
LINE
8
layer0
10
1578.0288456024
20
172.330728344948
30
0
11
1574.78234383252
21
173.26791268033
31
0
0
LINE
8
layer0
10
1574.78234383252
20
173.26791268033
30
0
11
1574.78234383252
21
197.516623986294
31
0
0
LINE
8
layer0
10
1574.78234383252
20
197.516623986294
30
0
11
1578.0288456024
21
196.579439650912
31
0
0
LINE
8
layer0
10
254.256258422041
20
208.060796608386
30
0
11
2345.70760856146
21
-395.689203391613
31
0
0
LINE
8
layer0
10
2345.70760856146
20
-395.689203391613
30
0
11
2345.70760856146
21
-371.440492085649
31
0
0
LINE
8
layer0
10
2345.70760856146
20
-371.440492085649
30
0
11
254.256258422041
21
232.309507914351
31
0
0
LINE
8
layer0
10
254.256258422041
20
232.309507914351
30
0
11
254.256258422041
21
208.060796608386
31
0
0
LINE
8
layer0
10
554.256258422041
20
467.868417743718
30
0
11
516.756258422041
21
435.392465101802
31
0
0
LINE
8
layer0
10
516.756258422041
20
435.392465101802
30
0
11
516.756258422041
21
459.641176407766
31
0
0
LINE
8
layer0
10
516.756258422041
20
459.641176407766
30
0
11
554.256258422041
21
492.117129049682
31
0
0
LINE
8
layer0
10
554.256258422041
20
492.117129049682
30
0
11
554.256258422041
21
467.868417743718
31
0
0
LINE
8
layer0
10
294.256258422041
20
266.950524065728
30
0
11
294.256258422041
21
242.701812759764
31
0
0
LINE
8
layer0
10
294.256258422041
20
242.701812759764
30
0
11
254.256258422041
21
208.060796608386
31
0
0
LINE
8
layer0
10
254.256258422041
20
208.060796608386
30
0
11
254.256258422041
21
232.309507914351
31
0
0
LINE
8
layer0
10
254.256258422041
20
232.309507914351
30
0
11
294.256258422041
21
266.950524065728
31
0
0
LINE
8
layer0
10
516.756258422041
20
459.641176407766
30
0
11
516.756258422041
21
435.392465101802
31
0
0
LINE
8
layer0
10
516.756258422041
20
435.392465101802
30
0
11
294.256258422041
21
242.701812759764
31
0
0
LINE
8
layer0
10
294.256258422041
20
242.701812759764
30
0
11
294.256258422041
21
266.950524065728
31
0
0
LINE
8
layer0
10
294.256258422041
20
266.950524065728
30
0
11
516.756258422041
21
459.641176407766
31
0
0
LINE
8
layer0
10
2608.20760856146
20
-144.108823592234
30
0
11
2608.20760856146
21
-168.357534898198
31
0
0
LINE
8
layer0
10
2608.20760856146
20
-168.357534898198
30
0
11
2645.70760856146
21
-135.881582256282
31
0
0
LINE
8
layer0
10
2645.70760856146
20
-135.881582256282
30
0
11
2645.70760856146
21
-111.632870950318
31
0
0
LINE
8
layer0
10
2645.70760856146
20
-111.632870950318
30
0
11
2608.20760856146
21
-144.108823592234
31
0
0
LINE
8
layer0
10
2345.70760856146
20
-395.689203391613
30
0
11
2385.70760856146
21
-361.048187240236
31
0
0
LINE
8
layer0
10
2385.70760856146
20
-361.048187240236
30
0
11
2385.70760856146
21
-336.799475934272
31
0
0
LINE
8
layer0
10
2385.70760856146
20
-336.799475934272
30
0
11
2345.70760856146
21
-371.440492085649
31
0
0
LINE
8
layer0
10
2345.70760856146
20
-371.440492085649
30
0
11
2345.70760856146
21
-395.689203391613
31
0
0
LINE
8
layer0
10
2385.70760856146
20
-336.799475934272
30
0
11
2385.70760856146
21
-361.048187240236
31
0
0
LINE
8
layer0
10
2385.70760856146
20
-361.048187240236
30
0
11
2608.20760856146
21
-168.357534898198
31
0
0
LINE
8
layer0
10
2608.20760856146
20
-168.357534898198
30
0
11
2608.20760856146
21
-144.108823592234
31
0
0
LINE
8
layer0
10
2608.20760856146
20
-144.108823592234
30
0
11
2385.70760856146
21
-336.799475934272
31
0
0
LINE
8
layer0
10
1697.33661624061
20
94.5882714085353
30
0
11
1578.0288456024
21
172.330728344948
31
0
0
LINE
8
layer0
10
1578.0288456024
20
172.330728344948
30
0
11
2645.70760856146
21
-135.881582256282
31
0
0
LINE
8
layer0
10
2645.70760856146
20
-135.881582256282
30
0
11
2608.20760856146
21
-168.357534898198
31
0
0
LINE
8
layer0
10
2608.20760856146
20
-168.357534898198
30
0
11
1697.33661624061
21
94.5882714085353
31
0
0
LINE
8
layer0
10
1594.49719303551
20
124.275455743918
30
0
11
1602.88563545181
21
156.133728735383
31
0
0
LINE
8
layer0
10
1602.88563545181
20
156.133728735383
30
0
11
1697.33661624061
21
94.5882714085353
31
0
0
LINE
8
layer0
10
1697.33661624061
20
94.5882714085353
30
0
11
1594.49719303551
21
124.275455743918
31
0
0
LINE
8
layer0
10
1560.77756308044
20
134.009474459686
30
0
11
1601.13737805798
21
149.494062090736
31
0
0
LINE
8
layer0
10
1601.13737805798
20
149.494062090736
30
0
11
1594.49719303551
21
124.275455743918
31
0
0
LINE
8
layer0
10
1594.49719303551
20
124.275455743918
30
0
11
1560.77756308044
21
134.009474459686
31
0
0
LINE
8
layer0
10
1500.80421037406
20
151.322290124303
30
0
11
1590.51126678104
21
145.417211110707
31
0
0
LINE
8
layer0
10
1590.51126678104
20
145.417211110707
30
0
11
1560.77756308044
21
134.009474459686
31
0
0
LINE
8
layer0
10
1560.77756308044
20
134.009474459686
30
0
11
1500.80421037406
21
151.322290124303
31
0
0
LINE
8
layer0
10
554.256258422041
20
467.868417743718
30
0
11
1504.85188597124
21
193.455097015712
31
0
0
LINE
8
layer0
10
1504.85188597124
20
193.455097015712
30
0
11
1577.23193349175
21
146.291339807622
31
0
0
LINE
8
layer0
10
1577.23193349175
20
146.291339807622
30
0
11
1500.80421037406
21
151.322290124303
31
0
0
LINE
8
layer0
10
1500.80421037406
20
151.322290124303
30
0
11
516.756258422041
21
435.392465101802
31
0
0
LINE
8
layer0
10
516.756258422041
20
435.392465101802
30
0
11
554.256258422041
21
467.868417743718
31
0
0
LINE
8
layer0
10
1574.78234383252
20
173.26791268033
30
0
11
1569.07823153169
21
151.604395446089
31
0
0
LINE
8
layer0
10
1569.07823153169
20
151.604395446089
30
0
11
1504.85188597124
21
193.455097015712
31
0
0
LINE
8
layer0
10
1504.85188597124
20
193.455097015712
30
0
11
1574.78234383252
21
173.26791268033
31
0
0
LINE
8
layer0
10
1588.96639554402
20
165.203682044631
30
0
11
1570.82648892552
21
158.244062090736
31
0
0
LINE
8
layer0
10
1570.82648892552
20
158.244062090736
30
0
11
1574.78234383252
21
173.26791268033
31
0
0
LINE
8
layer0
10
1574.78234383252
20
173.26791268033
30
0
11
1578.0288456024
21
172.330728344948
31
0
0
LINE
8
layer0
10
1578.0288456024
20
172.330728344948
30
0
11
1588.96639554402
21
165.203682044631
31
0
0
LINE
8
layer0
10
1594.73193349175
20
161.44678437385
30
0
11
1581.45260020246
21
162.320913070765
31
0
0
LINE
8
layer0
10
1581.45260020246
20
162.320913070765
30
0
11
1588.96639554402
21
165.203682044631
31
0
0
LINE
8
layer0
10
1588.96639554402
20
165.203682044631
30
0
11
1594.73193349175
21
161.44678437385
31
0
0
LINE
8
layer0
10
294.256258422041
20
242.701812759764
30
0
11
2385.70760856146
21
-361.048187240236
31
0
0
LINE
8
layer0
10
2385.70760856146
20
-361.048187240236
30
0
11
2345.70760856146
21
-395.689203391613
31
0
0
LINE
8
layer0
10
2345.70760856146
20
-395.689203391613
30
0
11
254.256258422041
21
208.060796608386
31
0
0
LINE
8
layer0
10
254.256258422041
20
208.060796608386
30
0
11
294.256258422041
21
242.701812759764
31
0
0
LINE
8
layer0
10
516.756258422041
20
435.392465101802
30
0
11
1392.74095435
21
182.517465101802
31
0
0
LINE
8
layer0
10
1392.74095435
20
182.517465101802
30
0
11
1170.24095435
21
-10.173187240236
31
0
0
LINE
8
layer0
10
1170.24095435
20
-10.173187240236
30
0
11
294.256258422041
21
242.701812759764
31
0
0
LINE
8
layer0
10
294.256258422041
20
242.701812759764
30
0
11
516.756258422041
21
435.392465101802
31
0
0
LINE
8
layer0
10
1510.58893803729
20
-108.423187240236
30
0
11
1733.08893803729
21
84.2674651018017
31
0
0
LINE
8
layer0
10
1733.08893803729
20
84.2674651018017
30
0
11
2608.20760856146
21
-168.357534898198
31
0
0
LINE
8
layer0
10
2608.20760856146
20
-168.357534898198
30
0
11
2385.70760856146
21
-361.048187240236
31
0
0
LINE
8
layer0
10
2385.70760856146
20
-361.048187240236
30
0
11
1510.58893803729
21
-108.423187240236
31
0
0
LINE
8
layer0
10
1594.73193349175
20
161.44678437385
30
0
11
1602.88563545181
21
156.133728735383
31
0
0
LINE
8
layer0
10
1602.88563545181
20
156.133728735383
30
0
11
1602.88563545181
21
180.382440041347
31
0
0
LINE
8
layer0
10
1602.88563545181
20
180.382440041347
30
0
11
1594.73193349175
21
185.695495679814
31
0
0
LINE
8
layer0
10
1594.73193349175
20
185.695495679814
30
0
11
1594.73193349175
21
161.44678437385
31
0
0
LINE
8
layer0
10
1602.88563545181
20
156.133728735383
30
0
11
1601.13737805798
21
149.494062090736
31
0
0
LINE
8
layer0
10
1601.13737805798
20
149.494062090736
30
0
11
1601.13737805798
21
173.7427733967
31
0
0
LINE
8
layer0
10
1601.13737805798
20
173.7427733967
30
0
11
1602.88563545181
21
180.382440041347
31
0
0
LINE
8
layer0
10
1602.88563545181
20
180.382440041347
30
0
11
1602.88563545181
21
156.133728735383
31
0
0
LINE
8
layer0
10
1601.13737805798
20
149.494062090736
30
0
11
1590.51126678104
21
145.417211110707
31
0
0
LINE
8
layer0
10
1590.51126678104
20
145.417211110707
30
0
11
1590.51126678104
21
169.665922416671
31
0
0
LINE
8
layer0
10
1590.51126678104
20
169.665922416671
30
0
11
1601.13737805798
21
173.7427733967
31
0
0
LINE
8
layer0
10
1601.13737805798
20
173.7427733967
30
0
11
1601.13737805798
21
149.494062090736
31
0
0
LINE
8
layer0
10
1590.51126678104
20
145.417211110707
30
0
11
1577.23193349175
21
146.291339807622
31
0
0
LINE
8
layer0
10
1577.23193349175
20
146.291339807622
30
0
11
1577.23193349175
21
170.540051113586
31
0
0
LINE
8
layer0
10
1577.23193349175
20
170.540051113586
30
0
11
1590.51126678104
21
169.665922416671
31
0
0
LINE
8
layer0
10
1590.51126678104
20
169.665922416671
30
0
11
1590.51126678104
21
145.417211110707
31
0
0
LINE
8
layer0
10
1581.45260020246
20
162.320913070765
30
0
11
1594.73193349175
21
161.44678437385
31
0
0
LINE
8
layer0
10
1594.73193349175
20
161.44678437385
30
0
11
1594.73193349175
21
185.695495679814
31
0
0
LINE
8
layer0
10
1594.73193349175
20
185.695495679814
30
0
11
1581.45260020246
21
186.56962437673
31
0
0
LINE
8
layer0
10
1581.45260020246
20
186.56962437673
30
0
11
1581.45260020246
21
162.320913070765
31
0
0
LINE
8
layer0
10
1570.82648892552
20
158.244062090736
30
0
11
1581.45260020246
21
162.320913070765
31
0
0
LINE
8
layer0
10
1581.45260020246
20
162.320913070765
30
0
11
1581.45260020246
21
186.56962437673
31
0
0
LINE
8
layer0
10
1581.45260020246
20
186.56962437673
30
0
11
1570.82648892552
21
182.4927733967
31
0
0
LINE
8
layer0
10
1570.82648892552
20
182.4927733967
30
0
11
1570.82648892552
21
158.244062090736
31
0
0
LINE
8
layer0
10
1569.07823153169
20
151.604395446089
30
0
11
1570.82648892552
21
158.244062090736
31
0
0
LINE
8
layer0
10
1570.82648892552
20
158.244062090736
30
0
11
1570.82648892552
21
182.4927733967
31
0
0
LINE
8
layer0
10
1570.82648892552
20
182.4927733967
30
0
11
1569.07823153169
21
175.853106752053
31
0
0
LINE
8
layer0
10
1569.07823153169
20
175.853106752053
30
0
11
1569.07823153169
21
151.604395446089
31
0
0
LINE
8
layer0
10
1577.23193349175
20
146.291339807622
30
0
11
1569.07823153169
21
151.604395446089
31
0
0
LINE
8
layer0
10
1569.07823153169
20
151.604395446089
30
0
11
1569.07823153169
21
175.853106752053
31
0
0
LINE
8
layer0
10
1569.07823153169
20
175.853106752053
30
0
11
1577.23193349175
21
170.540051113586
31
0
0
LINE
8
layer0
10
1577.23193349175
20
170.540051113586
30
0
11
1577.23193349175
21
146.291339807622
31
0
0
LINE
8
layer0
10
1697.3366162406
20
118.8369827145
30
0
11
1697.3366162406
21
94.5882714085354
31
0
0
LINE
8
layer0
10
1697.3366162406
20
94.5882714085354
30
0
11
1733.08893803729
21
84.2674651018017
31
0
0
LINE
8
layer0
10
1733.08893803729
20
84.2674651018017
30
0
11
1733.08893803729
21
108.516176407766
31
0
0
LINE
8
layer0
10
1733.08893803729
20
108.516176407766
30
0
11
1697.3366162406
21
118.8369827145
31
0
0
LINE
8
layer0
10
1594.49719303551
20
148.524167049882
30
0
11
1594.49719303551
21
124.275455743918
31
0
0
LINE
8
layer0
10
1594.49719303551
20
124.275455743918
30
0
11
1697.3366162406
21
94.5882714085354
31
0
0
LINE
8
layer0
10
1697.3366162406
20
94.5882714085354
30
0
11
1697.3366162406
21
118.8369827145
31
0
0
LINE
8
layer0
10
1697.3366162406
20
118.8369827145
30
0
11
1594.49719303551
21
148.524167049882
31
0
0
LINE
8
layer0
10
1560.77756308044
20
158.25818576565
30
0
11
1560.77756308044
21
134.009474459686
31
0
0
LINE
8
layer0
10
1560.77756308044
20
134.009474459686
30
0
11
1594.49719303551
21
124.275455743918
31
0
0
LINE
8
layer0
10
1594.49719303551
20
124.275455743918
30
0
11
1594.49719303551
21
148.524167049882
31
0
0
LINE
8
layer0
10
1594.49719303551
20
148.524167049882
30
0
11
1560.77756308044
21
158.25818576565
31
0
0
LINE
8
layer0
10
1500.80421037406
20
175.571001430268
30
0
11
1500.80421037406
21
151.322290124303
31
0
0
LINE
8
layer0
10
1500.80421037406
20
151.322290124303
30
0
11
1560.77756308044
21
134.009474459686
31
0
0
LINE
8
layer0
10
1560.77756308044
20
134.009474459686
30
0
11
1560.77756308044
21
158.25818576565
31
0
0
LINE
8
layer0
10
1560.77756308044
20
158.25818576565
30
0
11
1500.80421037406
21
175.571001430268
31
0
0
LINE
8
layer0
10
1392.74095435
20
182.517465101802
30
0
11
1500.80421037406
21
151.322290124303
31
0
0
LINE
8
layer0
10
1500.80421037406
20
151.322290124303
30
0
11
1500.80421037406
21
175.571001430268
31
0
0
LINE
8
layer0
10
1500.80421037406
20
175.571001430268
30
0
11
1392.74095435
21
206.766176407766
31
0
0
LINE
8
layer0
10
1392.74095435
20
206.766176407766
30
0
11
1392.74095435
21
182.517465101802
31
0
0
LINE
8
layer0
10
1510.58893803729
20
-108.423187240236
30
0
11
1170.24095435
21
-10.173187240236
31
0
0
LINE
8
layer0
10
1170.24095435
20
-10.173187240236
30
0
11
1170.24095435
21
14.0755240657283
31
0
0
LINE
8
layer0
10
1170.24095435
20
14.0755240657283
30
0
11
1510.58893803729
21
-84.1744759342716
31
0
0
LINE
8
layer0
10
1510.58893803729
20
-84.1744759342716
30
0
11
1510.58893803729
21
-108.423187240236
31
0
0
LINE
8
layer0
10
1733.08893803729
20
84.2674651018017
30
0
11
1510.58893803729
21
-108.423187240236
31
0
0
LINE
8
layer0
10
1510.58893803729
20
-108.423187240236
30
0
11
1510.58893803729
21
-84.1744759342716
31
0
0
LINE
8
layer0
10
1510.58893803729
20
-84.1744759342716
30
0
11
1733.08893803729
21
108.516176407766
31
0
0
LINE
8
layer0
10
1733.08893803729
20
108.516176407766
30
0
11
1733.08893803729
21
84.2674651018017
31
0
0
LINE
8
layer0
10
1170.24095435
20
-10.173187240236
30
0
11
1392.74095435
21
182.517465101802
31
0
0
LINE
8
layer0
10
1392.74095435
20
182.517465101802
30
0
11
1392.74095435
21
206.766176407766
31
0
0
LINE
8
layer0
10
1392.74095435
20
206.766176407766
30
0
11
1170.24095435
21
14.0755240657283
31
0
0
LINE
8
layer0
10
1170.24095435
20
14.0755240657283
30
0
11
1170.24095435
21
-10.173187240236
31
0
0
LINE
8
layer0
10
2645.70760856146
20
-111.632870950318
30
0
11
1578.0288456024
21
196.579439650912
31
0
0
LINE
8
layer0
10
1578.0288456024
20
196.579439650912
30
0
11
1697.3366162406
21
118.8369827145
31
0
0
LINE
8
layer0
10
1697.3366162406
20
118.8369827145
30
0
11
2608.20760856146
21
-144.108823592234
31
0
0
LINE
8
layer0
10
2608.20760856146
20
-144.108823592234
30
0
11
2645.70760856146
21
-111.632870950318
31
0
0
LINE
8
layer0
10
1697.3366162406
20
118.8369827145
30
0
11
1602.88563545181
21
180.382440041347
31
0
0
LINE
8
layer0
10
1602.88563545181
20
180.382440041347
30
0
11
1594.49719303551
21
148.524167049882
31
0
0
LINE
8
layer0
10
1594.49719303551
20
148.524167049882
30
0
11
1697.3366162406
21
118.8369827145
31
0
0
LINE
8
layer0
10
1594.49719303551
20
148.524167049882
30
0
11
1601.13737805798
21
173.7427733967
31
0
0
LINE
8
layer0
10
1601.13737805798
20
173.7427733967
30
0
11
1560.77756308044
21
158.25818576565
31
0
0
LINE
8
layer0
10
1560.77756308044
20
158.25818576565
30
0
11
1594.49719303551
21
148.524167049882
31
0
0
LINE
8
layer0
10
1560.77756308044
20
158.25818576565
30
0
11
1590.51126678104
21
169.665922416671
31
0
0
LINE
8
layer0
10
1590.51126678104
20
169.665922416671
30
0
11
1500.80421037406
21
175.571001430268
31
0
0
LINE
8
layer0
10
1500.80421037406
20
175.571001430268
30
0
11
1560.77756308044
21
158.25818576565
31
0
0
LINE
8
layer0
10
1500.80421037406
20
175.571001430268
30
0
11
1577.23193349175
21
170.540051113586
31
0
0
LINE
8
layer0
10
1577.23193349175
20
170.540051113586
30
0
11
1504.85188597124
21
217.703808321676
31
0
0
LINE
8
layer0
10
1504.85188597124
20
217.703808321676
30
0
11
554.256258422041
21
492.117129049682
31
0
0
LINE
8
layer0
10
554.256258422041
20
492.117129049682
30
0
11
516.756258422041
21
459.641176407766
31
0
0
LINE
8
layer0
10
516.756258422041
20
459.641176407766
30
0
11
1500.80421037406
21
175.571001430268
31
0
0
LINE
8
layer0
10
1504.85188597124
20
217.703808321676
30
0
11
1569.07823153169
21
175.853106752053
31
0
0
LINE
8
layer0
10
1569.07823153169
20
175.853106752053
30
0
11
1574.78234383252
21
197.516623986294
31
0
0
LINE
8
layer0
10
1574.78234383252
20
197.516623986294
30
0
11
1504.85188597124
21
217.703808321676
31
0
0
LINE
8
layer0
10
1574.78234383252
20
197.516623986294
30
0
11
1570.82648892552
21
182.4927733967
31
0
0
LINE
8
layer0
10
1570.82648892552
20
182.4927733967
30
0
11
1588.96639554402
21
189.452393350595
31
0
0
LINE
8
layer0
10
1588.96639554402
20
189.452393350595
30
0
11
1578.0288456024
21
196.579439650912
31
0
0
LINE
8
layer0
10
1578.0288456024
20
196.579439650912
30
0
11
1574.78234383252
21
197.516623986294
31
0
0
LINE
8
layer0
10
1588.96639554402
20
189.452393350595
30
0
11
1581.45260020246
21
186.56962437673
31
0
0
LINE
8
layer0
10
1581.45260020246
20
186.56962437673
30
0
11
1594.73193349175
21
185.695495679814
31
0
0
LINE
8
layer0
10
1594.73193349175
20
185.695495679814
30
0
11
1588.96639554402
21
189.452393350595
31
0
0
LINE
8
layer0
10
2385.70760856146
20
-336.799475934272
30
0
11
294.256258422041
21
266.950524065728
31
0
0
LINE
8
layer0
10
294.256258422041
20
266.950524065728
30
0
11
254.256258422041
21
232.309507914351
31
0
0
LINE
8
layer0
10
254.256258422041
20
232.309507914351
30
0
11
2345.70760856146
21
-371.440492085649
31
0
0
LINE
8
layer0
10
2345.70760856146
20
-371.440492085649
30
0
11
2385.70760856146
21
-336.799475934272
31
0
0
LINE
8
layer0
10
1170.24095435
20
14.0755240657283
30
0
11
1392.74095435
21
206.766176407766
31
0
0
LINE
8
layer0
10
1392.74095435
20
206.766176407766
30
0
11
516.756258422041
21
459.641176407766
31
0
0
LINE
8
layer0
10
516.756258422041
20
459.641176407766
30
0
11
294.256258422041
21
266.950524065728
31
0
0
LINE
8
layer0
10
294.256258422041
20
266.950524065728
30
0
11
1170.24095435
21
14.0755240657283
31
0
0
LINE
8
layer0
10
2608.20760856146
20
-144.108823592234
30
0
11
1733.08893803729
21
108.516176407766
31
0
0
LINE
8
layer0
10
1733.08893803729
20
108.516176407766
30
0
11
1510.58893803729
21
-84.1744759342716
31
0
0
LINE
8
layer0
10
1510.58893803729
20
-84.1744759342716
30
0
11
2385.70760856146
21
-336.799475934272
31
0
0
LINE
8
layer0
10
2385.70760856146
20
-336.799475934272
30
0
11
2608.20760856146
21
-144.108823592234
31
0
0
ENDBLK
0
BLOCK
8
layer0
2
PF_OBJECT58
70
0
10
0
20
0
30
0
0
LINE
8
layer0
10
1418.28870376164
20
199.391176407766
30
0
11
1706.67516322186
21
116.141176407766
31
0
0
LINE
8
layer0
10
1706.67516322186
20
116.141176407766
30
0
11
1713.96950798618
21
113.187754446382
31
0
0
LINE
8
layer0
10
1713.96950798618
20
113.187754446382
30
0
11
1719.08152695114
21
109.251844997136
31
0
0
LINE
8
layer0
10
1719.08152695114
20
109.251844997136
30
0
11
1721.51082008291
21
104.718722300014
31
0
0
LINE
8
layer0
10
1721.51082008291
20
104.718722300014
30
0
11
1721.01959124387
21
100.032119988733
31
0
0
LINE
8
layer0
10
1721.01959124387
20
100.032119988733
30
0
11
1717.65592533539
21
95.6507953509994
31
0
0
LINE
8
layer0
10
1717.65592533539
20
95.6507953509994
30
0
11
1717.65592533539
21
95.6507953509994
31
0
0
LINE
8
layer0
10
1717.65592533539
20
95.6507953509994
30
0
11
1377.30794164811
21
193.900795350999
31
0
0
LINE
8
layer0
10
1377.30794164811
20
193.900795350999
30
0
11
1383.21478557088
21
197.54796773316
31
0
0
LINE
8
layer0
10
1383.21478557088
20
197.54796773316
30
0
11
1391.08660446937
21
200.103977215638
31
0
0
LINE
8
layer0
10
1391.08660446937
20
200.103977215638
30
0
11
1400.15284986361
21
201.318623781523
31
0
0
LINE
8
layer0
10
1400.15284986361
20
201.318623781523
30
0
11
1409.52605448617
21
201.073009362006
31
0
0
LINE
8
layer0
10
1409.52605448617
20
201.073009362006
30
0
11
1418.28870376164
21
199.391176407766
31
0
0
LINE
8
layer0
10
1377.30794164811
20
193.900795350999
30
0
11
1429.26946587517
21
178.900795350999
31
0
0
LINE
8
layer0
10
1429.26946587517
20
178.900795350999
30
0
11
1372.55640843837
21
189.785846884442
31
0
0
LINE
8
layer0
10
1372.55640843837
20
189.785846884442
30
0
11
1377.30794164811
21
193.900795350999
31
0
0
LINE
8
layer0
10
1377.30794164811
20
193.900795350999
30
0
11
1377.30794164811
21
193.900795350999
31
0
0
LINE
8
layer0
10
1372.55640843837
20
189.785846884442
30
0
11
1420.50681659971
21
180.58262830524
31
0
0
LINE
8
layer0
10
1420.50681659971
20
180.58262830524
30
0
11
1363.64980625211
21
182.072503129735
31
0
0
LINE
8
layer0
10
1363.64980625211
20
182.072503129735
30
0
11
1372.55640843837
21
189.785846884442
31
0
0
LINE
8
layer0
10
1363.64980625211
20
182.072503129735
30
0
11
1411.13361197714
21
180.828242724757
31
0
0
LINE
8
layer0
10
1411.13361197714
20
180.828242724757
30
0
11
1353.25997534812
21
173.074645625857
31
0
0
LINE
8
layer0
10
1353.25997534812
20
173.074645625857
30
0
11
1363.64980625211
21
182.072503129735
31
0
0
LINE
8
layer0
10
1353.25997534812
20
173.074645625857
30
0
11
1402.0673665829
21
179.613596158872
31
0
0
LINE
8
layer0
10
1402.0673665829
20
179.613596158872
30
0
11
1336.06318405173
21
158.181787499603
31
0
0
LINE
8
layer0
10
1336.06318405173
20
158.181787499603
30
0
11
1353.25997534812
21
173.074645625857
31
0
0
LINE
8
layer0
10
1336.06318405173
20
158.181787499603
30
0
11
1394.19554768441
21
177.057586676394
31
0
0
LINE
8
layer0
10
1394.19554768441
20
177.057586676394
30
0
11
1267.60166892798
21
98.8923762208668
31
0
0
LINE
8
layer0
10
1267.60166892798
20
98.8923762208668
30
0
11
1336.06318405173
21
158.181787499603
31
0
0
LINE
8
layer0
10
1267.60166892798
20
98.8923762208668
30
0
11
1388.28870376164
21
173.410414294233
31
0
0
LINE
8
layer0
10
1388.28870376164
20
173.410414294233
30
0
11
1195.78870376164
21
6.70052406572836
31
0
0
LINE
8
layer0
10
1195.78870376164
20
6.70052406572836
30
0
11
1188.49435899732
21
9.65394602711206
31
0
0
LINE
8
layer0
10
1188.49435899732
20
9.65394602711206
30
0
11
1183.38234003236
21
13.5898554763579
31
0
0
LINE
8
layer0
10
1183.38234003236
20
13.5898554763579
30
0
11
1180.95304690059
21
18.1229781734801
31
0
0
LINE
8
layer0
10
1180.95304690059
20
18.1229781734801
30
0
11
1181.44427573963
21
22.8095804847613
31
0
0
LINE
8
layer0
10
1181.44427573963
20
22.8095804847613
30
0
11
1184.80794164811
21
27.1909051224949
31
0
0
LINE
8
layer0
10
1184.80794164811
20
27.1909051224949
30
0
11
1267.60166892798
21
98.8923762208668
31
0
0
LINE
8
layer0
10
1195.78870376164
20
6.70052406572836
30
0
11
1225.78870376164
21
32.6812861792615
31
0
0
LINE
8
layer0
10
1225.78870376164
20
32.6812861792615
30
0
11
1204.01860069476
21
4.32475746086033
31
0
0
LINE
8
layer0
10
1204.01860069476
20
4.32475746086033
30
0
11
1195.78870376164
21
6.70052406572836
31
0
0
LINE
8
layer0
10
1195.78870376164
20
6.70052406572836
30
0
11
1195.78870376164
21
6.70052406572836
31
0
0
LINE
8
layer0
10
1204.01860069476
20
4.32475746086033
30
0
11
1222.42503785316
21
28.2999615415279
31
0
0
LINE
8
layer0
10
1222.42503785316
20
28.2999615415279
30
0
11
1219.44528820417
21
-0.128543632272113
31
0
0
LINE
8
layer0
10
1219.44528820417
20
-0.128543632272113
30
0
11
1204.01860069476
21
4.32475746086033
31
0
0
LINE
8
layer0
10
1219.44528820417
20
-0.128543632272113
30
0
11
1221.93380901413
21
23.6133592302467
31
0
0
LINE
8
layer0
10
1221.93380901413
20
23.6133592302467
30
0
11
1237.44100321193
21
-5.32345908426583
31
0
0
LINE
8
layer0
10
1237.44100321193
20
-5.32345908426583
30
0
11
1219.44528820417
21
-0.128543632272113
31
0
0
LINE
8
layer0
10
1237.44100321193
20
-5.32345908426583
30
0
11
1224.3631021459
21
19.0802365331247
31
0
0
LINE
8
layer0
10
1224.3631021459
20
19.0802365331247
30
0
11
1267.22671946443
21
-13.9218547324616
31
0
0
LINE
8
layer0
10
1267.22671946443
20
-13.9218547324616
30
0
11
1237.44100321193
21
-5.32345908426583
31
0
0
LINE
8
layer0
10
1267.22671946443
20
-13.9218547324616
30
0
11
1229.47512111085
21
15.1443270838786
31
0
0
LINE
8
layer0
10
1229.47512111085
20
15.1443270838786
30
0
11
1385.80554202191
21
-48.1526122943365
31
0
0
LINE
8
layer0
10
1385.80554202191
20
-48.1526122943365
30
0
11
1267.22671946443
21
-13.9218547324616
31
0
0
LINE
8
layer0
10
1385.80554202191
20
-48.1526122943365
30
0
11
1236.76946587517
21
12.1909051224949
31
0
0
LINE
8
layer0
10
1236.76946587517
20
12.1909051224949
30
0
11
1525.15592533539
21
-71.059094877505
31
0
0
LINE
8
layer0
10
1525.15592533539
20
-71.059094877505
30
0
11
1519.24908141263
21
-74.706267259666
31
0
0
LINE
8
layer0
10
1519.24908141263
20
-74.706267259666
30
0
11
1511.37726251413
21
-77.2622767421441
31
0
0
LINE
8
layer0
10
1511.37726251413
20
-77.2622767421441
30
0
11
1502.31101711989
21
-78.4769233080292
31
0
0
LINE
8
layer0
10
1502.31101711989
20
-78.4769233080292
30
0
11
1492.93781249733
21
-78.2313088885122
31
0
0
LINE
8
layer0
10
1492.93781249733
20
-78.2313088885122
30
0
11
1484.17516322186
21
-76.5494759342716
31
0
0
LINE
8
layer0
10
1484.17516322186
20
-76.5494759342716
30
0
11
1385.80554202191
21
-48.1526122943365
31
0
0
LINE
8
layer0
10
1525.15592533539
20
-71.059094877505
30
0
11
1473.19440110833
21
-56.059094877505
31
0
0
LINE
8
layer0
10
1473.19440110833
20
-56.059094877505
30
0
11
1529.90745854513
21
-66.9441464109485
31
0
0
LINE
8
layer0
10
1529.90745854513
20
-66.9441464109485
30
0
11
1525.15592533539
21
-71.059094877505
31
0
0
LINE
8
layer0
10
1525.15592533539
20
-71.059094877505
30
0
11
1525.15592533539
21
-71.059094877505
31
0
0
LINE
8
layer0
10
1529.90745854513
20
-66.9441464109485
30
0
11
1481.95705038379
21
-57.7409278317456
31
0
0
LINE
8
layer0
10
1481.95705038379
20
-57.7409278317456
30
0
11
1538.81406073139
21
-59.2308026562411
31
0
0
LINE
8
layer0
10
1538.81406073139
20
-59.2308026562411
30
0
11
1529.90745854513
21
-66.9441464109485
31
0
0
LINE
8
layer0
10
1538.81406073139
20
-59.2308026562411
30
0
11
1491.33025500636
21
-57.9865422512627
31
0
0
LINE
8
layer0
10
1491.33025500636
20
-57.9865422512627
30
0
11
1549.20389163538
21
-50.2329451523626
31
0
0
LINE
8
layer0
10
1549.20389163538
20
-50.2329451523626
30
0
11
1538.81406073139
21
-59.2308026562411
31
0
0
LINE
8
layer0
10
1549.20389163538
20
-50.2329451523626
30
0
11
1500.3965004006
21
-56.7718956853776
31
0
0
LINE
8
layer0
10
1500.3965004006
20
-56.7718956853776
30
0
11
1566.40068293177
21
-35.3400870261086
31
0
0
LINE
8
layer0
10
1566.40068293177
20
-35.3400870261086
30
0
11
1549.20389163538
21
-50.2329451523626
31
0
0
LINE
8
layer0
10
1566.40068293177
20
-35.3400870261086
30
0
11
1508.26831929909
21
-54.2158862028994
31
0
0
LINE
8
layer0
10
1508.26831929909
20
-54.2158862028994
30
0
11
1634.86219805552
21
23.9493242526277
31
0
0
LINE
8
layer0
10
1634.86219805552
20
23.9493242526277
30
0
11
1566.40068293177
21
-35.3400870261086
31
0
0
LINE
8
layer0
10
1634.86219805552
20
23.9493242526277
30
0
11
1514.17516322186
21
-50.5687138207384
31
0
0
LINE
8
layer0
10
1514.17516322186
20
-50.5687138207384
30
0
11
1691.67516322186
21
103.150795350999
31
0
0
LINE
8
layer0
10
1691.67516322186
20
103.150795350999
30
0
11
1717.65592533539
21
95.6507953509994
31
0
0
LINE
8
layer0
10
1717.65592533539
20
95.6507953509994
30
0
11
1634.86219805552
21
23.9493242526277
31
0
0
LINE
8
layer0
10
1691.67516322186
20
103.150795350999
30
0
11
1676.67516322186
21
90.1604142942327
31
0
0
LINE
8
layer0
10
1676.67516322186
20
90.1604142942327
30
0
11
1687.5602147553
21
104.338678653433
31
0
0
LINE
8
layer0
10
1687.5602147553
20
104.338678653433
30
0
11
1691.67516322186
21
103.150795350999
31
0
0
LINE
8
layer0
10
1687.5602147553
20
104.338678653433
30
0
11
1680.03882913034
21
94.5417389319664
31
0
0
LINE
8
layer0
10
1680.03882913034
20
94.5417389319664
30
0
11
1681.25643827344
21
106.158422177792
31
0
0
LINE
8
layer0
10
1681.25643827344
20
106.158422177792
30
0
11
1687.5602147553
21
104.338678653433
31
0
0
LINE
8
layer0
10
1681.25643827344
20
106.158422177792
30
0
11
1680.53005796937
21
99.2283412432475
31
0
0
LINE
8
layer0
10
1680.53005796937
20
99.2283412432475
30
0
11
1676.00362588511
21
107.674778500994
31
0
0
LINE
8
layer0
10
1676.00362588511
20
107.674778500994
30
0
11
1681.25643827344
21
106.158422177792
31
0
0
LINE
8
layer0
10
1676.00362588511
20
107.674778500994
30
0
11
1678.1007648376
21
103.76146394037
31
0
0
LINE
8
layer0
10
1678.1007648376
20
103.76146394037
30
0
11
1671.22726418412
21
109.053595357901
31
0
0
LINE
8
layer0
10
1671.22726418412
20
109.053595357901
30
0
11
1676.00362588511
21
107.674778500994
31
0
0
LINE
8
layer0
10
1671.22726418412
20
109.053595357901
30
0
11
1672.98874587265
21
107.697373389616
31
0
0
LINE
8
layer0
10
1672.98874587265
20
107.697373389616
30
0
11
1665.69440110833
21
110.650795350999
31
0
0
LINE
8
layer0
10
1665.69440110833
20
110.650795350999
30
0
11
1671.22726418412
21
109.053595357901
31
0
0
LINE
8
layer0
10
1706.67516322186
20
119.605278022904
30
0
11
1706.67516322186
21
116.141176407766
31
0
0
LINE
8
layer0
10
1706.67516322186
20
116.141176407766
30
0
11
1418.28870376164
21
199.391176407766
31
0
0
LINE
8
layer0
10
1418.28870376164
20
199.391176407766
30
0
11
1418.28870376164
21
202.855278022904
31
0
0
LINE
8
layer0
10
1418.28870376164
20
202.855278022904
30
0
11
1706.67516322186
21
119.605278022904
31
0
0
LINE
8
layer0
10
1418.28870376164
20
202.855278022904
30
0
11
1418.28870376164
21
199.391176407766
31
0
0
LINE
8
layer0
10
1418.28870376164
20
199.391176407766
30
0
11
1409.52605448617
21
201.073009362006
31
0
0
LINE
8
layer0
10
1409.52605448617
20
201.073009362006
30
0
11
1409.52605448617
21
204.537110977144
31
0
0
LINE
8
layer0
10
1409.52605448617
20
204.537110977144
30
0
11
1418.28870376164
21
202.855278022904
31
0
0
LINE
8
layer0
10
1409.52605448617
20
204.537110977144
30
0
11
1409.52605448617
21
201.073009362006
31
0
0
LINE
8
layer0
10
1409.52605448617
20
201.073009362006
30
0
11
1400.15284986361
21
201.318623781523
31
0
0
LINE
8
layer0
10
1400.15284986361
20
201.318623781523
30
0
11
1400.15284986361
21
204.782725396661
31
0
0
LINE
8
layer0
10
1400.15284986361
20
204.782725396661
30
0
11
1409.52605448617
21
204.537110977144
31
0
0
LINE
8
layer0
10
1400.15284986361
20
204.782725396661
30
0
11
1400.15284986361
21
201.318623781523
31
0
0
LINE
8
layer0
10
1400.15284986361
20
201.318623781523
30
0
11
1391.08660446937
21
200.103977215638
31
0
0
LINE
8
layer0
10
1391.08660446937
20
200.103977215638
30
0
11
1391.08660446937
21
203.568078830776
31
0
0
LINE
8
layer0
10
1391.08660446937
20
203.568078830776
30
0
11
1400.15284986361
21
204.782725396661
31
0
0
LINE
8
layer0
10
1391.08660446937
20
203.568078830776
30
0
11
1391.08660446937
21
200.103977215638
31
0
0
LINE
8
layer0
10
1391.08660446937
20
200.103977215638
30
0
11
1383.21478557088
21
197.54796773316
31
0
0
LINE
8
layer0
10
1383.21478557088
20
197.54796773316
30
0
11
1383.21478557088
21
201.012069348298
31
0
0
LINE
8
layer0
10
1383.21478557088
20
201.012069348298
30
0
11
1391.08660446937
21
203.568078830776
31
0
0
LINE
8
layer0
10
1383.21478557088
20
201.012069348298
30
0
11
1383.21478557088
21
197.54796773316
31
0
0
LINE
8
layer0
10
1383.21478557088
20
197.54796773316
30
0
11
1377.30794164811
21
193.900795350999
31
0
0
LINE
8
layer0
10
1377.30794164811
20
193.900795350999
30
0
11
1377.30794164811
21
197.364896966137
31
0
0
LINE
8
layer0
10
1377.30794164811
20
197.364896966137
30
0
11
1383.21478557088
21
201.012069348298
31
0
0
LINE
8
layer0
10
1377.30794164811
20
197.364896966137
30
0
11
1377.30794164811
21
193.900795350999
31
0
0
LINE
8
layer0
10
1377.30794164811
20
193.900795350999
30
0
11
1372.55640843837
21
189.785846884442
31
0
0
LINE
8
layer0
10
1372.55640843837
20
189.785846884442
30
0
11
1372.55640843837
21
193.24994849958
31
0
0
LINE
8
layer0
10
1372.55640843837
20
193.24994849958
30
0
11
1377.30794164811
21
197.364896966137
31
0
0
LINE
8
layer0
10
1372.55640843837
20
193.24994849958
30
0
11
1372.55640843837
21
189.785846884442
31
0
0
LINE
8
layer0
10
1372.55640843837
20
189.785846884442
30
0
11
1363.64980625211
21
182.072503129735
31
0
0
LINE
8
layer0
10
1363.64980625211
20
182.072503129735
30
0
11
1363.64980625211
21
185.536604744873
31
0
0
LINE
8
layer0
10
1363.64980625211
20
185.536604744873
30
0
11
1372.55640843837
21
193.24994849958
31
0
0
LINE
8
layer0
10
1363.64980625211
20
185.536604744873
30
0
11
1363.64980625211
21
182.072503129735
31
0
0
LINE
8
layer0
10
1363.64980625211
20
182.072503129735
30
0
11
1353.25997534812
21
173.074645625857
31
0
0
LINE
8
layer0
10
1353.25997534812
20
173.074645625857
30
0
11
1353.25997534812
21
176.538747240995
31
0
0
LINE
8
layer0
10
1353.25997534812
20
176.538747240995
30
0
11
1363.64980625211
21
185.536604744873
31
0
0
LINE
8
layer0
10
1353.25997534812
20
176.538747240995
30
0
11
1353.25997534812
21
173.074645625857
31
0
0
LINE
8
layer0
10
1353.25997534812
20
173.074645625857
30
0
11
1336.06318405173
21
158.181787499603
31
0
0
LINE
8
layer0
10
1336.06318405173
20
158.181787499603
30
0
11
1336.06318405173
21
161.645889114741
31
0
0
LINE
8
layer0
10
1336.06318405173
20
161.645889114741
30
0
11
1353.25997534812
21
176.538747240995
31
0
0
LINE
8
layer0
10
1336.06318405173
20
161.645889114741
30
0
11
1336.06318405173
21
158.181787499603
31
0
0
LINE
8
layer0
10
1336.06318405173
20
158.181787499603
30
0
11
1267.60166892798
21
98.8923762208668
31
0
0
LINE
8
layer0
10
1267.60166892798
20
98.8923762208668
30
0
11
1267.60166892798
21
102.356477836005
31
0
0
LINE
8
layer0
10
1267.60166892798
20
102.356477836005
30
0
11
1336.06318405173
21
161.645889114741
31
0
0
LINE
8
layer0
10
1267.60166892798
20
102.356477836005
30
0
11
1267.60166892798
21
98.8923762208668
31
0
0
LINE
8
layer0
10
1267.60166892798
20
98.8923762208668
30
0
11
1184.80794164811
21
27.1909051224949
31
0
0
LINE
8
layer0
10
1184.80794164811
20
27.1909051224949
30
0
11
1184.80794164811
21
30.6550067376327
31
0
0
LINE
8
layer0
10
1184.80794164811
20
30.6550067376327
30
0
11
1267.60166892798
21
102.356477836005
31
0
0
LINE
8
layer0
10
1184.80794164811
20
30.6550067376327
30
0
11
1184.80794164811
21
27.1909051224949
31
0
0
LINE
8
layer0
10
1184.80794164811
20
27.1909051224949
30
0
11
1181.44427573963
21
22.8095804847613
31
0
0
LINE
8
layer0
10
1181.44427573963
20
22.8095804847613
30
0
11
1181.44427573963
21
26.273682099899
31
0
0
LINE
8
layer0
10
1181.44427573963
20
26.273682099899
30
0
11
1184.80794164811
21
30.6550067376327
31
0
0
LINE
8
layer0
10
1181.44427573963
20
26.273682099899
30
0
11
1181.44427573963
21
22.8095804847613
31
0
0
LINE
8
layer0
10
1181.44427573963
20
22.8095804847613
30
0
11
1180.95304690059
21
18.1229781734801
31
0
0
LINE
8
layer0
10
1180.95304690059
20
18.1229781734801
30
0
11
1180.95304690059
21
21.5870797886179
31
0
0
LINE
8
layer0
10
1180.95304690059
20
21.5870797886179
30
0
11
1181.44427573963
21
26.273682099899
31
0
0
LINE
8
layer0
10
1180.95304690059
20
21.5870797886179
30
0
11
1180.95304690059
21
18.1229781734801
31
0
0
LINE
8
layer0
10
1180.95304690059
20
18.1229781734801
30
0
11
1183.38234003236
21
13.5898554763579
31
0
0
LINE
8
layer0
10
1183.38234003236
20
13.5898554763579
30
0
11
1183.38234003236
21
17.0539570914956
31
0
0
LINE
8
layer0
10
1183.38234003236
20
17.0539570914956
30
0
11
1180.95304690059
21
21.5870797886179
31
0
0
LINE
8
layer0
10
1183.38234003236
20
17.0539570914956
30
0
11
1183.38234003236
21
13.5898554763579
31
0
0
LINE
8
layer0
10
1183.38234003236
20
13.5898554763579
30
0
11
1188.49435899732
21
9.65394602711206
31
0
0
LINE
8
layer0
10
1188.49435899732
20
9.65394602711206
30
0
11
1188.49435899732
21
13.1180476422497
31
0
0
LINE
8
layer0
10
1188.49435899732
20
13.1180476422497
30
0
11
1183.38234003236
21
17.0539570914956
31
0
0
LINE
8
layer0
10
1188.49435899732
20
13.1180476422497
30
0
11
1188.49435899732
21
9.65394602711206
31
0
0
LINE
8
layer0
10
1188.49435899732
20
9.65394602711206
30
0
11
1195.78870376164
21
6.70052406572836
31
0
0
LINE
8
layer0
10
1195.78870376164
20
6.70052406572836
30
0
11
1195.78870376164
21
10.1646256808661
31
0
0
LINE
8
layer0
10
1195.78870376164
20
10.1646256808661
30
0
11
1188.49435899732
21
13.1180476422497
31
0
0
LINE
8
layer0
10
1195.78870376164
20
10.1646256808661
30
0
11
1195.78870376164
21
6.70052406572836
31
0
0
LINE
8
layer0
10
1195.78870376164
20
6.70052406572836
30
0
11
1204.01860069476
21
4.32475746086033
31
0
0
LINE
8
layer0
10
1204.01860069476
20
4.32475746086033
30
0
11
1204.01860069476
21
7.78885907599806
31
0
0
LINE
8
layer0
10
1204.01860069476
20
7.78885907599806
30
0
11
1195.78870376164
21
10.1646256808661
31
0
0
LINE
8
layer0
10
1204.01860069476
20
7.78885907599806
30
0
11
1204.01860069476
21
4.32475746086033
31
0
0
LINE
8
layer0
10
1204.01860069476
20
4.32475746086033
30
0
11
1219.44528820417
21
-0.128543632272113
31
0
0
LINE
8
layer0
10
1219.44528820417
20
-0.128543632272113
30
0
11
1219.44528820417
21
3.33555798286562
31
0
0
LINE
8
layer0
10
1219.44528820417
20
3.33555798286562
30
0
11
1204.01860069476
21
7.78885907599806
31
0
0
LINE
8
layer0
10
1219.44528820417
20
3.33555798286562
30
0
11
1219.44528820417
21
-0.128543632272113
31
0
0
LINE
8
layer0
10
1219.44528820417
20
-0.128543632272113
30
0
11
1237.44100321193
21
-5.32345908426583
31
0
0
LINE
8
layer0
10
1237.44100321193
20
-5.32345908426583
30
0
11
1237.44100321193
21
-1.8593574691281
31
0
0
LINE
8
layer0
10
1237.44100321193
20
-1.8593574691281
30
0
11
1219.44528820417
21
3.33555798286562
31
0
0
LINE
8
layer0
10
1237.44100321193
20
-1.8593574691281
30
0
11
1237.44100321193
21
-5.32345908426583
31
0
0
LINE
8
layer0
10
1237.44100321193
20
-5.32345908426583
30
0
11
1267.22671946443
21
-13.9218547324616
31
0
0
LINE
8
layer0
10
1267.22671946443
20
-13.9218547324616
30
0
11
1267.22671946443
21
-10.4577531173239
31
0
0
LINE
8
layer0
10
1267.22671946443
20
-10.4577531173239
30
0
11
1237.44100321193
21
-1.8593574691281
31
0
0
LINE
8
layer0
10
1267.22671946443
20
-10.4577531173239
30
0
11
1267.22671946443
21
-13.9218547324616
31
0
0
LINE
8
layer0
10
1267.22671946443
20
-13.9218547324616
30
0
11
1385.80554202191
21
-48.1526122943365
31
0
0
LINE
8
layer0
10
1385.80554202191
20
-48.1526122943365
30
0
11
1385.80554202191
21
-44.6885106791988
31
0
0
LINE
8
layer0
10
1385.80554202191
20
-44.6885106791988
30
0
11
1267.22671946443
21
-10.4577531173239
31
0
0
LINE
8
layer0
10
1385.80554202191
20
-44.6885106791988
30
0
11
1385.80554202191
21
-48.1526122943365
31
0
0
LINE
8
layer0
10
1385.80554202191
20
-48.1526122943365
30
0
11
1484.17516322186
21
-76.5494759342716
31
0
0
LINE
8
layer0
10
1484.17516322186
20
-76.5494759342716
30
0
11
1484.17516322186
21
-73.085374319134
31
0
0
LINE
8
layer0
10
1484.17516322186
20
-73.085374319134
30
0
11
1385.80554202191
21
-44.6885106791988
31
0
0
LINE
8
layer0
10
1484.17516322186
20
-73.085374319134
30
0
11
1484.17516322186
21
-76.5494759342716
31
0
0
LINE
8
layer0
10
1484.17516322186
20
-76.5494759342716
30
0
11
1492.93781249733
21
-78.2313088885122
31
0
0
LINE
8
layer0
10
1492.93781249733
20
-78.2313088885122
30
0
11
1492.93781249733
21
-74.7672072733744
31
0
0
LINE
8
layer0
10
1492.93781249733
20
-74.7672072733744
30
0
11
1484.17516322186
21
-73.085374319134
31
0
0
LINE
8
layer0
10
1492.93781249733
20
-74.7672072733744
30
0
11
1492.93781249733
21
-78.2313088885122
31
0
0
LINE
8
layer0
10
1492.93781249733
20
-78.2313088885122
30
0
11
1502.31101711989
21
-78.4769233080292
31
0
0
LINE
8
layer0
10
1502.31101711989
20
-78.4769233080292
30
0
11
1502.31101711989
21
-75.0128216928914
31
0
0
LINE
8
layer0
10
1502.31101711989
20
-75.0128216928914
30
0
11
1492.93781249733
21
-74.7672072733744
31
0
0
LINE
8
layer0
10
1502.31101711989
20
-75.0128216928914
30
0
11
1502.31101711989
21
-78.4769233080292
31
0
0
LINE
8
layer0
10
1502.31101711989
20
-78.4769233080292
30
0
11
1511.37726251413
21
-77.2622767421441
31
0
0
LINE
8
layer0
10
1511.37726251413
20
-77.2622767421441
30
0
11
1511.37726251413
21
-73.7981751270064
31
0
0
LINE
8
layer0
10
1511.37726251413
20
-73.7981751270064
30
0
11
1502.31101711989
21
-75.0128216928914
31
0
0
LINE
8
layer0
10
1511.37726251413
20
-73.7981751270064
30
0
11
1511.37726251413
21
-77.2622767421441
31
0
0
LINE
8
layer0
10
1511.37726251413
20
-77.2622767421441
30
0
11
1519.24908141263
21
-74.706267259666
31
0
0
LINE
8
layer0
10
1519.24908141263
20
-74.706267259666
30
0
11
1519.24908141263
21
-71.2421656445283
31
0
0
LINE
8
layer0
10
1519.24908141263
20
-71.2421656445283
30
0
11
1511.37726251413
21
-73.7981751270064
31
0
0
LINE
8
layer0
10
1519.24908141263
20
-71.2421656445283
30
0
11
1519.24908141263
21
-74.706267259666
31
0
0
LINE
8
layer0
10
1519.24908141263
20
-74.706267259666
30
0
11
1525.15592533539
21
-71.059094877505
31
0
0
LINE
8
layer0
10
1525.15592533539
20
-71.059094877505
30
0
11
1525.15592533539
21
-67.5949932623673
31
0
0
LINE
8
layer0
10
1525.15592533539
20
-67.5949932623673
30
0
11
1519.24908141263
21
-71.2421656445283
31
0
0
LINE
8
layer0
10
1525.15592533539
20
-67.5949932623673
30
0
11
1525.15592533539
21
-71.059094877505
31
0
0
LINE
8
layer0
10
1525.15592533539
20
-71.059094877505
30
0
11
1529.90745854513
21
-66.9441464109485
31
0
0
LINE
8
layer0
10
1529.90745854513
20
-66.9441464109485
30
0
11
1529.90745854513
21
-63.4800447958107
31
0
0
LINE
8
layer0
10
1529.90745854513
20
-63.4800447958107
30
0
11
1525.15592533539
21
-67.5949932623673
31
0
0
LINE
8
layer0
10
1529.90745854513
20
-63.4800447958107
30
0
11
1529.90745854513
21
-66.9441464109485
31
0
0
LINE
8
layer0
10
1529.90745854513
20
-66.9441464109485
30
0
11
1538.81406073139
21
-59.2308026562411
31
0
0
LINE
8
layer0
10
1538.81406073139
20
-59.2308026562411
30
0
11
1538.81406073139
21
-55.7667010411034
31
0
0
LINE
8
layer0
10
1538.81406073139
20
-55.7667010411034
30
0
11
1529.90745854513
21
-63.4800447958107
31
0
0
LINE
8
layer0
10
1538.81406073139
20
-55.7667010411034
30
0
11
1538.81406073139
21
-59.2308026562411
31
0
0
LINE
8
layer0
10
1538.81406073139
20
-59.2308026562411
30
0
11
1549.20389163538
21
-50.2329451523626
31
0
0
LINE
8
layer0
10
1549.20389163538
20
-50.2329451523626
30
0
11
1549.20389163538
21
-46.7688435372249
31
0
0
LINE
8
layer0
10
1549.20389163538
20
-46.7688435372249
30
0
11
1538.81406073139
21
-55.7667010411034
31
0
0
LINE
8
layer0
10
1549.20389163538
20
-46.7688435372249
30
0
11
1549.20389163538
21
-50.2329451523626
31
0
0
LINE
8
layer0
10
1549.20389163538
20
-50.2329451523626
30
0
11
1566.40068293177
21
-35.3400870261086
31
0
0
LINE
8
layer0
10
1566.40068293177
20
-35.3400870261086
30
0
11
1566.40068293177
21
-31.8759854109708
31
0
0
LINE
8
layer0
10
1566.40068293177
20
-31.8759854109708
30
0
11
1549.20389163538
21
-46.7688435372249
31
0
0
LINE
8
layer0
10
1566.40068293177
20
-31.8759854109708
30
0
11
1566.40068293177
21
-35.3400870261086
31
0
0
LINE
8
layer0
10
1566.40068293177
20
-35.3400870261086
30
0
11
1634.86219805552
21
23.9493242526277
31
0
0
LINE
8
layer0
10
1634.86219805552
20
23.9493242526277
30
0
11
1634.86219805552
21
27.4134258677655
31
0
0
LINE
8
layer0
10
1634.86219805552
20
27.4134258677655
30
0
11
1566.40068293177
21
-31.8759854109708
31
0
0
LINE
8
layer0
10
1634.86219805552
20
27.4134258677655
30
0
11
1634.86219805552
21
23.9493242526277
31
0
0
LINE
8
layer0
10
1634.86219805552
20
23.9493242526277
30
0
11
1717.65592533539
21
95.6507953509994
31
0
0
LINE
8
layer0
10
1717.65592533539
20
95.6507953509994
30
0
11
1717.65592533539
21
99.1148969661372
31
0
0
LINE
8
layer0
10
1717.65592533539
20
99.1148969661372
30
0
11
1634.86219805552
21
27.4134258677655
31
0
0
LINE
8
layer0
10
1717.65592533539
20
99.1148969661372
30
0
11
1717.65592533539
21
95.6507953509994
31
0
0
LINE
8
layer0
10
1717.65592533539
20
95.6507953509994
30
0
11
1721.01959124387
21
100.032119988733
31
0
0
LINE
8
layer0
10
1721.01959124387
20
100.032119988733
30
0
11
1721.01959124387
21
103.496221603871
31
0
0
LINE
8
layer0
10
1721.01959124387
20
103.496221603871
30
0
11
1717.65592533539
21
99.1148969661372
31
0
0
LINE
8
layer0
10
1721.01959124387
20
103.496221603871
30
0
11
1721.01959124387
21
100.032119988733
31
0
0
LINE
8
layer0
10
1721.01959124387
20
100.032119988733
30
0
11
1721.51082008291
21
104.718722300014
31
0
0
LINE
8
layer0
10
1721.51082008291
20
104.718722300014
30
0
11
1721.51082008291
21
108.182823915152
31
0
0
LINE
8
layer0
10
1721.51082008291
20
108.182823915152
30
0
11
1721.01959124387
21
103.496221603871
31
0
0
LINE
8
layer0
10
1721.51082008291
20
108.182823915152
30
0
11
1721.51082008291
21
104.718722300014
31
0
0
LINE
8
layer0
10
1721.51082008291
20
104.718722300014
30
0
11
1719.08152695114
21
109.251844997136
31
0
0
LINE
8
layer0
10
1719.08152695114
20
109.251844997136
30
0
11
1719.08152695114
21
112.715946612274
31
0
0
LINE
8
layer0
10
1719.08152695114
20
112.715946612274
30
0
11
1721.51082008291
21
108.182823915152
31
0
0
LINE
8
layer0
10
1719.08152695114
20
112.715946612274
30
0
11
1719.08152695114
21
109.251844997136
31
0
0
LINE
8
layer0
10
1719.08152695114
20
109.251844997136
30
0
11
1713.96950798618
21
113.187754446382
31
0
0
LINE
8
layer0
10
1713.96950798618
20
113.187754446382
30
0
11
1713.96950798618
21
116.65185606152
31
0
0
LINE
8
layer0
10
1713.96950798618
20
116.65185606152
30
0
11
1719.08152695114
21
112.715946612274
31
0
0
LINE
8
layer0
10
1713.96950798618
20
116.65185606152
30
0
11
1713.96950798618
21
113.187754446382
31
0
0
LINE
8
layer0
10
1713.96950798618
20
113.187754446382
30
0
11
1706.67516322186
21
116.141176407766
31
0
0
LINE
8
layer0
10
1706.67516322186
20
116.141176407766
30
0
11
1706.67516322186
21
119.605278022904
31
0
0
LINE
8
layer0
10
1706.67516322186
20
119.605278022904
30
0
11
1713.96950798618
21
116.65185606152
31
0
0
LINE
8
layer0
10
1665.69440110833
20
110.650795350999
30
0
11
1665.69440110833
21
114.114896966137
31
0
0
LINE
8
layer0
10
1665.69440110833
20
114.114896966137
30
0
11
1429.26946587517
21
182.364896966137
31
0
0
LINE
8
layer0
10
1429.26946587517
20
182.364896966137
30
0
11
1429.26946587517
21
178.900795350999
31
0
0
LINE
8
layer0
10
1429.26946587517
20
178.900795350999
30
0
11
1665.69440110833
21
110.650795350999
31
0
0
LINE
8
layer0
10
1429.26946587517
20
178.900795350999
30
0
11
1429.26946587517
21
182.364896966137
31
0
0
LINE
8
layer0
10
1429.26946587517
20
182.364896966137
30
0
11
1420.50681659971
21
184.046729920378
31
0
0
LINE
8
layer0
10
1420.50681659971
20
184.046729920378
30
0
11
1420.50681659971
21
180.58262830524
31
0
0
LINE
8
layer0
10
1420.50681659971
20
180.58262830524
30
0
11
1429.26946587517
21
178.900795350999
31
0
0
LINE
8
layer0
10
1420.50681659971
20
180.58262830524
30
0
11
1420.50681659971
21
184.046729920378
31
0
0
LINE
8
layer0
10
1420.50681659971
20
184.046729920378
30
0
11
1411.13361197714
21
184.292344339895
31
0
0
LINE
8
layer0
10
1411.13361197714
20
184.292344339895
30
0
11
1411.13361197714
21
180.828242724757
31
0
0
LINE
8
layer0
10
1411.13361197714
20
180.828242724757
30
0
11
1420.50681659971
21
180.58262830524
31
0
0
LINE
8
layer0
10
1411.13361197714
20
180.828242724757
30
0
11
1411.13361197714
21
184.292344339895
31
0
0
LINE
8
layer0
10
1411.13361197714
20
184.292344339895
30
0
11
1402.0673665829
21
183.077697774009
31
0
0
LINE
8
layer0
10
1402.0673665829
20
183.077697774009
30
0
11
1402.0673665829
21
179.613596158872
31
0
0
LINE
8
layer0
10
1402.0673665829
20
179.613596158872
30
0
11
1411.13361197714
21
180.828242724757
31
0
0
LINE
8
layer0
10
1402.0673665829
20
179.613596158872
30
0
11
1402.0673665829
21
183.077697774009
31
0
0
LINE
8
layer0
10
1402.0673665829
20
183.077697774009
30
0
11
1394.19554768441
21
180.521688291531
31
0
0
LINE
8
layer0
10
1394.19554768441
20
180.521688291531
30
0
11
1394.19554768441
21
177.057586676394
31
0
0
LINE
8
layer0
10
1394.19554768441
20
177.057586676394
30
0
11
1402.0673665829
21
179.613596158872
31
0
0
LINE
8
layer0
10
1394.19554768441
20
177.057586676394
30
0
11
1394.19554768441
21
180.521688291531
31
0
0
LINE
8
layer0
10
1394.19554768441
20
180.521688291531
30
0
11
1388.28870376164
21
176.874515909371
31
0
0
LINE
8
layer0
10
1388.28870376164
20
176.874515909371
30
0
11
1388.28870376164
21
173.410414294233
31
0
0
LINE
8
layer0
10
1388.28870376164
20
173.410414294233
30
0
11
1394.19554768441
21
177.057586676394
31
0
0
LINE
8
layer0
10
1388.28870376164
20
173.410414294233
30
0
11
1388.28870376164
21
176.874515909371
31
0
0
LINE
8
layer0
10
1388.28870376164
20
176.874515909371
30
0
11
1225.78870376164
21
36.1453877943993
31
0
0
LINE
8
layer0
10
1225.78870376164
20
36.1453877943993
30
0
11
1225.78870376164
21
32.6812861792615
31
0
0
LINE
8
layer0
10
1225.78870376164
20
32.6812861792615
30
0
11
1388.28870376164
21
173.410414294233
31
0
0
LINE
8
layer0
10
1225.78870376164
20
32.6812861792615
30
0
11
1225.78870376164
21
36.1453877943993
31
0
0
LINE
8
layer0
10
1225.78870376164
20
36.1453877943993
30
0
11
1222.42503785316
21
31.7640631566657
31
0
0
LINE
8
layer0
10
1222.42503785316
20
31.7640631566657
30
0
11
1222.42503785316
21
28.2999615415279
31
0
0
LINE
8
layer0
10
1222.42503785316
20
28.2999615415279
30
0
11
1225.78870376164
21
32.6812861792615
31
0
0
LINE
8
layer0
10
1222.42503785316
20
28.2999615415279
30
0
11
1222.42503785316
21
31.7640631566657
31
0
0
LINE
8
layer0
10
1222.42503785316
20
31.7640631566657
30
0
11
1221.93380901413
21
27.0774608453844
31
0
0
LINE
8
layer0
10
1221.93380901413
20
27.0774608453844
30
0
11
1221.93380901413
21
23.6133592302467
31
0
0
LINE
8
layer0
10
1221.93380901413
20
23.6133592302467
30
0
11
1222.42503785316
21
28.2999615415279
31
0
0
LINE
8
layer0
10
1221.93380901413
20
23.6133592302467
30
0
11
1221.93380901413
21
27.0774608453844
31
0
0
LINE
8
layer0
10
1221.93380901413
20
27.0774608453844
30
0
11
1224.3631021459
21
22.5443381482622
31
0
0
LINE
8
layer0
10
1224.3631021459
20
22.5443381482622
30
0
11
1224.3631021459
21
19.0802365331245
31
0
0
LINE
8
layer0
10
1224.3631021459
20
19.0802365331245
30
0
11
1221.93380901413
21
23.6133592302467
31
0
0
LINE
8
layer0
10
1224.3631021459
20
19.0802365331245
30
0
11
1224.3631021459
21
22.5443381482622
31
0
0
LINE
8
layer0
10
1224.3631021459
20
22.5443381482622
30
0
11
1229.47512111085
21
18.6084286990164
31
0
0
LINE
8
layer0
10
1229.47512111085
20
18.6084286990164
30
0
11
1229.47512111085
21
15.1443270838786
31
0
0
LINE
8
layer0
10
1229.47512111085
20
15.1443270838786
30
0
11
1224.3631021459
21
19.0802365331245
31
0
0
LINE
8
layer0
10
1229.47512111085
20
15.1443270838786
30
0
11
1229.47512111085
21
18.6084286990164
31
0
0
LINE
8
layer0
10
1229.47512111085
20
18.6084286990164
30
0
11
1236.76946587517
21
15.6550067376327
31
0
0
LINE
8
layer0
10
1236.76946587517
20
15.6550067376327
30
0
11
1236.76946587517
21
12.1909051224949
31
0
0
LINE
8
layer0
10
1236.76946587517
20
12.1909051224949
30
0
11
1229.47512111085
21
15.1443270838786
31
0
0
LINE
8
layer0
10
1236.76946587517
20
12.1909051224949
30
0
11
1236.76946587517
21
15.6550067376327
31
0
0
LINE
8
layer0
10
1236.76946587517
20
15.6550067376327
30
0
11
1473.19440110833
21
-52.5949932623673
31
0
0
LINE
8
layer0
10
1473.19440110833
20
-52.5949932623673
30
0
11
1473.19440110833
21
-56.059094877505
31
0
0
LINE
8
layer0
10
1473.19440110833
20
-56.059094877505
30
0
11
1236.76946587517
21
12.1909051224949
31
0
0
LINE
8
layer0
10
1473.19440110833
20
-56.059094877505
30
0
11
1473.19440110833
21
-52.5949932623673
31
0
0
LINE
8
layer0
10
1473.19440110833
20
-52.5949932623673
30
0
11
1481.95705038379
21
-54.2768262166078
31
0
0
LINE
8
layer0
10
1481.95705038379
20
-54.2768262166078
30
0
11
1481.95705038379
21
-57.7409278317456
31
0
0
LINE
8
layer0
10
1481.95705038379
20
-57.7409278317456
30
0
11
1473.19440110833
21
-56.059094877505
31
0
0
LINE
8
layer0
10
1481.95705038379
20
-57.7409278317456
30
0
11
1481.95705038379
21
-54.2768262166078
31
0
0
LINE
8
layer0
10
1481.95705038379
20
-54.2768262166078
30
0
11
1491.33025500636
21
-54.5224406361249
31
0
0
LINE
8
layer0
10
1491.33025500636
20
-54.5224406361249
30
0
11
1491.33025500636
21
-57.9865422512626
31
0
0
LINE
8
layer0
10
1491.33025500636
20
-57.9865422512626
30
0
11
1481.95705038379
21
-57.7409278317456
31
0
0
LINE
8
layer0
10
1491.33025500636
20
-57.9865422512626
30
0
11
1491.33025500636
21
-54.5224406361249
31
0
0
LINE
8
layer0
10
1491.33025500636
20
-54.5224406361249
30
0
11
1500.3965004006
21
-53.3077940702398
31
0
0
LINE
8
layer0
10
1500.3965004006
20
-53.3077940702398
30
0
11
1500.3965004006
21
-56.7718956853776
31
0
0
LINE
8
layer0
10
1500.3965004006
20
-56.7718956853776
30
0
11
1491.33025500636
21
-57.9865422512626
31
0
0
LINE
8
layer0
10
1500.3965004006
20
-56.7718956853776
30
0
11
1500.3965004006
21
-53.3077940702398
31
0
0
LINE
8
layer0
10
1500.3965004006
20
-53.3077940702398
30
0
11
1508.26831929909
21
-50.7517845877617
31
0
0
LINE
8
layer0
10
1508.26831929909
20
-50.7517845877617
30
0
11
1508.26831929909
21
-54.2158862028994
31
0
0
LINE
8
layer0
10
1508.26831929909
20
-54.2158862028994
30
0
11
1500.3965004006
21
-56.7718956853776
31
0
0
LINE
8
layer0
10
1508.26831929909
20
-54.2158862028994
30
0
11
1508.26831929909
21
-50.7517845877617
31
0
0
LINE
8
layer0
10
1508.26831929909
20
-50.7517845877617
30
0
11
1514.17516322186
21
-47.1046122056007
31
0
0
LINE
8
layer0
10
1514.17516322186
20
-47.1046122056007
30
0
11
1514.17516322186
21
-50.5687138207385
31
0
0
LINE
8
layer0
10
1514.17516322186
20
-50.5687138207385
30
0
11
1508.26831929909
21
-54.2158862028994
31
0
0
LINE
8
layer0
10
1514.17516322186
20
-50.5687138207385
30
0
11
1514.17516322186
21
-47.1046122056007
31
0
0
LINE
8
layer0
10
1514.17516322186
20
-47.1046122056007
30
0
11
1676.67516322186
21
93.6245159093705
31
0
0
LINE
8
layer0
10
1676.67516322186
20
93.6245159093705
30
0
11
1676.67516322186
21
90.1604142942327
31
0
0
LINE
8
layer0
10
1676.67516322186
20
90.1604142942327
30
0
11
1514.17516322186
21
-50.5687138207385
31
0
0
LINE
8
layer0
10
1676.67516322186
20
90.1604142942327
30
0
11
1676.67516322186
21
93.6245159093705
31
0
0
LINE
8
layer0
10
1676.67516322186
20
93.6245159093705
30
0
11
1680.03882913034
21
98.0058405471042
31
0
0
LINE
8
layer0
10
1680.03882913034
20
98.0058405471042
30
0
11
1680.03882913034
21
94.5417389319664
31
0
0
LINE
8
layer0
10
1680.03882913034
20
94.5417389319664
30
0
11
1676.67516322186
21
90.1604142942327
31
0
0
LINE
8
layer0
10
1680.03882913034
20
94.5417389319664
30
0
11
1680.03882913034
21
98.0058405471042
31
0
0
LINE
8
layer0
10
1680.03882913034
20
98.0058405471042
30
0
11
1680.53005796937
21
102.692442858385
31
0
0
LINE
8
layer0
10
1680.53005796937
20
102.692442858385
30
0
11
1680.53005796937
21
99.2283412432475
31
0
0
LINE
8
layer0
10
1680.53005796937
20
99.2283412432475
30
0
11
1680.03882913034
21
94.5417389319664
31
0
0
LINE
8
layer0
10
1680.53005796937
20
99.2283412432475
30
0
11
1680.53005796937
21
102.692442858385
31
0
0
LINE
8
layer0
10
1680.53005796937
20
102.692442858385
30
0
11
1678.1007648376
21
107.225565555508
31
0
0
LINE
8
layer0
10
1678.1007648376
20
107.225565555508
30
0
11
1678.1007648376
21
103.76146394037
31
0
0
LINE
8
layer0
10
1678.1007648376
20
103.76146394037
30
0
11
1680.53005796937
21
99.2283412432475
31
0
0
LINE
8
layer0
10
1678.1007648376
20
103.76146394037
30
0
11
1678.1007648376
21
107.225565555508
31
0
0
LINE
8
layer0
10
1678.1007648376
20
107.225565555508
30
0
11
1672.98874587265
21
111.161475004753
31
0
0
LINE
8
layer0
10
1672.98874587265
20
111.161475004753
30
0
11
1672.98874587265
21
107.697373389616
31
0
0
LINE
8
layer0
10
1672.98874587265
20
107.697373389616
30
0
11
1678.1007648376
21
103.76146394037
31
0
0
LINE
8
layer0
10
1672.98874587265
20
107.697373389616
30
0
11
1672.98874587265
21
111.161475004753
31
0
0
LINE
8
layer0
10
1672.98874587265
20
111.161475004753
30
0
11
1665.69440110833
21
114.114896966137
31
0
0
LINE
8
layer0
10
1665.69440110833
20
114.114896966137
30
0
11
1665.69440110833
21
110.650795350999
31
0
0
LINE
8
layer0
10
1665.69440110833
20
110.650795350999
30
0
11
1672.98874587265
21
107.697373389616
31
0
0
LINE
8
layer0
10
1706.67516322186
20
119.605278022904
30
0
11
1418.28870376164
21
202.855278022904
31
0
0
LINE
8
layer0
10
1418.28870376164
20
202.855278022904
30
0
11
1409.52605448617
21
204.537110977144
31
0
0
LINE
8
layer0
10
1409.52605448617
20
204.537110977144
30
0
11
1400.15284986361
21
204.782725396661
31
0
0
LINE
8
layer0
10
1400.15284986361
20
204.782725396661
30
0
11
1391.08660446937
21
203.568078830776
31
0
0
LINE
8
layer0
10
1391.08660446937
20
203.568078830776
30
0
11
1383.21478557088
21
201.012069348298
31
0
0
LINE
8
layer0
10
1383.21478557088
20
201.012069348298
30
0
11
1377.30794164811
21
197.364896966137
31
0
0
LINE
8
layer0
10
1377.30794164811
20
197.364896966137
30
0
11
1377.30794164811
21
197.364896966137
31
0
0
LINE
8
layer0
10
1377.30794164811
20
197.364896966137
30
0
11
1717.65592533539
21
99.1148969661372
31
0
0
LINE
8
layer0
10
1717.65592533539
20
99.1148969661372
30
0
11
1721.01959124387
21
103.496221603871
31
0
0
LINE
8
layer0
10
1721.01959124387
20
103.496221603871
30
0
11
1721.51082008291
21
108.182823915152
31
0
0
LINE
8
layer0
10
1721.51082008291
20
108.182823915152
30
0
11
1719.08152695114
21
112.715946612274
31
0
0
LINE
8
layer0
10
1719.08152695114
20
112.715946612274
30
0
11
1713.96950798618
21
116.65185606152
31
0
0
LINE
8
layer0
10
1713.96950798618
20
116.65185606152
30
0
11
1706.67516322186
21
119.605278022904
31
0
0
LINE
8
layer0
10
1372.55640843837
20
193.24994849958
30
0
11
1429.26946587517
21
182.364896966137
31
0
0
LINE
8
layer0
10
1429.26946587517
20
182.364896966137
30
0
11
1377.30794164811
21
197.364896966137
31
0
0
LINE
8
layer0
10
1377.30794164811
20
197.364896966137
30
0
11
1372.55640843837
21
193.24994849958
31
0
0
LINE
8
layer0
10
1363.64980625211
20
185.536604744873
30
0
11
1420.50681659971
21
184.046729920378
31
0
0
LINE
8
layer0
10
1420.50681659971
20
184.046729920378
30
0
11
1372.55640843837
21
193.24994849958
31
0
0
LINE
8
layer0
10
1372.55640843837
20
193.24994849958
30
0
11
1363.64980625211
21
185.536604744873
31
0
0
LINE
8
layer0
10
1353.25997534812
20
176.538747240995
30
0
11
1411.13361197714
21
184.292344339895
31
0
0
LINE
8
layer0
10
1411.13361197714
20
184.292344339895
30
0
11
1363.64980625211
21
185.536604744873
31
0
0
LINE
8
layer0
10
1363.64980625211
20
185.536604744873
30
0
11
1353.25997534812
21
176.538747240995
31
0
0
LINE
8
layer0
10
1336.06318405173
20
161.645889114741
30
0
11
1402.0673665829
21
183.077697774009
31
0
0
LINE
8
layer0
10
1402.0673665829
20
183.077697774009
30
0
11
1353.25997534812
21
176.538747240995
31
0
0
LINE
8
layer0
10
1353.25997534812
20
176.538747240995
30
0
11
1336.06318405173
21
161.645889114741
31
0
0
LINE
8
layer0
10
1267.60166892798
20
102.356477836005
30
0
11
1394.19554768441
21
180.521688291531
31
0
0
LINE
8
layer0
10
1394.19554768441
20
180.521688291531
30
0
11
1336.06318405173
21
161.645889114741
31
0
0
LINE
8
layer0
10
1336.06318405173
20
161.645889114741
30
0
11
1267.60166892798
21
102.356477836005
31
0
0
LINE
8
layer0
10
1195.78870376164
20
10.1646256808661
30
0
11
1388.28870376164
21
176.874515909371
31
0
0
LINE
8
layer0
10
1388.28870376164
20
176.874515909371
30
0
11
1267.60166892798
21
102.356477836005
31
0
0
LINE
8
layer0
10
1267.60166892798
20
102.356477836005
30
0
11
1184.80794164811
21
30.6550067376327
31
0
0
LINE
8
layer0
10
1184.80794164811
20
30.6550067376327
30
0
11
1181.44427573963
21
26.273682099899
31
0
0
LINE
8
layer0
10
1181.44427573963
20
26.273682099899
30
0
11
1180.95304690059
21
21.5870797886179
31
0
0
LINE
8
layer0
10
1180.95304690059
20
21.5870797886179
30
0
11
1183.38234003236
21
17.0539570914956
31
0
0
LINE
8
layer0
10
1183.38234003236
20
17.0539570914956
30
0
11
1188.49435899732
21
13.1180476422497
31
0
0
LINE
8
layer0
10
1188.49435899732
20
13.1180476422497
30
0
11
1195.78870376164
21
10.1646256808661
31
0
0
LINE
8
layer0
10
1195.78870376164
20
10.1646256808661
30
0
11
1195.78870376164
21
10.1646256808661
31
0
0
LINE
8
layer0
10
1204.01860069476
20
7.78885907599806
30
0
11
1225.78870376164
21
36.1453877943993
31
0
0
LINE
8
layer0
10
1225.78870376164
20
36.1453877943993
30
0
11
1195.78870376164
21
10.1646256808661
31
0
0
LINE
8
layer0
10
1195.78870376164
20
10.1646256808661
30
0
11
1204.01860069476
21
7.78885907599806
31
0
0
LINE
8
layer0
10
1219.44528820417
20
3.33555798286562
30
0
11
1222.42503785316
21
31.7640631566657
31
0
0
LINE
8
layer0
10
1222.42503785316
20
31.7640631566657
30
0
11
1204.01860069476
21
7.78885907599806
31
0
0
LINE
8
layer0
10
1204.01860069476
20
7.78885907599806
30
0
11
1219.44528820417
21
3.33555798286562
31
0
0
LINE
8
layer0
10
1237.44100321193
20
-1.8593574691281
30
0
11
1221.93380901413
21
27.0774608453845
31
0
0
LINE
8
layer0
10
1221.93380901413
20
27.0774608453845
30
0
11
1219.44528820417
21
3.33555798286562
31
0
0
LINE
8
layer0
10
1219.44528820417
20
3.33555798286562
30
0
11
1237.44100321193
21
-1.8593574691281
31
0
0
LINE
8
layer0
10
1267.22671946443
20
-10.4577531173239
30
0
11
1224.3631021459
21
22.5443381482623
31
0
0
LINE
8
layer0
10
1224.3631021459
20
22.5443381482623
30
0
11
1237.44100321193
21
-1.8593574691281
31
0
0
LINE
8
layer0
10
1237.44100321193
20
-1.8593574691281
30
0
11
1267.22671946443
21
-10.4577531173239
31
0
0
LINE
8
layer0
10
1385.80554202191
20
-44.6885106791988
30
0
11
1229.47512111085
21
18.6084286990164
31
0
0
LINE
8
layer0
10
1229.47512111085
20
18.6084286990164
30
0
11
1267.22671946443
21
-10.4577531173239
31
0
0
LINE
8
layer0
10
1267.22671946443
20
-10.4577531173239
30
0
11
1385.80554202191
21
-44.6885106791988
31
0
0
LINE
8
layer0
10
1525.15592533539
20
-67.5949932623673
30
0
11
1236.76946587517
21
15.6550067376327
31
0
0
LINE
8
layer0
10
1236.76946587517
20
15.6550067376327
30
0
11
1385.80554202191
21
-44.6885106791988
31
0
0
LINE
8
layer0
10
1385.80554202191
20
-44.6885106791988
30
0
11
1484.17516322186
21
-73.085374319134
31
0
0
LINE
8
layer0
10
1484.17516322186
20
-73.085374319134
30
0
11
1492.93781249733
21
-74.7672072733744
31
0
0
LINE
8
layer0
10
1492.93781249733
20
-74.7672072733744
30
0
11
1502.31101711989
21
-75.0128216928914
31
0
0
LINE
8
layer0
10
1502.31101711989
20
-75.0128216928914
30
0
11
1511.37726251413
21
-73.7981751270064
31
0
0
LINE
8
layer0
10
1511.37726251413
20
-73.7981751270064
30
0
11
1519.24908141263
21
-71.2421656445283
31
0
0
LINE
8
layer0
10
1519.24908141263
20
-71.2421656445283
30
0
11
1525.15592533539
21
-67.5949932623673
31
0
0
LINE
8
layer0
10
1525.15592533539
20
-67.5949932623673
30
0
11
1525.15592533539
21
-67.5949932623673
31
0
0
LINE
8
layer0
10
1529.90745854513
20
-63.4800447958107
30
0
11
1473.19440110833
21
-52.5949932623673
31
0
0
LINE
8
layer0
10
1473.19440110833
20
-52.5949932623673
30
0
11
1525.15592533539
21
-67.5949932623673
31
0
0
LINE
8
layer0
10
1525.15592533539
20
-67.5949932623673
30
0
11
1529.90745854513
21
-63.4800447958107
31
0
0
LINE
8
layer0
10
1538.81406073139
20
-55.7667010411034
30
0
11
1481.95705038379
21
-54.2768262166078
31
0
0
LINE
8
layer0
10
1481.95705038379
20
-54.2768262166078
30
0
11
1529.90745854513
21
-63.4800447958107
31
0
0
LINE
8
layer0
10
1529.90745854513
20
-63.4800447958107
30
0
11
1538.81406073139
21
-55.7667010411034
31
0
0
LINE
8
layer0
10
1549.20389163538
20
-46.7688435372249
30
0
11
1491.33025500636
21
-54.5224406361249
31
0
0
LINE
8
layer0
10
1491.33025500636
20
-54.5224406361249
30
0
11
1538.81406073139
21
-55.7667010411034
31
0
0
LINE
8
layer0
10
1538.81406073139
20
-55.7667010411034
30
0
11
1549.20389163538
21
-46.7688435372249
31
0
0
LINE
8
layer0
10
1566.40068293177
20
-31.8759854109708
30
0
11
1500.3965004006
21
-53.3077940702399
31
0
0
LINE
8
layer0
10
1500.3965004006
20
-53.3077940702399
30
0
11
1549.20389163538
21
-46.7688435372249
31
0
0
LINE
8
layer0
10
1549.20389163538
20
-46.7688435372249
30
0
11
1566.40068293177
21
-31.8759854109708
31
0
0
LINE
8
layer0
10
1634.86219805552
20
27.4134258677655
30
0
11
1508.26831929909
21
-50.7517845877617
31
0
0
LINE
8
layer0
10
1508.26831929909
20
-50.7517845877617
30
0
11
1566.40068293177
21
-31.8759854109708
31
0
0
LINE
8
layer0
10
1566.40068293177
20
-31.8759854109708
30
0
11
1634.86219805552
21
27.4134258677655
31
0
0
LINE
8
layer0
10
1717.65592533539
20
99.1148969661372
30
0
11
1691.67516322186
21
106.614896966137
31
0
0
LINE
8
layer0
10
1691.67516322186
20
106.614896966137
30
0
11
1514.17516322186
21
-47.1046122056006
31
0
0
LINE
8
layer0
10
1514.17516322186
20
-47.1046122056006
30
0
11
1634.86219805552
21
27.4134258677655
31
0
0
LINE
8
layer0
10
1634.86219805552
20
27.4134258677655
30
0
11
1717.65592533539
21
99.1148969661372
31
0
0
LINE
8
layer0
10
1717.65592533539
20
99.1148969661372
30
0
11
1717.65592533539
21
99.1148969661372
31
0
0
LINE
8
layer0
10
1687.5602147553
20
107.802780268571
30
0
11
1676.67516322186
21
93.6245159093705
31
0
0
LINE
8
layer0
10
1676.67516322186
20
93.6245159093705
30
0
11
1691.67516322186
21
106.614896966137
31
0
0
LINE
8
layer0
10
1691.67516322186
20
106.614896966137
30
0
11
1687.5602147553
21
107.802780268571
31
0
0
LINE
8
layer0
10
1681.25643827344
20
109.622523792929
30
0
11
1680.03882913034
21
98.0058405471042
31
0
0
LINE
8
layer0
10
1680.03882913034
20
98.0058405471042
30
0
11
1687.5602147553
21
107.802780268571
31
0
0
LINE
8
layer0
10
1687.5602147553
20
107.802780268571
30
0
11
1681.25643827344
21
109.622523792929
31
0
0
LINE
8
layer0
10
1676.00362588511
20
111.138880116132
30
0
11
1680.53005796937
21
102.692442858385
31
0
0
LINE
8
layer0
10
1680.53005796937
20
102.692442858385
30
0
11
1681.25643827344
21
109.622523792929
31
0
0
LINE
8
layer0
10
1681.25643827344
20
109.622523792929
30
0
11
1676.00362588511
21
111.138880116132
31
0
0
LINE
8
layer0
10
1671.22726418412
20
112.517696973039
30
0
11
1678.1007648376
21
107.225565555508
31
0
0
LINE
8
layer0
10
1678.1007648376
20
107.225565555508
30
0
11
1676.00362588511
21
111.138880116132
31
0
0
LINE
8
layer0
10
1676.00362588511
20
111.138880116132
30
0
11
1671.22726418412
21
112.517696973039
31
0
0
LINE
8
layer0
10
1665.69440110833
20
114.114896966137
30
0
11
1672.98874587265
21
111.161475004753
31
0
0
LINE
8
layer0
10
1672.98874587265
20
111.161475004753
30
0
11
1671.22726418412
21
112.517696973039
31
0
0
LINE
8
layer0
10
1671.22726418412
20
112.517696973039
30
0
11
1665.69440110833
21
114.114896966137
31
0
0
ENDBLK
0
BLOCK
8
layer0
2
PF_OBJECT59
70
0
10
0
20
0
30
0
0
LINE
8
layer0
10
1428.35440236571
20
50.7045165380641
30
0
11
1673.43959163671
21
-20.0454834619359
31
0
0
LINE
8
layer0
10
1673.43959163671
20
-20.0454834619359
30
0
11
1680.73393640103
21
-22.9989054233196
31
0
0
LINE
8
layer0
10
1680.73393640103
20
-22.9989054233196
30
0
11
1685.84595536599
21
-26.9348148725655
31
0
0
LINE
8
layer0
10
1685.84595536599
20
-26.9348148725655
30
0
11
1688.27524849776
21
-31.4679375696877
31
0
0
LINE
8
layer0
10
1688.27524849776
20
-31.4679375696877
30
0
11
1687.78401965872
21
-36.1545398809689
31
0
0
LINE
8
layer0
10
1687.78401965872
20
-36.1545398809689
30
0
11
1684.42035375024
21
-40.5358645187025
31
0
0
LINE
8
layer0
10
1684.42035375024
20
-40.5358645187025
30
0
11
1516.92035375024
21
-185.595119652596
31
0
0
LINE
8
layer0
10
1516.92035375024
20
-185.595119652596
30
0
11
1511.01350982748
21
-189.242292034757
31
0
0
LINE
8
layer0
10
1511.01350982748
20
-189.242292034757
30
0
11
1503.14169092898
21
-191.798301517235
31
0
0
LINE
8
layer0
10
1503.14169092898
20
-191.798301517235
30
0
11
1494.07544553474
21
-193.01294808312
31
0
0
LINE
8
layer0
10
1494.07544553474
20
-193.01294808312
30
0
11
1484.70224091218
21
-192.767333663603
31
0
0
LINE
8
layer0
10
1484.70224091218
20
-192.767333663603
30
0
11
1475.93959163671
21
-191.085500709362
31
0
0
LINE
8
layer0
10
1475.93959163671
20
-191.085500709362
30
0
11
1230.85440236571
21
-120.335500709362
31
0
0
LINE
8
layer0
10
1230.85440236571
20
-120.335500709362
30
0
11
1223.56005760139
21
-117.382078747979
31
0
0
LINE
8
layer0
10
1223.56005760139
20
-117.382078747979
30
0
11
1218.44803863644
21
-113.446169298733
31
0
0
LINE
8
layer0
10
1218.44803863644
20
-113.446169298733
30
0
11
1216.01874550467
21
-108.913046601611
31
0
0
LINE
8
layer0
10
1216.01874550467
20
-108.913046601611
30
0
11
1216.5099743437
21
-104.226444290329
31
0
0
LINE
8
layer0
10
1216.5099743437
20
-104.226444290329
30
0
11
1219.87364025218
21
-99.8451196525959
31
0
0
LINE
8
layer0
10
1219.87364025218
20
-99.8451196525959
30
0
11
1387.37364025218
21
45.2141354812975
31
0
0
LINE
8
layer0
10
1387.37364025218
20
45.2141354812975
30
0
11
1393.28048417495
21
48.8613078634584
31
0
0
LINE
8
layer0
10
1393.28048417495
20
48.8613078634584
30
0
11
1401.15230307344
21
51.4173173459365
31
0
0
LINE
8
layer0
10
1401.15230307344
20
51.4173173459365
30
0
11
1410.21854846768
21
52.6319639118216
31
0
0
LINE
8
layer0
10
1410.21854846768
20
52.6319639118216
30
0
11
1419.59175309025
21
52.3863494923046
31
0
0
LINE
8
layer0
10
1419.59175309025
20
52.3863494923046
30
0
11
1428.35440236571
21
50.7045165380641
31
0
0
LINE
8
layer0
10
1428.35440236571
20
55.0346435569863
30
0
11
1673.43959163671
21
-15.7153564430137
31
0
0
LINE
8
layer0
10
1673.43959163671
20
-15.7153564430137
30
0
11
1673.43959163671
21
-20.0454834619359
31
0
0
LINE
8
layer0
10
1673.43959163671
20
-20.0454834619359
30
0
11
1428.35440236571
21
50.7045165380641
31
0
0
LINE
8
layer0
10
1428.35440236571
20
50.7045165380641
30
0
11
1428.35440236571
21
55.0346435569863
31
0
0
LINE
8
layer0
10
1673.43959163671
20
109.85832710573
30
0
11
1673.43959163671
21
-15.7153564430137
31
0
0
LINE
8
layer0
10
1673.43959163671
20
-15.7153564430137
30
0
11
1428.35440236571
21
55.0346435569863
31
0
0
LINE
8
layer0
10
1428.35440236571
20
55.0346435569863
30
0
11
1428.35440236571
21
180.60832710573
31
0
0
LINE
8
layer0
10
1428.35440236571
20
180.60832710573
30
0
11
1673.43959163671
21
109.85832710573
31
0
0
LINE
8
layer0
10
1419.59175309025
20
56.7164765112268
30
0
11
1428.35440236571
21
55.0346435569863
31
0
0
LINE
8
layer0
10
1428.35440236571
20
55.0346435569863
30
0
11
1428.35440236571
21
50.7045165380641
31
0
0
LINE
8
layer0
10
1428.35440236571
20
50.7045165380641
30
0
11
1419.59175309025
21
52.3863494923046
31
0
0
LINE
8
layer0
10
1419.59175309025
20
52.3863494923046
30
0
11
1419.59175309025
21
56.7164765112268
31
0
0
LINE
8
layer0
10
1428.35440236571
20
180.60832710573
30
0
11
1428.35440236571
21
55.0346435569863
31
0
0
LINE
8
layer0
10
1428.35440236571
20
55.0346435569863
30
0
11
1419.59175309025
21
56.7164765112268
31
0
0
LINE
8
layer0
10
1419.59175309025
20
56.7164765112268
30
0
11
1419.59175309025
21
182.29016005997
31
0
0
LINE
8
layer0
10
1419.59175309025
20
182.29016005997
30
0
11
1428.35440236571
21
180.60832710573
31
0
0
LINE
8
layer0
10
1410.21854846768
20
56.9620909307438
30
0
11
1419.59175309025
21
56.7164765112268
31
0
0
LINE
8
layer0
10
1419.59175309025
20
56.7164765112268
30
0
11
1419.59175309025
21
52.3863494923046
31
0
0
LINE
8
layer0
10
1419.59175309025
20
52.3863494923046
30
0
11
1410.21854846768
21
52.6319639118216
31
0
0
LINE
8
layer0
10
1410.21854846768
20
52.6319639118216
30
0
11
1410.21854846768
21
56.9620909307438
31
0
0
LINE
8
layer0
10
1419.59175309025
20
182.29016005997
30
0
11
1419.59175309025
21
56.7164765112268
31
0
0
LINE
8
layer0
10
1419.59175309025
20
56.7164765112268
30
0
11
1417.32236290117
21
56.7759433612949
31
0
0
LINE
8
layer0
10
1417.32236290117
20
56.7759433612949
30
0
11
1417.32236290117
21
182.349626910039
31
0
0
LINE
8
layer0
10
1417.32236290117
20
182.349626910039
30
0
11
1419.59175309025
21
182.29016005997
31
0
0
LINE
8
layer0
10
1417.32236290117
20
182.349626910039
30
0
11
1417.32236290117
21
56.7759433612949
31
0
0
LINE
8
layer0
10
1417.32236290117
20
56.7759433612949
30
0
11
1410.34829038519
21
56.9586911878557
31
0
0
LINE
8
layer0
10
1410.34829038519
20
56.9586911878557
30
0
11
1410.34829038519
21
182.532374736599
31
0
0
LINE
8
layer0
10
1410.34829038519
20
182.532374736599
30
0
11
1417.32236290117
21
182.349626910039
31
0
0
LINE
8
layer0
10
1410.34829038519
20
182.532374736599
30
0
11
1410.34829038519
21
56.9586911878557
31
0
0
LINE
8
layer0
10
1410.34829038519
20
56.9586911878557
30
0
11
1410.21854846768
21
56.9620909307438
31
0
0
LINE
8
layer0
10
1410.21854846768
20
56.9620909307438
30
0
11
1410.21854846768
21
182.535774479487
31
0
0
LINE
8
layer0
10
1410.21854846768
20
182.535774479487
30
0
11
1410.34829038519
21
182.532374736599
31
0
0
LINE
8
layer0
10
1401.15230307344
20
55.7474443648587
30
0
11
1410.21854846768
21
56.9620909307438
31
0
0
LINE
8
layer0
10
1410.21854846768
20
56.9620909307438
30
0
11
1410.21854846768
21
52.6319639118216
31
0
0
LINE
8
layer0
10
1410.21854846768
20
52.6319639118216
30
0
11
1401.15230307344
21
51.4173173459365
31
0
0
LINE
8
layer0
10
1401.15230307344
20
51.4173173459365
30
0
11
1401.15230307344
21
55.7474443648587
31
0
0
LINE
8
layer0
10
1410.21854846768
20
182.535774479487
30
0
11
1410.21854846768
21
56.9620909307438
31
0
0
LINE
8
layer0
10
1410.21854846768
20
56.9620909307438
30
0
11
1401.15230307344
21
55.7474443648587
31
0
0
LINE
8
layer0
10
1401.15230307344
20
55.7474443648587
30
0
11
1401.15230307344
21
181.321127913602
31
0
0
LINE
8
layer0
10
1401.15230307344
20
181.321127913602
30
0
11
1410.21854846768
21
182.535774479487
31
0
0
LINE
8
layer0
10
1393.28048417495
20
53.1914348823806
30
0
11
1401.15230307344
21
55.7474443648587
31
0
0
LINE
8
layer0
10
1401.15230307344
20
55.7474443648587
30
0
11
1401.15230307344
21
51.4173173459365
31
0
0
LINE
8
layer0
10
1401.15230307344
20
51.4173173459365
30
0
11
1393.28048417495
21
48.8613078634584
31
0
0
LINE
8
layer0
10
1393.28048417495
20
48.8613078634584
30
0
11
1393.28048417495
21
53.1914348823806
31
0
0
LINE
8
layer0
10
1401.15230307344
20
181.321127913602
30
0
11
1401.15230307344
21
55.7474443648587
31
0
0
LINE
8
layer0
10
1401.15230307344
20
55.7474443648587
30
0
11
1400.49305256134
21
55.5333832206692
31
0
0
LINE
8
layer0
10
1400.49305256134
20
55.5333832206692
30
0
11
1400.49305256134
21
181.107066769413
31
0
0
LINE
8
layer0
10
1400.49305256134
20
181.107066769413
30
0
11
1401.15230307344
21
181.321127913602
31
0
0
LINE
8
layer0
10
1400.49305256134
20
181.107066769413
30
0
11
1400.49305256134
21
55.5333832206692
31
0
0
LINE
8
layer0
10
1400.49305256134
20
55.5333832206692
30
0
11
1393.28048417495
21
53.1914348823806
31
0
0
LINE
8
layer0
10
1393.28048417495
20
53.1914348823806
30
0
11
1393.28048417495
21
178.765118431124
31
0
0
LINE
8
layer0
10
1393.28048417495
20
178.765118431124
30
0
11
1400.49305256134
21
181.107066769413
31
0
0
LINE
8
layer0
10
1387.37364025218
20
49.5442625002197
30
0
11
1393.28048417495
21
53.1914348823806
31
0
0
LINE
8
layer0
10
1393.28048417495
20
53.1914348823806
30
0
11
1393.28048417495
21
48.8613078634584
31
0
0
LINE
8
layer0
10
1393.28048417495
20
48.8613078634584
30
0
11
1387.37364025218
21
45.2141354812975
31
0
0
LINE
8
layer0
10
1387.37364025218
20
45.2141354812975
30
0
11
1387.37364025218
21
49.5442625002197
31
0
0
LINE
8
layer0
10
1393.28048417495
20
178.765118431124
30
0
11
1393.28048417495
21
53.1914348823806
31
0
0
LINE
8
layer0
10
1393.28048417495
20
53.1914348823806
30
0
11
1392.60052763736
21
52.7715966849611
31
0
0
LINE
8
layer0
10
1392.60052763736
20
52.7715966849611
30
0
11
1392.60052763736
21
178.345280233705
31
0
0
LINE
8
layer0
10
1392.60052763736
20
178.345280233705
30
0
11
1393.28048417495
21
178.765118431124
31
0
0
LINE
8
layer0
10
1392.60052763736
20
178.345280233705
30
0
11
1392.60052763736
21
52.7715966849611
31
0
0
LINE
8
layer0
10
1392.60052763736
20
52.7715966849611
30
0
11
1387.37364025218
21
49.5442625002197
31
0
0
LINE
8
layer0
10
1387.37364025218
20
49.5442625002197
30
0
11
1387.37364025218
21
175.117946048963
31
0
0
LINE
8
layer0
10
1387.37364025218
20
175.117946048963
30
0
11
1392.60052763736
21
178.345280233705
31
0
0
LINE
8
layer0
10
1219.87364025218
20
-95.5149926336737
30
0
11
1387.37364025218
21
49.5442625002197
31
0
0
LINE
8
layer0
10
1387.37364025218
20
49.5442625002197
30
0
11
1387.37364025218
21
45.2141354812975
31
0
0
LINE
8
layer0
10
1387.37364025218
20
45.2141354812975
30
0
11
1219.87364025218
21
-99.8451196525959
31
0
0
LINE
8
layer0
10
1219.87364025218
20
-99.8451196525959
30
0
11
1219.87364025218
21
-95.5149926336737
31
0
0
LINE
8
layer0
10
1387.37364025218
20
175.117946048963
30
0
11
1387.37364025218
21
49.5442625002197
31
0
0
LINE
8
layer0
10
1387.37364025218
20
49.5442625002197
30
0
11
1386.8647771065
21
49.1035740890073
31
0
0
LINE
8
layer0
10
1386.8647771065
20
49.1035740890073
30
0
11
1386.8647771065
21
174.677257637751
31
0
0
LINE
8
layer0
10
1386.8647771065
20
174.677257637751
30
0
11
1387.37364025218
21
175.117946048963
31
0
0
LINE
8
layer0
10
1386.8647771065
20
174.677257637751
30
0
11
1386.8647771065
21
49.1035740890073
31
0
0
LINE
8
layer0
10
1386.8647771065
20
49.1035740890073
30
0
11
1378.23145085884
21
41.6268942393754
31
0
0
LINE
8
layer0
10
1378.23145085884
20
41.6268942393754
30
0
11
1378.23145085884
21
167.200577788119
31
0
0
LINE
8
layer0
10
1378.23145085884
20
167.200577788119
30
0
11
1386.8647771065
21
174.677257637751
31
0
0
LINE
8
layer0
10
1378.23145085884
20
167.200577788119
30
0
11
1378.23145085884
21
41.6268942393754
31
0
0
LINE
8
layer0
10
1378.23145085884
20
41.6268942393754
30
0
11
1219.87364025218
21
-95.5149926336737
31
0
0
LINE
8
layer0
10
1219.87364025218
20
-95.5149926336737
30
0
11
1219.87364025218
21
30.0586909150699
31
0
0
LINE
8
layer0
10
1219.87364025218
20
30.0586909150699
30
0
11
1378.23145085884
21
167.200577788119
31
0
0
LINE
8
layer0
10
1216.5099743437
20
-99.8963172714074
30
0
11
1219.87364025218
21
-95.5149926336737
31
0
0
LINE
8
layer0
10
1219.87364025218
20
-95.5149926336737
30
0
11
1219.87364025218
21
-99.8451196525959
31
0
0
LINE
8
layer0
10
1219.87364025218
20
-99.8451196525959
30
0
11
1216.5099743437
21
-104.226444290329
31
0
0
LINE
8
layer0
10
1216.5099743437
20
-104.226444290329
30
0
11
1216.5099743437
21
-99.8963172714074
31
0
0
LINE
8
layer0
10
1219.87364025218
20
30.0586909150699
30
0
11
1219.87364025218
21
-95.5149926336737
31
0
0
LINE
8
layer0
10
1219.87364025218
20
-95.5149926336737
30
0
11
1216.5099743437
21
-99.8963172714074
31
0
0
LINE
8
layer0
10
1216.5099743437
20
-99.8963172714074
30
0
11
1216.5099743437
21
25.6773662773363
31
0
0
LINE
8
layer0
10
1216.5099743437
20
25.6773662773363
30
0
11
1219.87364025218
21
30.0586909150699
31
0
0
LINE
8
layer0
10
1216.01874550467
20
-104.582919582689
30
0
11
1216.5099743437
21
-99.8963172714074
31
0
0
LINE
8
layer0
10
1216.5099743437
20
-99.8963172714074
30
0
11
1216.5099743437
21
-104.226444290329
31
0
0
LINE
8
layer0
10
1216.5099743437
20
-104.226444290329
30
0
11
1216.01874550467
21
-108.913046601611
31
0
0
LINE
8
layer0
10
1216.01874550467
20
-108.913046601611
30
0
11
1216.01874550467
21
-104.582919582689
31
0
0
LINE
8
layer0
10
1216.5099743437
20
25.6773662773363
30
0
11
1216.5099743437
21
-99.8963172714074
31
0
0
LINE
8
layer0
10
1216.5099743437
20
-99.8963172714074
30
0
11
1216.39104064356
21
-101.031012365946
31
0
0
LINE
8
layer0
10
1216.39104064356
20
-101.031012365946
30
0
11
1216.39104064356
21
24.5426711827976
31
0
0
LINE
8
layer0
10
1216.39104064356
20
24.5426711827976
30
0
11
1216.5099743437
21
25.6773662773363
31
0
0
LINE
8
layer0
10
1216.39104064356
20
24.5426711827976
30
0
11
1216.39104064356
21
-101.031012365946
31
0
0
LINE
8
layer0
10
1216.39104064356
20
-101.031012365946
30
0
11
1216.01874550467
21
-104.582919582689
31
0
0
LINE
8
layer0
10
1216.01874550467
20
-104.582919582689
30
0
11
1216.01874550467
21
20.9907639660551
31
0
0
LINE
8
layer0
10
1216.01874550467
20
20.9907639660551
30
0
11
1216.39104064356
21
24.5426711827976
31
0
0
LINE
8
layer0
10
1218.44803863644
20
-109.116042279811
30
0
11
1216.01874550467
21
-104.582919582689
31
0
0
LINE
8
layer0
10
1216.01874550467
20
-104.582919582689
30
0
11
1216.01874550467
21
-108.913046601611
31
0
0
LINE
8
layer0
10
1216.01874550467
20
-108.913046601611
30
0
11
1218.44803863644
21
-113.446169298733
31
0
0
LINE
8
layer0
10
1218.44803863644
20
-113.446169298733
30
0
11
1218.44803863644
21
-109.116042279811
31
0
0
LINE
8
layer0
10
1216.01874550467
20
20.9907639660551
30
0
11
1216.01874550467
21
-104.582919582689
31
0
0
LINE
8
layer0
10
1216.01874550467
20
-104.582919582689
30
0
11
1216.34548075639
21
-105.192615862711
31
0
0
LINE
8
layer0
10
1216.34548075639
20
-105.192615862711
30
0
11
1216.34548075639
21
20.3810676860331
31
0
0
LINE
8
layer0
10
1216.34548075639
20
20.3810676860331
30
0
11
1216.01874550467
21
20.9907639660551
31
0
0
LINE
8
layer0
10
1216.34548075639
20
20.3810676860331
30
0
11
1216.34548075639
21
-105.192615862711
31
0
0
LINE
8
layer0
10
1216.34548075639
20
-105.192615862711
30
0
11
1218.44803863644
21
-109.116042279811
31
0
0
LINE
8
layer0
10
1218.44803863644
20
-109.116042279811
30
0
11
1218.44803863644
21
16.4576412689329
31
0
0
LINE
8
layer0
10
1218.44803863644
20
16.4576412689329
30
0
11
1216.34548075639
21
20.3810676860331
31
0
0
LINE
8
layer0
10
1223.56005760139
20
-113.051951729057
30
0
11
1218.44803863644
21
-109.116042279811
31
0
0
LINE
8
layer0
10
1218.44803863644
20
-109.116042279811
30
0
11
1218.44803863644
21
-113.446169298733
31
0
0
LINE
8
layer0
10
1218.44803863644
20
-113.446169298733
30
0
11
1223.56005760139
21
-117.382078747979
31
0
0
LINE
8
layer0
10
1223.56005760139
20
-117.382078747979
30
0
11
1223.56005760139
21
-113.051951729057
31
0
0
LINE
8
layer0
10
1218.44803863644
20
16.4576412689329
30
0
11
1218.44803863644
21
-109.116042279811
31
0
0
LINE
8
layer0
10
1218.44803863644
20
-109.116042279811
30
0
11
1220.97948817503
21
-111.065087505883
31
0
0
LINE
8
layer0
10
1220.97948817503
20
-111.065087505883
30
0
11
1220.97948817503
21
14.5085960428608
31
0
0
LINE
8
layer0
10
1220.97948817503
20
14.5085960428608
30
0
11
1218.44803863644
21
16.4576412689329
31
0
0
LINE
8
layer0
10
1220.97948817503
20
14.5085960428608
30
0
11
1220.97948817503
21
-111.065087505883
31
0
0
LINE
8
layer0
10
1220.97948817503
20
-111.065087505883
30
0
11
1223.56005760139
21
-113.051951729057
31
0
0
LINE
8
layer0
10
1223.56005760139
20
-113.051951729057
30
0
11
1223.56005760139
21
12.521731819687
31
0
0
LINE
8
layer0
10
1223.56005760139
20
12.521731819687
30
0
11
1220.97948817503
21
14.5085960428608
31
0
0
LINE
8
layer0
10
1230.85440236571
20
-116.00537369044
30
0
11
1223.56005760139
21
-113.051951729057
31
0
0
LINE
8
layer0
10
1223.56005760139
20
-113.051951729057
30
0
11
1223.56005760139
21
-117.382078747979
31
0
0
LINE
8
layer0
10
1223.56005760139
20
-117.382078747979
30
0
11
1230.85440236571
21
-120.335500709362
31
0
0
LINE
8
layer0
10
1230.85440236571
20
-120.335500709362
30
0
11
1230.85440236571
21
-116.00537369044
31
0
0
LINE
8
layer0
10
1223.56005760139
20
12.521731819687
30
0
11
1223.56005760139
21
-113.051951729057
31
0
0
LINE
8
layer0
10
1223.56005760139
20
-113.051951729057
30
0
11
1229.0742743762
21
-115.284614078963
31
0
0
LINE
8
layer0
10
1229.0742743762
20
-115.284614078963
30
0
11
1229.0742743762
21
10.2890694697803
31
0
0
LINE
8
layer0
10
1229.0742743762
20
10.2890694697803
30
0
11
1223.56005760139
21
12.521731819687
31
0
0
LINE
8
layer0
10
1229.0742743762
20
10.2890694697803
30
0
11
1229.0742743762
21
-115.284614078963
31
0
0
LINE
8
layer0
10
1229.0742743762
20
-115.284614078963
30
0
11
1230.85440236571
21
-116.00537369044
31
0
0
LINE
8
layer0
10
1230.85440236571
20
-116.00537369044
30
0
11
1230.85440236571
21
9.56830985830334
31
0
0
LINE
8
layer0
10
1230.85440236571
20
9.56830985830334
30
0
11
1229.0742743762
21
10.2890694697803
31
0
0
LINE
8
layer0
10
1475.93959163671
20
-186.75537369044
30
0
11
1230.85440236571
21
-116.00537369044
31
0
0
LINE
8
layer0
10
1230.85440236571
20
-116.00537369044
30
0
11
1230.85440236571
21
-120.335500709362
31
0
0
LINE
8
layer0
10
1230.85440236571
20
-120.335500709362
30
0
11
1475.93959163671
21
-191.085500709362
31
0
0
LINE
8
layer0
10
1475.93959163671
20
-191.085500709362
30
0
11
1475.93959163671
21
-186.75537369044
31
0
0
LINE
8
layer0
10
1230.85440236571
20
9.56830985830334
30
0
11
1230.85440236571
21
-116.00537369044
31
0
0
LINE
8
layer0
10
1230.85440236571
20
-116.00537369044
30
0
11
1240.23413196565
21
-118.713068395164
31
0
0
LINE
8
layer0
10
1240.23413196565
20
-118.713068395164
30
0
11
1240.23413196565
21
6.8606151535796
31
0
0
LINE
8
layer0
10
1240.23413196565
20
6.8606151535796
30
0
11
1230.85440236571
21
9.56830985830334
31
0
0
LINE
8
layer0
10
1240.23413196565
20
6.8606151535796
30
0
11
1240.23413196565
21
-118.713068395164
31
0
0
LINE
8
layer0
10
1240.23413196565
20
-118.713068395164
30
0
11
1274.02848491186
21
-128.468657780456
31
0
0
LINE
8
layer0
10
1274.02848491186
20
-128.468657780456
30
0
11
1274.02848491186
21
-2.89497423171213
31
0
0
LINE
8
layer0
10
1274.02848491186
20
-2.89497423171213
30
0
11
1240.23413196565
21
6.8606151535796
31
0
0
LINE
8
layer0
10
1274.02848491186
20
-2.89497423171213
30
0
11
1274.02848491186
21
-128.468657780456
31
0
0
LINE
8
layer0
10
1274.02848491186
20
-128.468657780456
30
0
11
1475.93959163671
21
-186.75537369044
31
0
0
LINE
8
layer0
10
1475.93959163671
20
-186.75537369044
30
0
11
1475.93959163671
21
-61.1816901416967
31
0
0
LINE
8
layer0
10
1475.93959163671
20
-61.1816901416967
30
0
11
1274.02848491186
21
-2.89497423171213
31
0
0
LINE
8
layer0
10
1484.70224091218
20
-188.437206644681
30
0
11
1475.93959163671
21
-186.75537369044
31
0
0
LINE
8
layer0
10
1475.93959163671
20
-186.75537369044
30
0
11
1475.93959163671
21
-191.085500709362
31
0
0
LINE
8
layer0
10
1475.93959163671
20
-191.085500709362
30
0
11
1484.70224091218
21
-192.767333663603
31
0
0
LINE
8
layer0
10
1484.70224091218
20
-192.767333663603
30
0
11
1484.70224091218
21
-188.437206644681
31
0
0
LINE
8
layer0
10
1475.93959163671
20
-61.1816901416967
30
0
11
1475.93959163671
21
-186.75537369044
31
0
0
LINE
8
layer0
10
1475.93959163671
20
-186.75537369044
30
0
11
1484.70224091218
21
-188.437206644681
31
0
0
LINE
8
layer0
10
1484.70224091218
20
-188.437206644681
30
0
11
1484.70224091218
21
-62.8635230959372
31
0
0
LINE
8
layer0
10
1484.70224091218
20
-62.8635230959372
30
0
11
1475.93959163671
21
-61.1816901416967
31
0
0
LINE
8
layer0
10
1494.07544553474
20
-188.682821064198
30
0
11
1484.70224091218
21
-188.437206644681
31
0
0
LINE
8
layer0
10
1484.70224091218
20
-188.437206644681
30
0
11
1484.70224091218
21
-192.767333663603
31
0
0
LINE
8
layer0
10
1484.70224091218
20
-192.767333663603
30
0
11
1494.07544553474
21
-193.01294808312
31
0
0
LINE
8
layer0
10
1494.07544553474
20
-193.01294808312
30
0
11
1494.07544553474
21
-188.682821064198
31
0
0
LINE
8
layer0
10
1484.70224091218
20
-62.8635230959372
30
0
11
1484.70224091218
21
-188.437206644681
31
0
0
LINE
8
layer0
10
1484.70224091218
20
-188.437206644681
30
0
11
1494.07544553474
21
-188.682821064198
31
0
0
LINE
8
layer0
10
1494.07544553474
20
-188.682821064198
30
0
11
1494.07544553474
21
-63.1091375154542
31
0
0
LINE
8
layer0
10
1494.07544553474
20
-63.1091375154542
30
0
11
1484.70224091218
21
-62.8635230959372
31
0
0
LINE
8
layer0
10
1503.14169092898
20
-187.468174498313
30
0
11
1494.07544553474
21
-188.682821064198
31
0
0
LINE
8
layer0
10
1494.07544553474
20
-188.682821064198
30
0
11
1494.07544553474
21
-193.01294808312
31
0
0
LINE
8
layer0
10
1494.07544553474
20
-193.01294808312
30
0
11
1503.14169092898
21
-191.798301517235
31
0
0
LINE
8
layer0
10
1503.14169092898
20
-191.798301517235
30
0
11
1503.14169092898
21
-187.468174498313
31
0
0
LINE
8
layer0
10
1494.07544553474
20
-63.1091375154542
30
0
11
1494.07544553474
21
-188.682821064198
31
0
0
LINE
8
layer0
10
1494.07544553474
20
-188.682821064198
30
0
11
1496.49400694187
21
-188.358795276254
31
0
0
LINE
8
layer0
10
1496.49400694187
20
-188.358795276254
30
0
11
1496.49400694187
21
-62.7851117275106
31
0
0
LINE
8
layer0
10
1496.49400694187
20
-62.7851117275106
30
0
11
1494.07544553474
21
-63.1091375154542
31
0
0
LINE
8
layer0
10
1496.49400694187
20
-62.7851117275106
30
0
11
1496.49400694187
21
-188.358795276254
31
0
0
LINE
8
layer0
10
1496.49400694187
20
-188.358795276254
30
0
11
1503.14169092898
21
-187.468174498313
31
0
0
LINE
8
layer0
10
1503.14169092898
20
-187.468174498313
30
0
11
1503.14169092898
21
-61.8944909495692
31
0
0
LINE
8
layer0
10
1503.14169092898
20
-61.8944909495692
30
0
11
1496.49400694187
21
-62.7851117275106
31
0
0
LINE
8
layer0
10
1511.01350982748
20
-184.912165015835
30
0
11
1503.14169092898
21
-187.468174498313
31
0
0
LINE
8
layer0
10
1503.14169092898
20
-187.468174498313
30
0
11
1503.14169092898
21
-191.798301517235
31
0
0
LINE
8
layer0
10
1503.14169092898
20
-191.798301517235
30
0
11
1511.01350982748
21
-189.242292034757
31
0
0
LINE
8
layer0
10
1511.01350982748
20
-189.242292034757
30
0
11
1511.01350982748
21
-184.912165015835
31
0
0
LINE
8
layer0
10
1503.14169092898
20
-61.8944909495692
30
0
11
1503.14169092898
21
-187.468174498313
31
0
0
LINE
8
layer0
10
1503.14169092898
20
-187.468174498313
30
0
11
1503.31115714717
21
-187.413148173873
31
0
0
LINE
8
layer0
10
1503.31115714717
20
-187.413148173873
30
0
11
1503.31115714717
21
-61.8394646251289
31
0
0
LINE
8
layer0
10
1503.31115714717
20
-61.8394646251289
30
0
11
1503.14169092898
21
-61.8944909495692
31
0
0
LINE
8
layer0
10
1503.31115714717
20
-61.8394646251289
30
0
11
1503.31115714717
21
-187.413148173873
31
0
0
LINE
8
layer0
10
1503.31115714717
20
-187.413148173873
30
0
11
1511.01350982748
21
-184.912165015835
31
0
0
LINE
8
layer0
10
1511.01350982748
20
-184.912165015835
30
0
11
1511.01350982748
21
-59.338481467091
31
0
0
LINE
8
layer0
10
1511.01350982748
20
-59.338481467091
30
0
11
1503.31115714717
21
-61.8394646251289
31
0
0
LINE
8
layer0
10
1516.92035375024
20
-181.264992633674
30
0
11
1511.01350982748
21
-184.912165015835
31
0
0
LINE
8
layer0
10
1511.01350982748
20
-184.912165015835
30
0
11
1511.01350982748
21
-189.242292034757
31
0
0
LINE
8
layer0
10
1511.01350982748
20
-189.242292034757
30
0
11
1516.92035375024
21
-185.595119652596
31
0
0
LINE
8
layer0
10
1516.92035375024
20
-185.595119652596
30
0
11
1516.92035375024
21
-181.264992633674
31
0
0
LINE
8
layer0
10
1511.01350982748
20
-59.338481467091
30
0
11
1511.01350982748
21
-184.912165015835
31
0
0
LINE
8
layer0
10
1511.01350982748
20
-184.912165015835
30
0
11
1512.31259810943
21
-184.1100448031
31
0
0
LINE
8
layer0
10
1512.31259810943
20
-184.1100448031
30
0
11
1512.31259810943
21
-58.5363612543559
31
0
0
LINE
8
layer0
10
1512.31259810943
20
-58.5363612543559
30
0
11
1511.01350982748
21
-59.338481467091
31
0
0
LINE
8
layer0
10
1512.31259810943
20
-58.5363612543559
30
0
11
1512.31259810943
21
-184.1100448031
31
0
0
LINE
8
layer0
10
1512.31259810943
20
-184.1100448031
30
0
11
1516.92035375024
21
-181.264992633674
31
0
0
LINE
8
layer0
10
1516.92035375024
20
-181.264992633674
30
0
11
1516.92035375024
21
-55.6913090849301
31
0
0
LINE
8
layer0
10
1516.92035375024
20
-55.6913090849301
30
0
11
1512.31259810943
21
-58.5363612543559
31
0
0
LINE
8
layer0
10
1684.42035375024
20
-36.2057374997803
30
0
11
1516.92035375024
21
-181.264992633674
31
0
0
LINE
8
layer0
10
1516.92035375024
20
-181.264992633674
30
0
11
1516.92035375024
21
-185.595119652596
31
0
0
LINE
8
layer0
10
1516.92035375024
20
-185.595119652596
30
0
11
1684.42035375024
21
-40.5358645187025
31
0
0
LINE
8
layer0
10
1684.42035375024
20
-40.5358645187025
30
0
11
1684.42035375024
21
-36.2057374997803
31
0
0
LINE
8
layer0
10
1516.92035375024
20
-55.6913090849301
30
0
11
1516.92035375024
21
-181.264992633674
31
0
0
LINE
8
layer0
10
1516.92035375024
20
-181.264992633674
30
0
11
1518.46832005023
21
-179.924414493681
31
0
0
LINE
8
layer0
10
1518.46832005023
20
-179.924414493681
30
0
11
1518.46832005023
21
-54.3507309449378
31
0
0
LINE
8
layer0
10
1518.46832005023
20
-54.3507309449378
30
0
11
1516.92035375024
21
-55.6913090849301
31
0
0
LINE
8
layer0
10
1518.46832005023
20
-54.3507309449378
30
0
11
1518.46832005023
21
-179.924414493681
31
0
0
LINE
8
layer0
10
1518.46832005023
20
-179.924414493681
30
0
11
1524.83574315969
21
-174.410064324246
31
0
0
LINE
8
layer0
10
1524.83574315969
20
-174.410064324246
30
0
11
1524.83574315969
21
-48.8363807755023
31
0
0
LINE
8
layer0
10
1524.83574315969
20
-48.8363807755023
30
0
11
1518.46832005023
21
-54.3507309449378
31
0
0
LINE
8
layer0
10
1524.83574315969
20
-48.8363807755023
30
0
11
1524.83574315969
21
-174.410064324246
31
0
0
LINE
8
layer0
10
1524.83574315969
20
-174.410064324246
30
0
11
1544.34692193027
21
-157.51288785114
31
0
0
LINE
8
layer0
10
1544.34692193027
20
-157.51288785114
30
0
11
1544.34692193027
21
-31.9392043023969
31
0
0
LINE
8
layer0
10
1544.34692193027
20
-31.9392043023969
30
0
11
1524.83574315969
21
-48.8363807755023
31
0
0
LINE
8
layer0
10
1544.34692193027
20
-31.9392043023969
30
0
11
1544.34692193027
21
-157.51288785114
31
0
0
LINE
8
layer0
10
1544.34692193027
20
-157.51288785114
30
0
11
1684.42035375024
21
-36.2057374997803
31
0
0
LINE
8
layer0
10
1684.42035375024
20
-36.2057374997803
30
0
11
1684.42035375024
21
89.3679460489633
31
0
0
LINE
8
layer0
10
1684.42035375024
20
89.3679460489633
30
0
11
1544.34692193027
21
-31.9392043023969
31
0
0
LINE
8
layer0
10
1687.78401965872
20
-31.8244128620467
30
0
11
1684.42035375024
21
-36.2057374997803
31
0
0
LINE
8
layer0
10
1684.42035375024
20
-36.2057374997803
30
0
11
1684.42035375024
21
-40.5358645187025
31
0
0
LINE
8
layer0
10
1684.42035375024
20
-40.5358645187025
30
0
11
1687.78401965872
21
-36.1545398809689
31
0
0
LINE
8
layer0
10
1687.78401965872
20
-36.1545398809689
30
0
11
1687.78401965872
21
-31.8244128620467
31
0
0
LINE
8
layer0
10
1684.42035375024
20
89.3679460489633
30
0
11
1684.42035375024
21
-36.2057374997803
31
0
0
LINE
8
layer0
10
1684.42035375024
20
-36.2057374997803
30
0
11
1687.78401965872
21
-31.8244128620467
31
0
0
LINE
8
layer0
10
1687.78401965872
20
-31.8244128620467
30
0
11
1687.78401965872
21
93.7492706866969
31
0
0
LINE
8
layer0
10
1687.78401965872
20
93.7492706866969
30
0
11
1684.42035375024
21
89.3679460489633
31
0
0
LINE
8
layer0
10
1688.27524849776
20
-27.1378105507655
30
0
11
1687.78401965872
21
-31.8244128620467
31
0
0
LINE
8
layer0
10
1687.78401965872
20
-31.8244128620467
30
0
11
1687.78401965872
21
-36.1545398809689
31
0
0
LINE
8
layer0
10
1687.78401965872
20
-36.1545398809689
30
0
11
1688.27524849776
21
-31.4679375696877
31
0
0
LINE
8
layer0
10
1688.27524849776
20
-31.4679375696877
30
0
11
1688.27524849776
21
-27.1378105507655
31
0
0
LINE
8
layer0
10
1687.78401965872
20
93.7492706866969
30
0
11
1687.78401965872
21
-31.8244128620467
31
0
0
LINE
8
layer0
10
1687.78401965872
20
-31.8244128620467
30
0
11
1688.27524849776
21
-27.1378105507655
31
0
0
LINE
8
layer0
10
1688.27524849776
20
-27.1378105507655
30
0
11
1688.27524849776
21
98.4358729979781
31
0
0
LINE
8
layer0
10
1688.27524849776
20
98.4358729979781
30
0
11
1687.78401965872
21
93.7492706866969
31
0
0
LINE
8
layer0
10
1685.84595536599
20
-22.6046878536433
30
0
11
1688.27524849776
21
-27.1378105507655
31
0
0
LINE
8
layer0
10
1688.27524849776
20
-27.1378105507655
30
0
11
1688.27524849776
21
-31.4679375696877
31
0
0
LINE
8
layer0
10
1688.27524849776
20
-31.4679375696877
30
0
11
1685.84595536599
21
-26.9348148725655
31
0
0
LINE
8
layer0
10
1685.84595536599
20
-26.9348148725655
30
0
11
1685.84595536599
21
-22.6046878536433
31
0
0
LINE
8
layer0
10
1688.27524849776
20
98.4358729979781
30
0
11
1688.27524849776
21
-27.1378105507655
31
0
0
LINE
8
layer0
10
1688.27524849776
20
-27.1378105507655
30
0
11
1687.62719692187
21
-25.9285298471978
31
0
0
LINE
8
layer0
10
1687.62719692187
20
-25.9285298471978
30
0
11
1687.62719692187
21
99.6451537015458
31
0
0
LINE
8
layer0
10
1687.62719692187
20
99.6451537015458
30
0
11
1688.27524849776
21
98.4358729979781
31
0
0
LINE
8
layer0
10
1687.62719692187
20
99.6451537015458
30
0
11
1687.62719692187
21
-25.9285298471978
31
0
0
LINE
8
layer0
10
1687.62719692187
20
-25.9285298471978
30
0
11
1686.11838622712
21
-23.1130507612824
31
0
0
LINE
8
layer0
10
1686.11838622712
20
-23.1130507612824
30
0
11
1686.11838622712
21
102.460632787461
31
0
0
LINE
8
layer0
10
1686.11838622712
20
102.460632787461
30
0
11
1687.62719692187
21
99.6451537015458
31
0
0
LINE
8
layer0
10
1686.11838622712
20
102.460632787461
30
0
11
1686.11838622712
21
-23.1130507612824
31
0
0
LINE
8
layer0
10
1686.11838622712
20
-23.1130507612824
30
0
11
1685.84595536599
21
-22.6046878536433
31
0
0
LINE
8
layer0
10
1685.84595536599
20
-22.6046878536433
30
0
11
1685.84595536599
21
102.9689956951
31
0
0
LINE
8
layer0
10
1685.84595536599
20
102.9689956951
30
0
11
1686.11838622712
21
102.460632787461
31
0
0
LINE
8
layer0
10
1680.73393640103
20
-18.6687784043974
30
0
11
1685.84595536599
21
-22.6046878536433
31
0
0
LINE
8
layer0
10
1685.84595536599
20
-22.6046878536433
30
0
11
1685.84595536599
21
-26.9348148725655
31
0
0
LINE
8
layer0
10
1685.84595536599
20
-26.9348148725655
30
0
11
1680.73393640103
21
-22.9989054233196
31
0
0
LINE
8
layer0
10
1680.73393640103
20
-22.9989054233196
30
0
11
1680.73393640103
21
-18.6687784043974
31
0
0
LINE
8
layer0
10
1681.97163110125
20
105.95196379196
30
0
11
1681.97163110125
21
-19.6217197567835
31
0
0
LINE
8
layer0
10
1681.97163110125
20
-19.6217197567835
30
0
11
1680.73393640103
21
-18.6687784043974
31
0
0
LINE
8
layer0
10
1680.73393640103
20
-18.6687784043974
30
0
11
1680.73393640103
21
106.904905144346
31
0
0
LINE
8
layer0
10
1680.73393640103
20
106.904905144346
30
0
11
1681.97163110125
21
105.95196379196
31
0
0
LINE
8
layer0
10
1685.84595536599
20
102.9689956951
30
0
11
1685.84595536599
21
-22.6046878536433
31
0
0
LINE
8
layer0
10
1685.84595536599
20
-22.6046878536433
30
0
11
1681.97163110125
21
-19.6217197567835
31
0
0
LINE
8
layer0
10
1681.97163110125
20
-19.6217197567835
30
0
11
1681.97163110125
21
105.95196379196
31
0
0
LINE
8
layer0
10
1681.97163110125
20
105.95196379196
30
0
11
1685.84595536599
21
102.9689956951
31
0
0
LINE
8
layer0
10
1673.43959163671
20
-15.7153564430137
30
0
11
1680.73393640103
21
-18.6687784043974
31
0
0
LINE
8
layer0
10
1680.73393640103
20
-18.6687784043974
30
0
11
1680.73393640103
21
-22.9989054233196
31
0
0
LINE
8
layer0
10
1680.73393640103
20
-22.9989054233196
30
0
11
1673.43959163671
21
-20.0454834619359
31
0
0
LINE
8
layer0
10
1673.43959163671
20
-20.0454834619359
30
0
11
1673.43959163671
21
-15.7153564430137
31
0
0
LINE
8
layer0
10
1680.73393640103
20
106.904905144346
30
0
11
1680.73393640103
21
-18.6687784043974
31
0
0
LINE
8
layer0
10
1680.73393640103
20
-18.6687784043974
30
0
11
1673.43959163671
21
-15.7153564430137
31
0
0
LINE
8
layer0
10
1673.43959163671
20
-15.7153564430137
30
0
11
1673.43959163671
21
109.85832710573
31
0
0
LINE
8
layer0
10
1673.43959163671
20
109.85832710573
30
0
11
1680.73393640103
21
106.904905144346
31
0
0
LINE
8
layer0
10
1665.69440110833
20
-14.9228881977442
30
0
11
1429.26946587517
21
53.3271118022558
31
0
0
LINE
8
layer0
10
1429.26946587517
20
53.3271118022558
30
0
11
1420.50681659971
21
55.0089447564962
31
0
0
LINE
8
layer0
10
1420.50681659971
20
55.0089447564962
30
0
11
1411.13361197714
21
55.2545591760133
31
0
0
LINE
8
layer0
10
1411.13361197714
20
55.2545591760133
30
0
11
1402.0673665829
21
54.0399126101282
31
0
0
LINE
8
layer0
10
1402.0673665829
20
54.0399126101282
30
0
11
1394.19554768441
21
51.4839031276501
31
0
0
LINE
8
layer0
10
1394.19554768441
20
51.4839031276501
30
0
11
1388.28870376164
21
47.8367307454891
31
0
0
LINE
8
layer0
10
1388.28870376164
20
47.8367307454891
30
0
11
1225.78870376164
21
-92.8923973694821
31
0
0
LINE
8
layer0
10
1225.78870376164
20
-92.8923973694821
30
0
11
1222.42503785316
21
-97.2737220072157
31
0
0
LINE
8
layer0
10
1222.42503785316
20
-97.2737220072157
30
0
11
1221.93380901413
21
-101.960324318497
31
0
0
LINE
8
layer0
10
1221.93380901413
20
-101.960324318497
30
0
11
1224.3631021459
21
-106.493447015619
31
0
0
LINE
8
layer0
10
1224.3631021459
20
-106.493447015619
30
0
11
1229.47512111085
21
-110.429356464865
31
0
0
LINE
8
layer0
10
1229.47512111085
20
-110.429356464865
30
0
11
1236.76946587517
21
-113.382778426249
31
0
0
LINE
8
layer0
10
1236.76946587517
20
-113.382778426249
30
0
11
1473.19440110833
21
-181.632778426249
31
0
0
LINE
8
layer0
10
1473.19440110833
20
-181.632778426249
30
0
11
1481.95705038379
21
-183.314611380489
31
0
0
LINE
8
layer0
10
1481.95705038379
20
-183.314611380489
30
0
11
1491.33025500636
21
-183.560225800006
31
0
0
LINE
8
layer0
10
1491.33025500636
20
-183.560225800006
30
0
11
1500.3965004006
21
-182.345579234121
31
0
0
LINE
8
layer0
10
1500.3965004006
20
-182.345579234121
30
0
11
1508.26831929909
21
-179.789569751643
31
0
0
LINE
8
layer0
10
1508.26831929909
20
-179.789569751643
30
0
11
1514.17516322186
21
-176.142397369482
31
0
0
LINE
8
layer0
10
1514.17516322186
20
-176.142397369482
30
0
11
1676.67516322186
21
-35.4132692545109
31
0
0
LINE
8
layer0
10
1676.67516322186
20
-35.4132692545109
30
0
11
1680.03882913034
21
-31.0319446167772
31
0
0
LINE
8
layer0
10
1680.03882913034
20
-31.0319446167772
30
0
11
1680.53005796937
21
-26.345342305496
31
0
0
LINE
8
layer0
10
1680.53005796937
20
-26.345342305496
30
0
11
1678.1007648376
21
-21.8122196083738
31
0
0
LINE
8
layer0
10
1678.1007648376
20
-21.8122196083738
30
0
11
1672.98874587265
21
-17.876310159128
31
0
0
LINE
8
layer0
10
1672.98874587265
20
-17.876310159128
30
0
11
1665.69440110833
21
-14.9228881977442
31
0
0
LINE
8
layer0
10
1665.69440110833
20
-14.9228881977442
30
0
11
1665.69440110833
21
110.650795350999
31
0
0
LINE
8
layer0
10
1665.69440110833
20
110.650795350999
30
0
11
1429.26946587517
21
178.900795350999
31
0
0
LINE
8
layer0
10
1429.26946587517
20
178.900795350999
30
0
11
1429.26946587517
21
53.3271118022558
31
0
0
LINE
8
layer0
10
1429.26946587517
20
53.3271118022558
30
0
11
1665.69440110833
21
-14.9228881977442
31
0
0
LINE
8
layer0
10
1429.26946587517
20
53.3271118022558
30
0
11
1429.26946587517
21
178.900795350999
31
0
0
LINE
8
layer0
10
1429.26946587517
20
178.900795350999
30
0
11
1420.50681659971
21
180.58262830524
31
0
0
LINE
8
layer0
10
1420.50681659971
20
180.58262830524
30
0
11
1420.50681659971
21
55.0089447564962
31
0
0
LINE
8
layer0
10
1420.50681659971
20
55.0089447564962
30
0
11
1429.26946587517
21
53.3271118022558
31
0
0
LINE
8
layer0
10
1420.50681659971
20
55.0089447564962
30
0
11
1420.50681659971
21
180.58262830524
31
0
0
LINE
8
layer0
10
1420.50681659971
20
180.58262830524
30
0
11
1411.13361197714
21
180.828242724757
31
0
0
LINE
8
layer0
10
1411.13361197714
20
180.828242724757
30
0
11
1411.13361197714
21
55.2545591760133
31
0
0
LINE
8
layer0
10
1411.13361197714
20
55.2545591760133
30
0
11
1420.50681659971
21
55.0089447564962
31
0
0
LINE
8
layer0
10
1411.13361197714
20
55.2545591760133
30
0
11
1411.13361197714
21
180.828242724757
31
0
0
LINE
8
layer0
10
1411.13361197714
20
180.828242724757
30
0
11
1402.0673665829
21
179.613596158872
31
0
0
LINE
8
layer0
10
1402.0673665829
20
179.613596158872
30
0
11
1402.0673665829
21
54.0399126101282
31
0
0
LINE
8
layer0
10
1402.0673665829
20
54.0399126101282
30
0
11
1411.13361197714
21
55.2545591760133
31
0
0
LINE
8
layer0
10
1402.0673665829
20
54.0399126101282
30
0
11
1402.0673665829
21
179.613596158872
31
0
0
LINE
8
layer0
10
1402.0673665829
20
179.613596158872
30
0
11
1394.19554768441
21
177.057586676394
31
0
0
LINE
8
layer0
10
1394.19554768441
20
177.057586676394
30
0
11
1394.19554768441
21
51.4839031276501
31
0
0
LINE
8
layer0
10
1394.19554768441
20
51.4839031276501
30
0
11
1402.0673665829
21
54.0399126101282
31
0
0
LINE
8
layer0
10
1394.19554768441
20
51.4839031276501
30
0
11
1394.19554768441
21
177.057586676394
31
0
0
LINE
8
layer0
10
1394.19554768441
20
177.057586676394
30
0
11
1388.28870376164
21
173.410414294233
31
0
0
LINE
8
layer0
10
1388.28870376164
20
173.410414294233
30
0
11
1388.28870376164
21
47.8367307454891
31
0
0
LINE
8
layer0
10
1388.28870376164
20
47.8367307454891
30
0
11
1394.19554768441
21
51.4839031276501
31
0
0
LINE
8
layer0
10
1388.28870376164
20
47.8367307454891
30
0
11
1388.28870376164
21
173.410414294233
31
0
0
LINE
8
layer0
10
1388.28870376164
20
173.410414294233
30
0
11
1225.78870376164
21
32.6812861792615
31
0
0
LINE
8
layer0
10
1225.78870376164
20
32.6812861792615
30
0
11
1225.78870376164
21
-92.8923973694821
31
0
0
LINE
8
layer0
10
1225.78870376164
20
-92.8923973694821
30
0
11
1388.28870376164
21
47.8367307454891
31
0
0
LINE
8
layer0
10
1225.78870376164
20
-92.8923973694821
30
0
11
1225.78870376164
21
32.6812861792615
31
0
0
LINE
8
layer0
10
1225.78870376164
20
32.6812861792615
30
0
11
1222.42503785316
21
28.2999615415279
31
0
0
LINE
8
layer0
10
1222.42503785316
20
28.2999615415279
30
0
11
1222.42503785316
21
-97.2737220072157
31
0
0
LINE
8
layer0
10
1222.42503785316
20
-97.2737220072157
30
0
11
1225.78870376164
21
-92.8923973694821
31
0
0
LINE
8
layer0
10
1222.42503785316
20
-97.2737220072157
30
0
11
1222.42503785316
21
28.2999615415279
31
0
0
LINE
8
layer0
10
1222.42503785316
20
28.2999615415279
30
0
11
1221.93380901413
21
23.6133592302467
31
0
0
LINE
8
layer0
10
1221.93380901413
20
23.6133592302467
30
0
11
1221.93380901413
21
-101.960324318497
31
0
0
LINE
8
layer0
10
1221.93380901413
20
-101.960324318497
30
0
11
1222.42503785316
21
-97.2737220072157
31
0
0
LINE
8
layer0
10
1221.93380901413
20
-101.960324318497
30
0
11
1221.93380901413
21
23.6133592302467
31
0
0
LINE
8
layer0
10
1221.93380901413
20
23.6133592302467
30
0
11
1224.3631021459
21
19.0802365331245
31
0
0
LINE
8
layer0
10
1224.3631021459
20
19.0802365331245
30
0
11
1224.3631021459
21
-106.493447015619
31
0
0
LINE
8
layer0
10
1224.3631021459
20
-106.493447015619
30
0
11
1221.93380901413
21
-101.960324318497
31
0
0
LINE
8
layer0
10
1224.3631021459
20
-106.493447015619
30
0
11
1224.3631021459
21
19.0802365331245
31
0
0
LINE
8
layer0
10
1224.3631021459
20
19.0802365331245
30
0
11
1229.47512111085
21
15.1443270838786
31
0
0
LINE
8
layer0
10
1229.47512111085
20
15.1443270838786
30
0
11
1229.47512111085
21
-110.429356464865
31
0
0
LINE
8
layer0
10
1229.47512111085
20
-110.429356464865
30
0
11
1224.3631021459
21
-106.493447015619
31
0
0
LINE
8
layer0
10
1229.47512111085
20
-110.429356464865
30
0
11
1229.47512111085
21
15.1443270838786
31
0
0
LINE
8
layer0
10
1229.47512111085
20
15.1443270838786
30
0
11
1236.76946587517
21
12.1909051224949
31
0
0
LINE
8
layer0
10
1236.76946587517
20
12.1909051224949
30
0
11
1236.76946587517
21
-113.382778426249
31
0
0
LINE
8
layer0
10
1236.76946587517
20
-113.382778426249
30
0
11
1229.47512111085
21
-110.429356464865
31
0
0
LINE
8
layer0
10
1236.76946587517
20
-113.382778426249
30
0
11
1236.76946587517
21
12.1909051224949
31
0
0
LINE
8
layer0
10
1236.76946587517
20
12.1909051224949
30
0
11
1473.19440110833
21
-56.059094877505
31
0
0
LINE
8
layer0
10
1473.19440110833
20
-56.059094877505
30
0
11
1473.19440110833
21
-181.632778426249
31
0
0
LINE
8
layer0
10
1473.19440110833
20
-181.632778426249
30
0
11
1236.76946587517
21
-113.382778426249
31
0
0
LINE
8
layer0
10
1473.19440110833
20
-181.632778426249
30
0
11
1473.19440110833
21
-56.059094877505
31
0
0
LINE
8
layer0
10
1473.19440110833
20
-56.059094877505
30
0
11
1481.95705038379
21
-57.7409278317456
31
0
0
LINE
8
layer0
10
1481.95705038379
20
-57.7409278317456
30
0
11
1481.95705038379
21
-183.314611380489
31
0
0
LINE
8
layer0
10
1481.95705038379
20
-183.314611380489
30
0
11
1473.19440110833
21
-181.632778426249
31
0
0
LINE
8
layer0
10
1481.95705038379
20
-183.314611380489
30
0
11
1481.95705038379
21
-57.7409278317456
31
0
0
LINE
8
layer0
10
1481.95705038379
20
-57.7409278317456
30
0
11
1491.33025500636
21
-57.9865422512626
31
0
0
LINE
8
layer0
10
1491.33025500636
20
-57.9865422512626
30
0
11
1491.33025500636
21
-183.560225800006
31
0
0
LINE
8
layer0
10
1491.33025500636
20
-183.560225800006
30
0
11
1481.95705038379
21
-183.314611380489
31
0
0
LINE
8
layer0
10
1491.33025500636
20
-183.560225800006
30
0
11
1491.33025500636
21
-57.9865422512626
31
0
0
LINE
8
layer0
10
1491.33025500636
20
-57.9865422512626
30
0
11
1500.3965004006
21
-56.7718956853776
31
0
0
LINE
8
layer0
10
1500.3965004006
20
-56.7718956853776
30
0
11
1500.3965004006
21
-182.345579234121
31
0
0
LINE
8
layer0
10
1500.3965004006
20
-182.345579234121
30
0
11
1491.33025500636
21
-183.560225800006
31
0
0
LINE
8
layer0
10
1500.3965004006
20
-182.345579234121
30
0
11
1500.3965004006
21
-56.7718956853776
31
0
0
LINE
8
layer0
10
1500.3965004006
20
-56.7718956853776
30
0
11
1508.26831929909
21
-54.2158862028994
31
0
0
LINE
8
layer0
10
1508.26831929909
20
-54.2158862028994
30
0
11
1508.26831929909
21
-179.789569751643
31
0
0
LINE
8
layer0
10
1508.26831929909
20
-179.789569751643
30
0
11
1500.3965004006
21
-182.345579234121
31
0
0
LINE
8
layer0
10
1508.26831929909
20
-179.789569751643
30
0
11
1508.26831929909
21
-54.2158862028994
31
0
0
LINE
8
layer0
10
1508.26831929909
20
-54.2158862028994
30
0
11
1514.17516322186
21
-50.5687138207385
31
0
0
LINE
8
layer0
10
1514.17516322186
20
-50.5687138207385
30
0
11
1514.17516322186
21
-176.142397369482
31
0
0
LINE
8
layer0
10
1514.17516322186
20
-176.142397369482
30
0
11
1508.26831929909
21
-179.789569751643
31
0
0
LINE
8
layer0
10
1514.17516322186
20
-176.142397369482
30
0
11
1514.17516322186
21
-50.5687138207385
31
0
0
LINE
8
layer0
10
1514.17516322186
20
-50.5687138207385
30
0
11
1676.67516322186
21
90.1604142942327
31
0
0
LINE
8
layer0
10
1676.67516322186
20
90.1604142942327
30
0
11
1676.67516322186
21
-35.4132692545109
31
0
0
LINE
8
layer0
10
1676.67516322186
20
-35.4132692545109
30
0
11
1514.17516322186
21
-176.142397369482
31
0
0
LINE
8
layer0
10
1676.67516322186
20
-35.4132692545109
30
0
11
1676.67516322186
21
90.1604142942327
31
0
0
LINE
8
layer0
10
1676.67516322186
20
90.1604142942327
30
0
11
1680.03882913034
21
94.5417389319664
31
0
0
LINE
8
layer0
10
1680.03882913034
20
94.5417389319664
30
0
11
1680.03882913034
21
-31.0319446167772
31
0
0
LINE
8
layer0
10
1680.03882913034
20
-31.0319446167772
30
0
11
1676.67516322186
21
-35.4132692545109
31
0
0
LINE
8
layer0
10
1680.03882913034
20
-31.0319446167772
30
0
11
1680.03882913034
21
94.5417389319664
31
0
0
LINE
8
layer0
10
1680.03882913034
20
94.5417389319664
30
0
11
1680.53005796937
21
99.2283412432475
31
0
0
LINE
8
layer0
10
1680.53005796937
20
99.2283412432475
30
0
11
1680.53005796937
21
-26.345342305496
31
0
0
LINE
8
layer0
10
1680.53005796937
20
-26.345342305496
30
0
11
1680.03882913034
21
-31.0319446167772
31
0
0
LINE
8
layer0
10
1680.53005796937
20
-26.345342305496
30
0
11
1680.53005796937
21
99.2283412432475
31
0
0
LINE
8
layer0
10
1680.53005796937
20
99.2283412432475
30
0
11
1678.1007648376
21
103.76146394037
31
0
0
LINE
8
layer0
10
1678.1007648376
20
103.76146394037
30
0
11
1678.1007648376
21
-21.8122196083738
31
0
0
LINE
8
layer0
10
1678.1007648376
20
-21.8122196083738
30
0
11
1680.53005796937
21
-26.345342305496
31
0
0
LINE
8
layer0
10
1678.1007648376
20
-21.8122196083738
30
0
11
1678.1007648376
21
103.76146394037
31
0
0
LINE
8
layer0
10
1678.1007648376
20
103.76146394037
30
0
11
1672.98874587265
21
107.697373389616
31
0
0
LINE
8
layer0
10
1672.98874587265
20
107.697373389616
30
0
11
1672.98874587265
21
-17.876310159128
31
0
0
LINE
8
layer0
10
1672.98874587265
20
-17.876310159128
30
0
11
1678.1007648376
21
-21.8122196083738
31
0
0
LINE
8
layer0
10
1672.98874587265
20
-17.876310159128
30
0
11
1672.98874587265
21
107.697373389616
31
0
0
LINE
8
layer0
10
1672.98874587265
20
107.697373389616
30
0
11
1665.69440110833
21
110.650795350999
31
0
0
LINE
8
layer0
10
1665.69440110833
20
110.650795350999
30
0
11
1665.69440110833
21
-14.9228881977442
31
0
0
LINE
8
layer0
10
1665.69440110833
20
-14.9228881977442
30
0
11
1672.98874587265
21
-17.876310159128
31
0
0
LINE
8
layer0
10
1673.43959163671
20
109.85832710573
30
0
11
1428.35440236571
21
180.60832710573
31
0
0
LINE
8
layer0
10
1428.35440236571
20
180.60832710573
30
0
11
1419.59175309025
21
182.29016005997
31
0
0
LINE
8
layer0
10
1419.59175309025
20
182.29016005997
30
0
11
1417.32236290117
21
182.349626910039
31
0
0
LINE
8
layer0
10
1417.32236290117
20
182.349626910039
30
0
11
1681.97163110125
21
105.95196379196
31
0
0
LINE
8
layer0
10
1681.97163110125
20
105.95196379196
30
0
11
1680.73393640103
21
106.904905144346
31
0
0
LINE
8
layer0
10
1680.73393640103
20
106.904905144346
30
0
11
1673.43959163671
21
109.85832710573
31
0
0
LINE
8
layer0
10
1410.34829038519
20
182.532374736599
30
0
11
1429.26946587517
21
178.900795350999
31
0
0
LINE
8
layer0
10
1429.26946587517
20
178.900795350999
30
0
11
1417.32236290117
21
182.349626910039
31
0
0
LINE
8
layer0
10
1417.32236290117
20
182.349626910039
30
0
11
1410.34829038519
21
182.532374736599
31
0
0
LINE
8
layer0
10
1400.49305256134
20
181.107066769413
30
0
11
1420.50681659971
21
180.58262830524
31
0
0
LINE
8
layer0
10
1420.50681659971
20
180.58262830524
30
0
11
1410.34829038519
21
182.532374736599
31
0
0
LINE
8
layer0
10
1410.34829038519
20
182.532374736599
30
0
11
1410.21854846768
21
182.535774479487
31
0
0
LINE
8
layer0
10
1410.21854846768
20
182.535774479487
30
0
11
1401.15230307344
21
181.321127913602
31
0
0
LINE
8
layer0
10
1401.15230307344
20
181.321127913602
30
0
11
1400.49305256134
21
181.107066769413
31
0
0
LINE
8
layer0
10
1392.60052763736
20
178.345280233705
30
0
11
1411.13361197714
21
180.828242724757
31
0
0
LINE
8
layer0
10
1411.13361197714
20
180.828242724757
30
0
11
1400.49305256134
21
181.107066769413
31
0
0
LINE
8
layer0
10
1400.49305256134
20
181.107066769413
30
0
11
1393.28048417495
21
178.765118431124
31
0
0
LINE
8
layer0
10
1393.28048417495
20
178.765118431124
30
0
11
1392.60052763736
21
178.345280233705
31
0
0
LINE
8
layer0
10
1386.8647771065
20
174.677257637751
30
0
11
1402.0673665829
21
179.613596158872
31
0
0
LINE
8
layer0
10
1402.0673665829
20
179.613596158872
30
0
11
1392.60052763736
21
178.345280233705
31
0
0
LINE
8
layer0
10
1392.60052763736
20
178.345280233705
30
0
11
1387.37364025218
21
175.117946048963
31
0
0
LINE
8
layer0
10
1387.37364025218
20
175.117946048963
30
0
11
1386.8647771065
21
174.677257637751
31
0
0
LINE
8
layer0
10
1378.23145085884
20
167.200577788119
30
0
11
1394.19554768441
21
177.057586676394
31
0
0
LINE
8
layer0
10
1394.19554768441
20
177.057586676394
30
0
11
1386.8647771065
21
174.677257637751
31
0
0
LINE
8
layer0
10
1386.8647771065
20
174.677257637751
30
0
11
1378.23145085884
21
167.200577788119
31
0
0
LINE
8
layer0
10
1216.39104064356
20
24.5426711827976
30
0
11
1388.28870376164
21
173.410414294233
31
0
0
LINE
8
layer0
10
1388.28870376164
20
173.410414294233
30
0
11
1378.23145085884
21
167.200577788119
31
0
0
LINE
8
layer0
10
1378.23145085884
20
167.200577788119
30
0
11
1219.87364025218
21
30.0586909150699
31
0
0
LINE
8
layer0
10
1219.87364025218
20
30.0586909150699
30
0
11
1216.5099743437
21
25.6773662773363
31
0
0
LINE
8
layer0
10
1216.5099743437
20
25.6773662773363
30
0
11
1216.39104064356
21
24.5426711827976
31
0
0
LINE
8
layer0
10
1216.34548075639
20
20.3810676860331
30
0
11
1225.78870376164
21
32.6812861792615
31
0
0
LINE
8
layer0
10
1225.78870376164
20
32.6812861792615
30
0
11
1216.39104064356
21
24.5426711827976
31
0
0
LINE
8
layer0
10
1216.39104064356
20
24.5426711827976
30
0
11
1216.01874550467
21
20.9907639660551
31
0
0
LINE
8
layer0
10
1216.01874550467
20
20.9907639660551
30
0
11
1216.34548075639
21
20.3810676860331
31
0
0
LINE
8
layer0
10
1220.97948817503
20
14.5085960428608
30
0
11
1222.42503785316
21
28.299961541528
31
0
0
LINE
8
layer0
10
1222.42503785316
20
28.299961541528
30
0
11
1216.34548075639
21
20.3810676860331
31
0
0
LINE
8
layer0
10
1216.34548075639
20
20.3810676860331
30
0
11
1218.44803863644
21
16.4576412689329
31
0
0
LINE
8
layer0
10
1218.44803863644
20
16.4576412689329
30
0
11
1220.97948817503
21
14.5085960428608
31
0
0
LINE
8
layer0
10
1229.0742743762
20
10.2890694697803
30
0
11
1221.93380901413
21
23.6133592302468
31
0
0
LINE
8
layer0
10
1221.93380901413
20
23.6133592302468
30
0
11
1220.97948817503
21
14.5085960428608
31
0
0
LINE
8
layer0
10
1220.97948817503
20
14.5085960428608
30
0
11
1223.56005760139
21
12.521731819687
31
0
0
LINE
8
layer0
10
1223.56005760139
20
12.521731819687
30
0
11
1229.0742743762
21
10.2890694697803
31
0
0
LINE
8
layer0
10
1240.23413196565
20
6.8606151535796
30
0
11
1224.3631021459
21
19.0802365331245
31
0
0
LINE
8
layer0
10
1224.3631021459
20
19.0802365331245
30
0
11
1229.0742743762
21
10.2890694697803
31
0
0
LINE
8
layer0
10
1229.0742743762
20
10.2890694697803
30
0
11
1230.85440236571
21
9.56830985830334
31
0
0
LINE
8
layer0
10
1230.85440236571
20
9.56830985830334
30
0
11
1240.23413196565
21
6.8606151535796
31
0
0
LINE
8
layer0
10
1274.02848491186
20
-2.89497423171213
30
0
11
1229.47512111085
21
15.1443270838786
31
0
0
LINE
8
layer0
10
1229.47512111085
20
15.1443270838786
30
0
11
1240.23413196565
21
6.8606151535796
31
0
0
LINE
8
layer0
10
1240.23413196565
20
6.8606151535796
30
0
11
1274.02848491186
21
-2.89497423171213
31
0
0
LINE
8
layer0
10
1496.49400694187
20
-62.7851117275106
30
0
11
1236.76946587517
21
12.1909051224951
31
0
0
LINE
8
layer0
10
1236.76946587517
20
12.1909051224951
30
0
11
1274.02848491186
21
-2.89497423171213
31
0
0
LINE
8
layer0
10
1274.02848491186
20
-2.89497423171213
30
0
11
1475.93959163671
21
-61.1816901416967
31
0
0
LINE
8
layer0
10
1475.93959163671
20
-61.1816901416967
30
0
11
1484.70224091218
21
-62.8635230959372
31
0
0
LINE
8
layer0
10
1484.70224091218
20
-62.8635230959372
30
0
11
1494.07544553474
21
-63.1091375154542
31
0
0
LINE
8
layer0
10
1494.07544553474
20
-63.1091375154542
30
0
11
1496.49400694187
21
-62.7851117275106
31
0
0
LINE
8
layer0
10
1503.31115714717
20
-61.8394646251289
30
0
11
1473.19440110833
21
-56.059094877505
31
0
0
LINE
8
layer0
10
1473.19440110833
20
-56.059094877505
30
0
11
1496.49400694187
21
-62.7851117275106
31
0
0
LINE
8
layer0
10
1496.49400694187
20
-62.7851117275106
30
0
11
1503.14169092898
21
-61.8944909495692
31
0
0
LINE
8
layer0
10
1503.14169092898
20
-61.8944909495692
30
0
11
1503.31115714717
21
-61.8394646251289
31
0
0
LINE
8
layer0
10
1512.31259810943
20
-58.5363612543559
30
0
11
1481.95705038379
21
-57.7409278317455
31
0
0
LINE
8
layer0
10
1481.95705038379
20
-57.7409278317455
30
0
11
1503.31115714717
21
-61.8394646251289
31
0
0
LINE
8
layer0
10
1503.31115714717
20
-61.8394646251289
30
0
11
1511.01350982748
21
-59.338481467091
31
0
0
LINE
8
layer0
10
1511.01350982748
20
-59.338481467091
30
0
11
1512.31259810943
21
-58.5363612543559
31
0
0
LINE
8
layer0
10
1518.46832005023
20
-54.3507309449378
30
0
11
1491.33025500636
21
-57.9865422512626
31
0
0
LINE
8
layer0
10
1491.33025500636
20
-57.9865422512626
30
0
11
1512.31259810943
21
-58.5363612543559
31
0
0
LINE
8
layer0
10
1512.31259810943
20
-58.5363612543559
30
0
11
1516.92035375024
21
-55.6913090849301
31
0
0
LINE
8
layer0
10
1516.92035375024
20
-55.6913090849301
30
0
11
1518.46832005023
21
-54.3507309449378
31
0
0
LINE
8
layer0
10
1524.83574315969
20
-48.8363807755023
30
0
11
1500.3965004006
21
-56.7718956853776
31
0
0
LINE
8
layer0
10
1500.3965004006
20
-56.7718956853776
30
0
11
1518.46832005023
21
-54.3507309449378
31
0
0
LINE
8
layer0
10
1518.46832005023
20
-54.3507309449378
30
0
11
1524.83574315969
21
-48.8363807755023
31
0
0
LINE
8
layer0
10
1544.34692193027
20
-31.9392043023969
30
0
11
1508.26831929909
21
-54.2158862028994
31
0
0
LINE
8
layer0
10
1508.26831929909
20
-54.2158862028994
30
0
11
1524.83574315969
21
-48.8363807755023
31
0
0
LINE
8
layer0
10
1524.83574315969
20
-48.8363807755023
30
0
11
1544.34692193027
21
-31.9392043023969
31
0
0
LINE
8
layer0
10
1687.62719692187
20
99.6451537015458
30
0
11
1514.17516322186
21
-50.5687138207384
31
0
0
LINE
8
layer0
10
1514.17516322186
20
-50.5687138207384
30
0
11
1544.34692193027
21
-31.9392043023969
31
0
0
LINE
8
layer0
10
1544.34692193027
20
-31.9392043023969
30
0
11
1684.42035375024
21
89.3679460489633
31
0
0
LINE
8
layer0
10
1684.42035375024
20
89.3679460489633
30
0
11
1687.78401965872
21
93.7492706866969
31
0
0
LINE
8
layer0
10
1687.78401965872
20
93.7492706866969
30
0
11
1688.27524849776
21
98.4358729979781
31
0
0
LINE
8
layer0
10
1688.27524849776
20
98.4358729979781
30
0
11
1687.62719692187
21
99.6451537015458
31
0
0
LINE
8
layer0
10
1686.11838622712
20
102.460632787461
30
0
11
1676.67516322186
21
90.1604142942327
31
0
0
LINE
8
layer0
10
1676.67516322186
20
90.1604142942327
30
0
11
1687.62719692187
21
99.6451537015458
31
0
0
LINE
8
layer0
10
1687.62719692187
20
99.6451537015458
30
0
11
1686.11838622712
21
102.460632787461
31
0
0
LINE
8
layer0
10
1681.97163110125
20
105.95196379196
30
0
11
1681.25643827344
21
106.158422177792
31
0
0
LINE
8
layer0
10
1681.25643827344
20
106.158422177792
30
0
11
1680.03882913034
21
94.5417389319664
31
0
0
LINE
8
layer0
10
1680.03882913034
20
94.5417389319664
30
0
11
1686.11838622712
21
102.460632787461
31
0
0
LINE
8
layer0
10
1686.11838622712
20
102.460632787461
30
0
11
1685.84595536599
21
102.9689956951
31
0
0
LINE
8
layer0
10
1685.84595536599
20
102.9689956951
30
0
11
1681.97163110125
21
105.95196379196
31
0
0
LINE
8
layer0
10
1676.00362588511
20
107.674778500994
30
0
11
1680.53005796937
21
99.2283412432475
31
0
0
LINE
8
layer0
10
1680.53005796937
20
99.2283412432475
30
0
11
1681.25643827344
21
106.158422177792
31
0
0
LINE
8
layer0
10
1681.25643827344
20
106.158422177792
30
0
11
1676.00362588511
21
107.674778500994
31
0
0
LINE
8
layer0
10
1671.22726418412
20
109.053595357901
30
0
11
1678.1007648376
21
103.76146394037
31
0
0
LINE
8
layer0
10
1678.1007648376
20
103.76146394037
30
0
11
1676.00362588511
21
107.674778500994
31
0
0
LINE
8
layer0
10
1676.00362588511
20
107.674778500994
30
0
11
1671.22726418412
21
109.053595357901
31
0
0
LINE
8
layer0
10
1665.69440110833
20
110.650795350999
30
0
11
1672.98874587265
21
107.697373389616
31
0
0
LINE
8
layer0
10
1672.98874587265
20
107.697373389616
30
0
11
1671.22726418412
21
109.053595357901
31
0
0
LINE
8
layer0
10
1671.22726418412
20
109.053595357901
30
0
11
1665.69440110833
21
110.650795350999
31
0
0
ENDBLK
0
BLOCK
8
layer0
2
PF_OBJECT60
70
0
10
0
20
0
30
0
0
LINE
8
layer0
10
1611.63007914898
20
182.652049566158
30
0
11
1599.98193349175
21
190.242129049682
31
0
0
LINE
8
layer0
10
1599.98193349175
20
190.242129049682
30
0
11
1592.48193349175
21
218.387954672677
31
0
0
LINE
8
layer0
10
1592.48193349175
20
218.387954672677
30
0
11
1597.14119175464
21
215.351922879267
31
0
0
LINE
8
layer0
10
1597.14119175464
20
215.351922879267
30
0
11
1611.63007914898
21
182.652049566158
31
0
0
LINE
8
layer0
10
1609.13256858636
20
173.166811502377
30
0
11
1611.63007914898
21
182.652049566158
31
0
0
LINE
8
layer0
10
1611.63007914898
20
182.652049566158
30
0
11
1597.14119175464
21
215.351922879267
31
0
0
LINE
8
layer0
10
1597.14119175464
20
215.351922879267
30
0
11
1596.1421875296
21
211.557827653755
31
0
0
LINE
8
layer0
10
1596.1421875296
20
211.557827653755
30
0
11
1609.13256858636
21
173.166811502377
31
0
0
LINE
8
layer0
10
1593.95240961931
20
167.342738673764
30
0
11
1609.13256858636
21
173.166811502377
31
0
0
LINE
8
layer0
10
1609.13256858636
20
173.166811502377
30
0
11
1596.1421875296
21
211.557827653755
31
0
0
LINE
8
layer0
10
1596.1421875296
20
211.557827653755
30
0
11
1590.07012394278
21
209.228198522309
31
0
0
LINE
8
layer0
10
1590.07012394278
20
209.228198522309
30
0
11
1593.95240961931
21
167.342738673764
31
0
0
LINE
8
layer0
10
1574.98193349175
20
168.591493955071
30
0
11
1593.95240961931
21
167.342738673764
31
0
0
LINE
8
layer0
10
1593.95240961931
20
167.342738673764
30
0
11
1590.07012394278
21
209.228198522309
31
0
0
LINE
8
layer0
10
1590.07012394278
20
209.228198522309
30
0
11
1582.48193349175
21
209.727700634832
31
0
0
LINE
8
layer0
10
1582.48193349175
20
209.727700634832
30
0
11
1574.98193349175
21
168.591493955071
31
0
0
LINE
8
layer0
10
1563.33378783452
20
176.181573438595
30
0
11
1574.98193349175
21
168.591493955071
31
0
0
LINE
8
layer0
10
1574.98193349175
20
168.591493955071
30
0
11
1582.48193349175
21
209.727700634832
31
0
0
LINE
8
layer0
10
1582.48193349175
20
209.727700634832
30
0
11
1577.82267522886
21
212.763732428242
31
0
0
LINE
8
layer0
10
1577.82267522886
20
212.763732428242
30
0
11
1563.33378783452
21
176.181573438595
31
0
0
LINE
8
layer0
10
1565.83129839714
20
185.666811502377
30
0
11
1563.33378783452
21
176.181573438595
31
0
0
LINE
8
layer0
10
1563.33378783452
20
176.181573438595
30
0
11
1577.82267522886
21
212.763732428242
31
0
0
LINE
8
layer0
10
1577.82267522886
20
212.763732428242
30
0
11
1578.82167945391
21
216.557827653755
31
0
0
LINE
8
layer0
10
1578.82167945391
20
216.557827653755
30
0
11
1565.83129839714
21
185.666811502377
31
0
0
LINE
8
layer0
10
1581.01145736419
20
191.49088433099
30
0
11
1565.83129839714
21
185.666811502377
31
0
0
LINE
8
layer0
10
1565.83129839714
20
185.666811502377
30
0
11
1578.82167945391
21
216.557827653755
31
0
0
LINE
8
layer0
10
1578.82167945391
20
216.557827653755
30
0
11
1584.89374304073
21
218.8874567852
31
0
0
LINE
8
layer0
10
1584.89374304073
20
218.8874567852
30
0
11
1581.01145736419
21
191.49088433099
31
0
0
LINE
8
layer0
10
1599.98193349175
20
190.242129049682
30
0
11
1581.01145736419
21
191.49088433099
31
0
0
LINE
8
layer0
10
1581.01145736419
20
191.49088433099
30
0
11
1584.89374304073
21
218.8874567852
31
0
0
LINE
8
layer0
10
1584.89374304073
20
218.8874567852
30
0
11
1592.48193349175
21
218.387954672677
31
0
0
LINE
8
layer0
10
1592.48193349175
20
218.387954672677
30
0
11
1599.98193349175
21
190.242129049682
31
0
0
LINE
8
layer0
10
1592.48193349175
20
218.387954672677
30
0
11
1584.89374304073
21
218.8874567852
31
0
0
LINE
8
layer0
10
1584.89374304073
20
218.8874567852
30
0
11
1578.82167945391
21
216.557827653755
31
0
0
LINE
8
layer0
10
1578.82167945391
20
216.557827653755
30
0
11
1577.82267522886
21
212.763732428242
31
0
0
LINE
8
layer0
10
1577.82267522886
20
212.763732428242
30
0
11
1582.48193349175
21
209.727700634832
31
0
0
LINE
8
layer0
10
1582.48193349175
20
209.727700634832
30
0
11
1590.07012394278
21
209.228198522309
31
0
0
LINE
8
layer0
10
1590.07012394278
20
209.228198522309
30
0
11
1596.1421875296
21
211.557827653755
31
0
0
LINE
8
layer0
10
1596.1421875296
20
211.557827653755
30
0
11
1597.14119175464
21
215.351922879267
31
0
0
LINE
8
layer0
10
1597.14119175464
20
215.351922879267
30
0
11
1592.48193349175
21
218.387954672677
31
0
0
LINE
8
layer0
10
1581.01145736419
20
191.49088433099
30
0
11
1599.98193349175
21
190.242129049682
31
0
0
LINE
8
layer0
10
1599.98193349175
20
190.242129049682
30
0
11
1611.63007914898
21
182.652049566158
31
0
0
LINE
8
layer0
10
1611.63007914898
20
182.652049566158
30
0
11
1609.13256858636
21
173.166811502377
31
0
0
LINE
8
layer0
10
1609.13256858636
20
173.166811502377
30
0
11
1593.95240961931
21
167.342738673764
31
0
0
LINE
8
layer0
10
1593.95240961931
20
167.342738673764
30
0
11
1574.98193349175
21
168.591493955071
31
0
0
LINE
8
layer0
10
1574.98193349175
20
168.591493955071
30
0
11
1563.33378783452
21
176.181573438595
31
0
0
LINE
8
layer0
10
1563.33378783452
20
176.181573438595
30
0
11
1565.83129839714
21
185.666811502377
31
0
0
LINE
8
layer0
10
1565.83129839714
20
185.666811502377
30
0
11
1581.01145736419
21
191.49088433099
31
0
0
ENDBLK
0
BLOCK
8
layer0
2
PF_OBJECT61
70
0
10
0
20
0
30
0
0
LINE
8
layer0
10
1594.72637718892
20
215.028399072889
30
0
11
1591.23193349175
21
217.305422917946
31
0
0
LINE
8
layer0
10
1591.23193349175
20
217.305422917946
30
0
11
1591.23193349175
21
312.568217334234
31
0
0
LINE
8
layer0
10
1591.23193349175
20
312.568217334234
30
0
11
1594.72637718892
21
310.291193489177
31
0
0
LINE
8
layer0
10
1594.72637718892
20
310.291193489177
30
0
11
1594.72637718892
21
215.028399072889
31
0
0
LINE
8
layer0
10
1593.97712402013
20
212.182827653755
30
0
11
1594.72637718892
21
215.028399072889
31
0
0
LINE
8
layer0
10
1594.72637718892
20
215.028399072889
30
0
11
1594.72637718892
21
310.291193489177
31
0
0
LINE
8
layer0
10
1594.72637718892
20
310.291193489177
30
0
11
1593.97712402013
21
307.445622070043
31
0
0
LINE
8
layer0
10
1593.97712402013
20
307.445622070043
30
0
11
1593.97712402013
21
212.182827653755
31
0
0
LINE
8
layer0
10
1589.42307633002
20
210.435605805171
30
0
11
1593.97712402013
21
212.182827653755
31
0
0
LINE
8
layer0
10
1593.97712402013
20
212.182827653755
30
0
11
1593.97712402013
21
307.445622070043
31
0
0
LINE
8
layer0
10
1593.97712402013
20
307.445622070043
30
0
11
1589.42307633002
21
305.698400221459
31
0
0
LINE
8
layer0
10
1589.42307633002
20
305.698400221459
30
0
11
1589.42307633002
21
210.435605805171
31
0
0
LINE
8
layer0
10
1583.73193349175
20
210.810232389563
30
0
11
1589.42307633002
21
210.435605805171
31
0
0
LINE
8
layer0
10
1589.42307633002
20
210.435605805171
30
0
11
1589.42307633002
21
305.698400221459
31
0
0
LINE
8
layer0
10
1589.42307633002
20
305.698400221459
30
0
11
1583.73193349175
21
306.073026805851
31
0
0
LINE
8
layer0
10
1583.73193349175
20
306.073026805851
30
0
11
1583.73193349175
21
210.810232389563
31
0
0
LINE
8
layer0
10
1580.23748979458
20
213.08725623462
30
0
11
1583.73193349175
21
210.810232389563
31
0
0
LINE
8
layer0
10
1583.73193349175
20
210.810232389563
30
0
11
1583.73193349175
21
306.073026805851
31
0
0
LINE
8
layer0
10
1583.73193349175
20
306.073026805851
30
0
11
1580.23748979458
21
308.350050650908
31
0
0
LINE
8
layer0
10
1580.23748979458
20
308.350050650908
30
0
11
1580.23748979458
21
213.08725623462
31
0
0
LINE
8
layer0
10
1580.98674296337
20
215.932827653755
30
0
11
1580.23748979458
21
213.08725623462
31
0
0
LINE
8
layer0
10
1580.23748979458
20
213.08725623462
30
0
11
1580.23748979458
21
308.350050650908
31
0
0
LINE
8
layer0
10
1580.23748979458
20
308.350050650908
30
0
11
1580.98674296337
21
311.195622070043
31
0
0
LINE
8
layer0
10
1580.98674296337
20
311.195622070043
30
0
11
1580.98674296337
21
215.932827653755
31
0
0
LINE
8
layer0
10
1585.54079065348
20
217.680049502339
30
0
11
1580.98674296337
21
215.932827653755
31
0
0
LINE
8
layer0
10
1580.98674296337
20
215.932827653755
30
0
11
1580.98674296337
21
311.195622070043
31
0
0
LINE
8
layer0
10
1580.98674296337
20
311.195622070043
30
0
11
1585.54079065348
21
312.942843918627
31
0
0
LINE
8
layer0
10
1585.54079065348
20
312.942843918627
30
0
11
1585.54079065348
21
217.680049502339
31
0
0
LINE
8
layer0
10
1591.23193349175
20
217.305422917946
30
0
11
1585.54079065348
21
217.680049502339
31
0
0
LINE
8
layer0
10
1585.54079065348
20
217.680049502339
30
0
11
1585.54079065348
21
312.942843918627
31
0
0
LINE
8
layer0
10
1585.54079065348
20
312.942843918627
30
0
11
1591.23193349175
21
312.568217334234
31
0
0
LINE
8
layer0
10
1591.23193349175
20
312.568217334234
30
0
11
1591.23193349175
21
217.305422917946
31
0
0
LINE
8
layer0
10
1591.23193349175
20
312.568217334234
30
0
11
1585.54079065348
21
312.942843918627
31
0
0
LINE
8
layer0
10
1585.54079065348
20
312.942843918627
30
0
11
1580.98674296337
21
311.195622070043
31
0
0
LINE
8
layer0
10
1580.98674296337
20
311.195622070043
30
0
11
1580.23748979458
21
308.350050650908
31
0
0
LINE
8
layer0
10
1580.23748979458
20
308.350050650908
30
0
11
1583.73193349175
21
306.073026805851
31
0
0
LINE
8
layer0
10
1583.73193349175
20
306.073026805851
30
0
11
1589.42307633002
21
305.698400221459
31
0
0
LINE
8
layer0
10
1589.42307633002
20
305.698400221459
30
0
11
1593.97712402013
21
307.445622070043
31
0
0
LINE
8
layer0
10
1593.97712402013
20
307.445622070043
30
0
11
1594.72637718892
21
310.291193489177
31
0
0
LINE
8
layer0
10
1594.72637718892
20
310.291193489177
30
0
11
1591.23193349175
21
312.568217334234
31
0
0
LINE
8
layer0
10
1585.54079065348
20
217.680049502339
30
0
11
1591.23193349175
21
217.305422917946
31
0
0
LINE
8
layer0
10
1591.23193349175
20
217.305422917946
30
0
11
1594.72637718892
21
215.028399072889
31
0
0
LINE
8
layer0
10
1594.72637718892
20
215.028399072889
30
0
11
1593.97712402013
21
212.182827653755
31
0
0
LINE
8
layer0
10
1593.97712402013
20
212.182827653755
30
0
11
1589.42307633002
21
210.435605805171
31
0
0
LINE
8
layer0
10
1589.42307633002
20
210.435605805171
30
0
11
1583.73193349175
21
210.810232389563
31
0
0
LINE
8
layer0
10
1583.73193349175
20
210.810232389563
30
0
11
1580.23748979458
21
213.08725623462
31
0
0
LINE
8
layer0
10
1580.23748979458
20
213.08725623462
30
0
11
1580.98674296337
21
215.932827653755
31
0
0
LINE
8
layer0
10
1580.98674296337
20
215.932827653755
30
0
11
1585.54079065348
21
217.680049502339
31
0
0
ENDBLK
0
BLOCK
8
layer0
2
PF_OBJECT62
70
0
10
0
20
0
30
0
0
LINE
8
layer0
10
1529.87238360942
20
265.32928837136
30
0
11
1529.78578106904
21
265.35428837136
31
0
0
LINE
8
layer0
10
1529.78578106904
20
265.35428837136
30
0
11
1525.39567766626
21
263.331249403104
31
0
0
LINE
8
layer0
10
1525.39567766626
20
263.331249403104
30
0
11
1525.14624251529
21
260.348736341066
31
0
0
LINE
8
layer0
10
1525.14624251529
20
260.348736341066
30
0
11
1529.18322652268
21
258.149502685929
31
0
0
LINE
8
layer0
10
1529.18322652268
20
258.149502685929
30
0
11
1535.14772367033
21
258.018613103493
31
0
0
LINE
8
layer0
10
1535.14772367033
20
258.018613103493
30
0
11
1539.55453605041
21
260.03254949786
31
0
0
LINE
8
layer0
10
1539.55453605041
20
260.03254949786
30
0
11
1539.82865810804
21
263.014520811143
31
0
0
LINE
8
layer0
10
1539.82865810804
20
263.014520811143
30
0
11
1535.80991378847
21
265.222090099374
31
0
0
LINE
8
layer0
10
1535.80991378847
20
265.222090099374
30
0
11
1529.87238360942
21
265.32928837136
31
0
0
LINE
8
layer0
10
1579.87238360942
20
308.630558560582
30
0
11
1579.78578106904
21
308.655558560582
31
0
0
LINE
8
layer0
10
1579.78578106904
20
308.655558560582
30
0
11
1581.09473564636
21
311.568048580735
31
0
0
LINE
8
layer0
10
1581.09473564636
20
311.568048580735
30
0
11
1586.13588222857
21
313.167313700421
31
0
0
LINE
8
layer0
10
1586.13588222857
20
313.167313700421
30
0
11
1591.96355866067
21
312.518865175455
31
0
0
LINE
8
layer0
10
1591.96355866067
20
312.518865175455
30
0
11
1595.17251464146
21
310.001606941342
31
0
0
LINE
8
layer0
10
1595.17251464146
20
310.001606941342
30
0
11
1593.88768067324
21
307.086433008727
31
0
0
LINE
8
layer0
10
1593.88768067324
20
307.086433008727
30
0
11
1588.85981588074
21
305.476749019261
31
0
0
LINE
8
layer0
10
1588.85981588074
20
305.476749019261
30
0
11
1583.02682155251
21
306.113131711178
31
0
0
LINE
8
layer0
10
1583.02682155251
20
306.113131711178
30
0
11
1579.87238360942
21
308.630558560582
31
0
0
LINE
8
layer0
10
1529.78578106904
20
265.35428837136
30
0
11
1529.87238360942
21
265.32928837136
31
0
0
LINE
8
layer0
10
1529.87238360942
20
265.32928837136
30
0
11
1535.80991378847
21
265.222090099374
31
0
0
LINE
8
layer0
10
1535.80991378847
20
265.222090099374
30
0
11
1539.82865810804
21
263.014520811143
31
0
0
LINE
8
layer0
10
1539.82865810804
20
263.014520811143
30
0
11
1539.55453605041
21
260.03254949786
31
0
0
LINE
8
layer0
10
1539.55453605041
20
260.03254949786
30
0
11
1535.14772367033
21
258.018613103493
31
0
0
LINE
8
layer0
10
1535.14772367033
20
258.018613103493
30
0
11
1529.18322652268
21
258.149502685929
31
0
0
LINE
8
layer0
10
1529.18322652268
20
258.149502685929
30
0
11
1525.14624251529
21
260.348736341066
31
0
0
LINE
8
layer0
10
1525.14624251529
20
260.348736341066
30
0
11
1525.39567766626
21
263.331249403104
31
0
0
LINE
8
layer0
10
1525.39567766626
20
263.331249403104
30
0
11
1529.78578106904
21
265.35428837136
31
0
0
LINE
8
layer0
10
1579.78578106904
20
308.655558560582
30
0
11
1579.87238360942
21
308.630558560582
31
0
0
LINE
8
layer0
10
1579.87238360942
20
308.630558560582
30
0
11
1583.02682155251
21
306.113131711178
31
0
0
LINE
8
layer0
10
1583.02682155251
20
306.113131711178
30
0
11
1588.85981588074
21
305.476749019261
31
0
0
LINE
8
layer0
10
1588.85981588074
20
305.476749019261
30
0
11
1593.88768067324
21
307.086433008727
31
0
0
LINE
8
layer0
10
1593.88768067324
20
307.086433008727
30
0
11
1595.17251464146
21
310.001606941342
31
0
0
LINE
8
layer0
10
1595.17251464146
20
310.001606941342
30
0
11
1591.96355866067
21
312.518865175455
31
0
0
LINE
8
layer0
10
1591.96355866067
20
312.518865175455
30
0
11
1586.13588222857
21
313.167313700421
31
0
0
LINE
8
layer0
10
1586.13588222857
20
313.167313700421
30
0
11
1581.09473564636
21
311.568048580735
31
0
0
LINE
8
layer0
10
1581.09473564636
20
311.568048580735
30
0
11
1579.78578106904
21
308.655558560582
31
0
0
LINE
8
layer0
10
1529.78578106904
20
265.35428837136
30
0
11
1525.39567766626
21
263.331249403104
31
0
0
LINE
8
layer0
10
1525.39567766626
20
263.331249403104
30
0
11
1526.00425669313
21
273.887288777239
31
0
0
LINE
8
layer0
10
1526.00425669313
20
273.887288777239
30
0
11
1530.3320910507
21
274.830246993412
31
0
0
LINE
8
layer0
10
1530.3320910507
20
274.830246993412
30
0
11
1529.78578106904
21
265.35428837136
31
0
0
LINE
8
layer0
10
1525.39567766626
20
263.331249403104
30
0
11
1525.14624251529
21
260.348736341066
31
0
0
LINE
8
layer0
10
1525.14624251529
20
260.348736341066
30
0
11
1525.81262749435
21
271.907442387003
31
0
0
LINE
8
layer0
10
1525.81262749435
20
271.907442387003
30
0
11
1526.00425669313
21
273.887288777239
31
0
0
LINE
8
layer0
10
1526.00425669313
20
273.887288777239
30
0
11
1525.39567766626
21
263.331249403104
31
0
0
LINE
8
layer0
10
1525.14624251529
20
260.348736341066
30
0
11
1529.18322652268
21
258.149502685929
31
0
0
LINE
8
layer0
10
1529.18322652268
20
258.149502685929
30
0
11
1529.86917696465
21
270.047579278294
31
0
0
LINE
8
layer0
10
1529.86917696465
20
270.047579278294
30
0
11
1525.81262749435
21
271.907442387003
31
0
0
LINE
8
layer0
10
1525.81262749435
20
271.907442387003
30
0
11
1525.14624251529
21
260.348736341066
31
0
0
LINE
8
layer0
10
1529.18322652268
20
258.149502685929
30
0
11
1535.14772367033
21
258.018613103493
31
0
0
LINE
8
layer0
10
1535.14772367033
20
258.018613103493
30
0
11
1535.80356651942
21
269.394461814287
31
0
0
LINE
8
layer0
10
1535.80356651942
20
269.394461814287
30
0
11
1529.86917696465
21
270.047579278294
31
0
0
LINE
8
layer0
10
1529.86917696465
20
270.047579278294
30
0
11
1529.18322652268
21
258.149502685929
31
0
0
LINE
8
layer0
10
1535.14772367033
20
258.018613103493
30
0
11
1539.55453605041
21
260.03254949786
31
0
0
LINE
8
layer0
10
1539.55453605041
20
260.03254949786
30
0
11
1540.14819083525
21
270.329722102899
31
0
0
LINE
8
layer0
10
1540.14819083525
20
270.329722102899
30
0
11
1535.80356651942
21
269.394461814287
31
0
0
LINE
8
layer0
10
1535.80356651942
20
269.394461814287
30
0
11
1535.14772367033
21
258.018613103493
31
0
0
LINE
8
layer0
10
1539.55453605041
20
260.03254949786
30
0
11
1539.82865810804
21
263.014520811143
31
0
0
LINE
8
layer0
10
1539.82865810804
20
263.014520811143
30
0
11
1540.36438232611
21
272.306865256051
31
0
0
LINE
8
layer0
10
1540.36438232611
20
272.306865256051
30
0
11
1540.14819083525
21
270.329722102899
31
0
0
LINE
8
layer0
10
1540.14819083525
20
270.329722102899
30
0
11
1539.55453605041
21
260.03254949786
31
0
0
LINE
8
layer0
10
1539.82865810804
20
263.014520811143
30
0
11
1535.80991378847
21
265.222090099374
31
0
0
LINE
8
layer0
10
1535.80991378847
20
265.222090099374
30
0
11
1536.32581514876
21
274.170599384039
31
0
0
LINE
8
layer0
10
1536.32581514876
20
274.170599384039
30
0
11
1540.36438232611
21
272.306865256051
31
0
0
LINE
8
layer0
10
1540.36438232611
20
272.306865256051
30
0
11
1539.82865810804
21
263.014520811143
31
0
0
LINE
8
layer0
10
1535.80991378847
20
265.222090099374
30
0
11
1529.87238360942
21
265.32928837136
31
0
0
LINE
8
layer0
10
1529.87238360942
20
265.32928837136
30
0
11
1530.41869359108
21
274.805246993412
31
0
0
LINE
8
layer0
10
1530.41869359108
20
274.805246993412
30
0
11
1536.32581514876
21
274.170599384039
31
0
0
LINE
8
layer0
10
1536.32581514876
20
274.170599384039
30
0
11
1535.80991378847
21
265.222090099374
31
0
0
LINE
8
layer0
10
1529.87238360942
20
265.32928837136
30
0
11
1529.78578106904
21
265.35428837136
31
0
0
LINE
8
layer0
10
1529.78578106904
20
265.35428837136
30
0
11
1530.3320910507
21
274.830246993412
31
0
0
LINE
8
layer0
10
1530.3320910507
20
274.830246993412
30
0
11
1530.41869359108
21
274.805246993412
31
0
0
LINE
8
layer0
10
1530.41869359108
20
274.805246993412
30
0
11
1529.87238360942
21
265.32928837136
31
0
0
LINE
8
layer0
10
1530.3320910507
20
274.830246993412
30
0
11
1526.00425669313
21
273.887288777239
31
0
0
LINE
8
layer0
10
1526.00425669313
20
273.887288777239
30
0
11
1527.80339594996
21
285.03606837218
31
0
0
LINE
8
layer0
10
1527.80339594996
20
285.03606837218
30
0
11
1531.94714462798
21
284.838297397894
31
0
0
LINE
8
layer0
10
1531.94714462798
20
284.838297397894
30
0
11
1530.3320910507
21
274.830246993412
31
0
0
LINE
8
layer0
10
1526.00425669313
20
273.887288777239
30
0
11
1525.81262749435
21
271.907442387003
31
0
0
LINE
8
layer0
10
1525.81262749435
20
271.907442387003
30
0
11
1527.78265821027
21
284.115190155035
31
0
0
LINE
8
layer0
10
1527.78265821027
20
284.115190155035
30
0
11
1527.80339594996
21
285.03606837218
31
0
0
LINE
8
layer0
10
1527.80339594996
20
285.03606837218
30
0
11
1526.00425669313
21
273.887288777239
31
0
0
LINE
8
layer0
10
1525.81262749435
20
271.907442387003
30
0
11
1529.86917696465
21
270.047579278294
31
0
0
LINE
8
layer0
10
1529.86917696465
20
270.047579278294
30
0
11
1531.8970489647
21
282.613753847238
31
0
0
LINE
8
layer0
10
1531.8970489647
20
282.613753847238
30
0
11
1527.78265821027
21
284.115190155035
31
0
0
LINE
8
layer0
10
1527.78265821027
20
284.115190155035
30
0
11
1525.81262749435
21
271.907442387003
31
0
0
LINE
8
layer0
10
1529.86917696465
20
270.047579278294
30
0
11
1535.80356651942
21
269.394461814287
31
0
0
LINE
8
layer0
10
1535.80356651942
20
269.394461814287
30
0
11
1537.74243158708
21
281.409084485439
31
0
0
LINE
8
layer0
10
1537.74243158708
20
281.409084485439
30
0
11
1531.8970489647
21
282.613753847238
31
0
0
LINE
8
layer0
10
1531.8970489647
20
282.613753847238
30
0
11
1529.86917696465
21
270.047579278294
31
0
0
LINE
8
layer0
10
1535.80356651942
20
269.394461814287
30
0
11
1540.14819083525
21
270.329722102899
31
0
0
LINE
8
layer0
10
1540.14819083525
20
270.329722102899
30
0
11
1541.90320962701
21
281.205099103285
31
0
0
LINE
8
layer0
10
1541.90320962701
20
281.205099103285
30
0
11
1537.74243158708
21
281.409084485439
31
0
0
LINE
8
layer0
10
1537.74243158708
20
281.409084485439
30
0
11
1535.80356651942
21
269.394461814287
31
0
0
LINE
8
layer0
10
1540.14819083525
20
270.329722102899
30
0
11
1540.36438232611
21
272.306865256051
31
0
0
LINE
8
layer0
10
1540.36438232611
20
272.306865256051
30
0
11
1541.94814126129
21
282.120991223636
31
0
0
LINE
8
layer0
10
1541.94814126129
20
282.120991223636
30
0
11
1541.90320962701
21
281.205099103285
31
0
0
LINE
8
layer0
10
1541.90320962701
20
281.205099103285
30
0
11
1540.14819083525
21
270.329722102899
31
0
0
LINE
8
layer0
10
1540.36438232611
20
272.306865256051
30
0
11
1536.32581514876
21
274.170599384039
31
0
0
LINE
8
layer0
10
1536.32581514876
20
274.170599384039
30
0
11
1537.85097186461
21
283.621583240965
31
0
0
LINE
8
layer0
10
1537.85097186461
20
283.621583240965
30
0
11
1541.94814126129
21
282.120991223636
31
0
0
LINE
8
layer0
10
1541.94814126129
20
282.120991223636
30
0
11
1540.36438232611
21
272.306865256051
31
0
0
LINE
8
layer0
10
1536.32581514876
20
274.170599384039
30
0
11
1530.41869359108
21
274.805246993412
31
0
0
LINE
8
layer0
10
1530.41869359108
20
274.805246993412
30
0
11
1532.03374716836
21
284.813297397894
31
0
0
LINE
8
layer0
10
1532.03374716836
20
284.813297397894
30
0
11
1537.85097186461
21
283.621583240965
31
0
0
LINE
8
layer0
10
1537.85097186461
20
283.621583240965
30
0
11
1536.32581514876
21
274.170599384039
31
0
0
LINE
8
layer0
10
1530.41869359108
20
274.805246993412
30
0
11
1530.3320910507
21
274.830246993412
31
0
0
LINE
8
layer0
10
1530.3320910507
20
274.830246993412
30
0
11
1531.94714462798
21
284.838297397894
31
0
0
LINE
8
layer0
10
1531.94714462798
20
284.838297397894
30
0
11
1532.03374716836
21
284.813297397894
31
0
0
LINE
8
layer0
10
1532.03374716836
20
284.813297397894
30
0
11
1530.41869359108
21
274.805246993412
31
0
0
LINE
8
layer0
10
1531.94714462798
20
284.838297397894
30
0
11
1527.80339594996
21
285.03606837218
31
0
0
LINE
8
layer0
10
1527.80339594996
20
285.03606837218
30
0
11
1530.71446441802
21
296.290333021848
31
0
0
LINE
8
layer0
10
1530.71446441802
20
296.290333021848
30
0
11
1534.56035620967
21
294.941039758176
31
0
0
LINE
8
layer0
10
1534.56035620967
20
294.941039758176
30
0
11
1531.94714462798
21
284.838297397894
31
0
0
LINE
8
layer0
10
1527.80339594996
20
285.03606837218
30
0
11
1527.78265821027
21
284.115190155035
31
0
0
LINE
8
layer0
10
1527.78265821027
20
284.115190155035
30
0
11
1530.97023486751
21
296.438442488428
31
0
0
LINE
8
layer0
10
1530.97023486751
20
296.438442488428
30
0
11
1530.71446441802
21
296.290333021848
31
0
0
LINE
8
layer0
10
1530.71446441802
20
296.290333021848
30
0
11
1527.80339594996
21
285.03606837218
31
0
0
LINE
8
layer0
10
1527.78265821027
20
284.115190155035
30
0
11
1531.8970489647
21
282.613753847238
31
0
0
LINE
8
layer0
10
1531.8970489647
20
282.613753847238
30
0
11
1535.17821478561
21
295.2988242649
31
0
0
LINE
8
layer0
10
1535.17821478561
20
295.2988242649
30
0
11
1530.97023486751
21
296.438442488428
31
0
0
LINE
8
layer0
10
1530.97023486751
20
296.438442488428
30
0
11
1527.78265821027
21
284.115190155035
31
0
0
LINE
8
layer0
10
1531.8970489647
20
282.613753847238
30
0
11
1537.74243158708
21
281.409084485439
31
0
0
LINE
8
layer0
10
1537.74243158708
20
281.409084485439
30
0
11
1540.87958116617
21
293.537384453661
31
0
0
LINE
8
layer0
10
1540.87958116617
20
293.537384453661
30
0
11
1535.17821478561
21
295.2988242649
31
0
0
LINE
8
layer0
10
1535.17821478561
20
295.2988242649
30
0
11
1531.8970489647
21
282.613753847238
31
0
0
LINE
8
layer0
10
1537.74243158708
20
281.409084485439
30
0
11
1541.90320962701
21
281.205099103285
31
0
0
LINE
8
layer0
10
1541.90320962701
20
281.205099103285
30
0
11
1544.74288968297
21
292.183374338254
31
0
0
LINE
8
layer0
10
1544.74288968297
20
292.183374338254
30
0
11
1540.87958116617
21
293.537384453661
31
0
0
LINE
8
layer0
10
1540.87958116617
20
293.537384453661
30
0
11
1537.74243158708
21
281.409084485439
31
0
0
LINE
8
layer0
10
1541.90320962701
20
281.205099103285
30
0
11
1541.94814126129
21
282.120991223636
31
0
0
LINE
8
layer0
10
1541.94814126129
20
282.120991223636
30
0
11
1544.5107170484
21
292.027974315714
31
0
0
LINE
8
layer0
10
1544.5107170484
20
292.027974315714
30
0
11
1544.74288968297
21
292.183374338254
31
0
0
LINE
8
layer0
10
1544.74288968297
20
292.183374338254
30
0
11
1541.90320962701
21
281.205099103285
31
0
0
LINE
8
layer0
10
1541.94814126129
20
282.120991223636
30
0
11
1537.85097186461
21
283.621583240965
31
0
0
LINE
8
layer0
10
1537.85097186461
20
283.621583240965
30
0
11
1540.31872726902
21
293.161988324751
31
0
0
LINE
8
layer0
10
1540.31872726902
20
293.161988324751
30
0
11
1544.5107170484
21
292.027974315714
31
0
0
LINE
8
layer0
10
1544.5107170484
20
292.027974315714
30
0
11
1541.94814126129
21
282.120991223636
31
0
0
LINE
8
layer0
10
1537.85097186461
20
283.621583240965
30
0
11
1532.03374716836
21
284.813297397894
31
0
0
LINE
8
layer0
10
1532.03374716836
20
284.813297397894
30
0
11
1534.64695875005
21
294.916039758176
31
0
0
LINE
8
layer0
10
1534.64695875005
20
294.916039758176
30
0
11
1540.31872726902
21
293.161988324751
31
0
0
LINE
8
layer0
10
1540.31872726902
20
293.161988324751
30
0
11
1537.85097186461
21
283.621583240965
31
0
0
LINE
8
layer0
10
1532.03374716836
20
284.813297397894
30
0
11
1531.94714462798
21
284.838297397894
31
0
0
LINE
8
layer0
10
1531.94714462798
20
284.838297397894
30
0
11
1534.56035620967
21
294.941039758176
31
0
0
LINE
8
layer0
10
1534.56035620967
20
294.941039758176
30
0
11
1534.64695875005
21
294.916039758176
31
0
0
LINE
8
layer0
10
1534.64695875005
20
294.916039758176
30
0
11
1532.03374716836
21
284.813297397894
31
0
0
LINE
8
layer0
10
1534.56035620967
20
294.941039758176
30
0
11
1530.71446441802
21
296.290333021848
31
0
0
LINE
8
layer0
10
1530.71446441802
20
296.290333021848
30
0
11
1534.61023443639
21
307.158217357099
31
0
0
LINE
8
layer0
10
1534.61023443639
20
307.158217357099
30
0
11
1538.05751591007
21
304.696935754778
31
0
0
LINE
8
layer0
10
1538.05751591007
20
304.696935754778
30
0
11
1534.56035620967
21
294.941039758176
31
0
0
LINE
8
layer0
10
1530.71446441802
20
296.290333021848
30
0
11
1530.97023486751
21
296.438442488428
31
0
0
LINE
8
layer0
10
1530.97023486751
20
296.438442488428
30
0
11
1535.23604507046
21
308.338614126687
31
0
0
LINE
8
layer0
10
1535.23604507046
20
308.338614126687
30
0
11
1534.61023443639
21
307.158217357099
31
0
0
LINE
8
layer0
10
1534.61023443639
20
307.158217357099
30
0
11
1530.71446441802
21
296.290333021848
31
0
0
LINE
8
layer0
10
1530.97023486751
20
296.438442488428
30
0
11
1535.17821478561
21
295.2988242649
31
0
0
LINE
8
layer0
10
1535.17821478561
20
295.2988242649
30
0
11
1539.56927173623
21
307.548392084307
31
0
0
LINE
8
layer0
10
1539.56927173623
20
307.548392084307
30
0
11
1535.23604507046
21
308.338614126687
31
0
0
LINE
8
layer0
10
1535.23604507046
20
308.338614126687
30
0
11
1530.97023486751
21
296.438442488428
31
0
0
LINE
8
layer0
10
1535.17821478561
20
295.2988242649
30
0
11
1540.87958116617
21
293.537384453661
31
0
0
LINE
8
layer0
10
1540.87958116617
20
293.537384453661
30
0
11
1545.07790676636
21
305.249296812304
31
0
0
LINE
8
layer0
10
1545.07790676636
20
305.249296812304
30
0
11
1539.56927173623
21
307.548392084307
31
0
0
LINE
8
layer0
10
1539.56927173623
20
307.548392084307
30
0
11
1535.17821478561
21
295.2988242649
31
0
0
LINE
8
layer0
10
1540.87958116617
20
293.537384453661
30
0
11
1544.74288968297
21
292.183374338254
31
0
0
LINE
8
layer0
10
1544.74288968297
20
292.183374338254
30
0
11
1548.5431233584
21
302.784744500428
31
0
0
LINE
8
layer0
10
1548.5431233584
20
302.784744500428
30
0
11
1545.07790676636
21
305.249296812304
31
0
0
LINE
8
layer0
10
1545.07790676636
20
305.249296812304
30
0
11
1540.87958116617
21
293.537384453661
31
0
0
LINE
8
layer0
10
1544.74288968297
20
292.183374338254
30
0
11
1544.5107170484
21
292.027974315714
31
0
0
LINE
8
layer0
10
1544.5107170484
20
292.027974315714
30
0
11
1547.94011282893
21
301.594831832182
31
0
0
LINE
8
layer0
10
1547.94011282893
20
301.594831832182
30
0
11
1548.5431233584
21
302.784744500428
31
0
0
LINE
8
layer0
10
1548.5431233584
20
302.784744500428
30
0
11
1544.74288968297
21
292.183374338254
31
0
0
LINE
8
layer0
10
1544.5107170484
20
292.027974315714
30
0
11
1540.31872726902
21
293.161988324751
31
0
0
LINE
8
layer0
10
1540.31872726902
20
293.161988324751
30
0
11
1543.62122860922
21
302.374853153293
31
0
0
LINE
8
layer0
10
1543.62122860922
20
302.374853153293
30
0
11
1547.94011282893
21
301.594831832182
31
0
0
LINE
8
layer0
10
1547.94011282893
20
301.594831832182
30
0
11
1544.5107170484
21
292.027974315714
31
0
0
LINE
8
layer0
10
1540.31872726902
20
293.161988324751
30
0
11
1534.64695875005
21
294.916039758176
31
0
0
LINE
8
layer0
10
1534.64695875005
20
294.916039758176
30
0
11
1538.14411845045
21
304.671935754778
31
0
0
LINE
8
layer0
10
1538.14411845045
20
304.671935754778
30
0
11
1543.62122860922
21
302.374853153293
31
0
0
LINE
8
layer0
10
1543.62122860922
20
302.374853153293
30
0
11
1540.31872726902
21
293.161988324751
31
0
0
LINE
8
layer0
10
1534.64695875005
20
294.916039758176
30
0
11
1534.56035620967
21
294.941039758176
31
0
0
LINE
8
layer0
10
1534.56035620967
20
294.941039758176
30
0
11
1538.05751591007
21
304.696935754778
31
0
0
LINE
8
layer0
10
1538.05751591007
20
304.696935754778
30
0
11
1538.14411845045
21
304.671935754778
31
0
0
LINE
8
layer0
10
1538.14411845045
20
304.671935754778
30
0
11
1534.64695875005
21
294.916039758176
31
0
0
LINE
8
layer0
10
1538.05751591007
20
304.696935754778
30
0
11
1534.61023443639
21
307.158217357099
31
0
0
LINE
8
layer0
10
1534.61023443639
20
307.158217357099
30
0
11
1539.32044216128
21
317.164742682589
31
0
0
LINE
8
layer0
10
1539.32044216128
20
317.164742682589
30
0
11
1542.28578106904
21
313.679605918665
31
0
0
LINE
8
layer0
10
1542.28578106904
20
313.679605918665
30
0
11
1538.05751591007
21
304.696935754778
31
0
0
LINE
8
layer0
10
1534.61023443639
20
307.158217357099
30
0
11
1535.23604507046
21
308.338614126687
31
0
0
LINE
8
layer0
10
1535.23604507046
20
308.338614126687
30
0
11
1540.39365244361
21
319.29561046586
31
0
0
LINE
8
layer0
10
1540.39365244361
20
319.29561046586
30
0
11
1539.32044216128
21
317.164742682589
31
0
0
LINE
8
layer0
10
1539.32044216128
20
317.164742682589
30
0
11
1534.61023443639
21
307.158217357099
31
0
0
LINE
8
layer0
10
1535.23604507046
20
308.338614126687
30
0
11
1539.56927173623
21
307.548392084307
31
0
0
LINE
8
layer0
10
1539.56927173623
20
307.548392084307
30
0
11
1544.87830955718
21
318.827092411805
31
0
0
LINE
8
layer0
10
1544.87830955718
20
318.827092411805
30
0
11
1540.39365244361
21
319.29561046586
31
0
0
LINE
8
layer0
10
1540.39365244361
20
319.29561046586
30
0
11
1535.23604507046
21
308.338614126687
31
0
0
LINE
8
layer0
10
1539.56927173623
20
307.548392084307
30
0
11
1545.07790676636
21
305.249296812304
31
0
0
LINE
8
layer0
10
1545.07790676636
20
305.249296812304
30
0
11
1550.15392141311
21
316.032954791302
31
0
0
LINE
8
layer0
10
1550.15392141311
20
316.032954791302
30
0
11
1544.87830955718
21
318.827092411805
31
0
0
LINE
8
layer0
10
1544.87830955718
20
318.827092411805
30
0
11
1539.56927173623
21
307.548392084307
31
0
0
LINE
8
layer0
10
1545.07790676636
20
305.249296812304
30
0
11
1548.5431233584
21
302.784744500428
31
0
0
LINE
8
layer0
10
1548.5431233584
20
302.784744500428
30
0
11
1553.13782220612
21
312.545878842702
31
0
0
LINE
8
layer0
10
1553.13782220612
20
312.545878842702
30
0
11
1550.15392141311
21
316.032954791302
31
0
0
LINE
8
layer0
10
1550.15392141311
20
316.032954791302
30
0
11
1545.07790676636
21
305.249296812304
31
0
0
LINE
8
layer0
10
1548.5431233584
20
302.784744500428
30
0
11
1547.94011282893
21
301.594831832182
31
0
0
LINE
8
layer0
10
1547.94011282893
20
301.594831832182
30
0
11
1552.08644755122
21
310.403446192695
31
0
0
LINE
8
layer0
10
1552.08644755122
20
310.403446192695
30
0
11
1553.13782220612
21
312.545878842702
31
0
0
LINE
8
layer0
10
1553.13782220612
20
312.545878842702
30
0
11
1548.5431233584
21
302.784744500428
31
0
0
LINE
8
layer0
10
1547.94011282893
20
301.594831832182
30
0
11
1543.62122860922
21
302.374853153293
31
0
0
LINE
8
layer0
10
1543.62122860922
20
302.374853153293
30
0
11
1547.61414072948
21
310.857531325354
31
0
0
LINE
8
layer0
10
1547.61414072948
20
310.857531325354
30
0
11
1552.08644755122
21
310.403446192695
31
0
0
LINE
8
layer0
10
1552.08644755122
20
310.403446192695
30
0
11
1547.94011282893
21
301.594831832182
31
0
0
LINE
8
layer0
10
1543.62122860922
20
302.374853153293
30
0
11
1538.14411845045
21
304.671935754778
31
0
0
LINE
8
layer0
10
1538.14411845045
20
304.671935754778
30
0
11
1542.37238360942
21
313.654605918665
31
0
0
LINE
8
layer0
10
1542.37238360942
20
313.654605918665
30
0
11
1547.61414072948
21
310.857531325354
31
0
0
LINE
8
layer0
10
1547.61414072948
20
310.857531325354
30
0
11
1543.62122860922
21
302.374853153293
31
0
0
LINE
8
layer0
10
1538.14411845045
20
304.671935754778
30
0
11
1538.05751591007
21
304.696935754778
31
0
0
LINE
8
layer0
10
1538.05751591007
20
304.696935754778
30
0
11
1542.28578106904
21
313.679605918665
31
0
0
LINE
8
layer0
10
1542.28578106904
20
313.679605918665
30
0
11
1542.37238360942
21
313.654605918665
31
0
0
LINE
8
layer0
10
1542.37238360942
20
313.654605918665
30
0
11
1538.14411845045
21
304.671935754778
31
0
0
LINE
8
layer0
10
1542.28578106904
20
313.679605918665
30
0
11
1539.32044216128
21
317.164742682589
31
0
0
LINE
8
layer0
10
1539.32044216128
20
317.164742682589
30
0
11
1544.63922891305
21
325.872575824957
31
0
0
LINE
8
layer0
10
1544.63922891305
20
325.872575824957
30
0
11
1547.06035620967
21
321.496464460042
31
0
0
LINE
8
layer0
10
1547.06035620967
20
321.496464460042
30
0
11
1542.28578106904
21
313.679605918665
31
0
0
LINE
8
layer0
10
1539.32044216128
20
317.164742682589
30
0
11
1540.39365244361
21
319.29561046586
31
0
0
LINE
8
layer0
10
1540.39365244361
20
319.29561046586
30
0
11
1546.21764479583
21
328.830558188423
31
0
0
LINE
8
layer0
10
1546.21764479583
20
328.830558188423
30
0
11
1544.63922891305
21
325.872575824957
31
0
0
LINE
8
layer0
10
1544.63922891305
20
325.872575824957
30
0
11
1539.32044216128
21
317.164742682589
31
0
0
LINE
8
layer0
10
1540.39365244361
20
319.29561046586
30
0
11
1544.87830955718
21
318.827092411805
31
0
0
LINE
8
layer0
10
1544.87830955718
20
318.827092411805
30
0
11
1550.87329782011
21
328.641991921871
31
0
0
LINE
8
layer0
10
1550.87329782011
20
328.641991921871
30
0
11
1546.21764479583
21
328.830558188423
31
0
0
LINE
8
layer0
10
1546.21764479583
20
328.830558188423
30
0
11
1540.39365244361
21
319.29561046586
31
0
0
LINE
8
layer0
10
1544.87830955718
20
318.827092411805
30
0
11
1550.15392141311
21
316.032954791302
31
0
0
LINE
8
layer0
10
1550.15392141311
20
316.032954791302
30
0
11
1555.88577890895
21
325.417060791242
31
0
0
LINE
8
layer0
10
1555.88577890895
20
325.417060791242
30
0
11
1550.87329782011
21
328.641991921871
31
0
0
LINE
8
layer0
10
1550.87329782011
20
328.641991921871
30
0
11
1544.87830955718
21
318.827092411805
31
0
0
LINE
8
layer0
10
1550.15392141311
20
316.032954791302
30
0
11
1553.13782220612
21
312.545878842702
31
0
0
LINE
8
layer0
10
1553.13782220612
20
312.545878842702
30
0
11
1558.32617583868
21
321.040168955198
31
0
0
LINE
8
layer0
10
1558.32617583868
20
321.040168955198
30
0
11
1555.88577890895
21
325.417060791242
31
0
0
LINE
8
layer0
10
1555.88577890895
20
325.417060791242
30
0
11
1550.15392141311
21
316.032954791302
31
0
0
LINE
8
layer0
10
1553.13782220612
20
312.545878842702
30
0
11
1552.08644755122
21
310.403446192695
31
0
0
LINE
8
layer0
10
1552.08644755122
20
310.403446192695
30
0
11
1556.76850649157
21
318.068838681276
31
0
0
LINE
8
layer0
10
1556.76850649157
20
318.068838681276
30
0
11
1558.32617583868
21
321.040168955198
31
0
0
LINE
8
layer0
10
1558.32617583868
20
321.040168955198
30
0
11
1553.13782220612
21
312.545878842702
31
0
0
LINE
8
layer0
10
1552.08644755122
20
310.403446192695
30
0
11
1547.61414072948
21
310.857531325354
31
0
0
LINE
8
layer0
10
1547.61414072948
20
310.857531325354
30
0
11
1552.12295421003
21
318.239289100409
31
0
0
LINE
8
layer0
10
1552.12295421003
20
318.239289100409
30
0
11
1556.76850649157
21
318.068838681276
31
0
0
LINE
8
layer0
10
1556.76850649157
20
318.068838681276
30
0
11
1552.08644755122
21
310.403446192695
31
0
0
LINE
8
layer0
10
1547.61414072948
20
310.857531325354
30
0
11
1542.37238360942
21
313.654605918665
31
0
0
LINE
8
layer0
10
1542.37238360942
20
313.654605918665
30
0
11
1547.14695875005
21
321.471464460042
31
0
0
LINE
8
layer0
10
1547.14695875005
20
321.471464460042
30
0
11
1552.12295421003
21
318.239289100409
31
0
0
LINE
8
layer0
10
1552.12295421003
20
318.239289100409
30
0
11
1547.61414072948
21
310.857531325354
31
0
0
LINE
8
layer0
10
1542.37238360942
20
313.654605918665
30
0
11
1542.28578106904
21
313.679605918665
31
0
0
LINE
8
layer0
10
1542.28578106904
20
313.679605918665
30
0
11
1547.06035620967
21
321.496464460042
31
0
0
LINE
8
layer0
10
1547.06035620967
20
321.496464460042
30
0
11
1547.14695875005
21
321.471464460042
31
0
0
LINE
8
layer0
10
1547.14695875005
20
321.471464460042
30
0
11
1542.37238360942
21
313.654605918665
31
0
0
LINE
8
layer0
10
1547.06035620967
20
321.496464460042
30
0
11
1544.63922891305
21
325.872575824957
31
0
0
LINE
8
layer0
10
1544.63922891305
20
325.872575824957
30
0
11
1550.33413818825
21
332.901142691062
31
0
0
LINE
8
layer0
10
1550.33413818825
20
332.901142691062
30
0
11
1552.17256948735
21
327.805877151201
31
0
0
LINE
8
layer0
10
1552.17256948735
20
327.805877151201
30
0
11
1547.06035620967
21
321.496464460042
31
0
0
LINE
8
layer0
10
1544.63922891305
20
325.872575824957
30
0
11
1546.21764479583
21
328.830558188423
31
0
0
LINE
8
layer0
10
1546.21764479583
20
328.830558188423
30
0
11
1552.45348571469
21
336.526734325146
31
0
0
LINE
8
layer0
10
1552.45348571469
20
336.526734325146
30
0
11
1550.33413818825
21
332.901142691062
31
0
0
LINE
8
layer0
10
1550.33413818825
20
332.901142691062
30
0
11
1544.63922891305
21
325.872575824957
31
0
0
LINE
8
layer0
10
1546.21764479583
20
328.830558188423
30
0
11
1550.87329782011
21
328.641991921871
31
0
0
LINE
8
layer0
10
1550.87329782011
20
328.641991921871
30
0
11
1557.29222677077
21
336.564132408804
31
0
0
LINE
8
layer0
10
1557.29222677077
20
336.564132408804
30
0
11
1552.45348571469
21
336.526734325146
31
0
0
LINE
8
layer0
10
1552.45348571469
20
336.526734325146
30
0
11
1546.21764479583
21
328.830558188423
31
0
0
LINE
8
layer0
10
1550.87329782011
20
328.641991921871
30
0
11
1555.88577890895
21
325.417060791242
31
0
0
LINE
8
layer0
10
1555.88577890895
20
325.417060791242
30
0
11
1562.02296957681
21
332.991484349991
31
0
0
LINE
8
layer0
10
1562.02296957681
20
332.991484349991
30
0
11
1557.29222677077
21
336.564132408804
31
0
0
LINE
8
layer0
10
1557.29222677077
20
336.564132408804
30
0
11
1550.87329782011
21
328.641991921871
31
0
0
LINE
8
layer0
10
1555.88577890895
20
325.417060791242
30
0
11
1558.32617583868
21
321.040168955198
31
0
0
LINE
8
layer0
10
1558.32617583868
20
321.040168955198
30
0
11
1563.88142830586
21
327.896373599876
31
0
0
LINE
8
layer0
10
1563.88142830586
20
327.896373599876
30
0
11
1562.02296957681
21
332.991484349991
31
0
0
LINE
8
layer0
10
1562.02296957681
20
332.991484349991
30
0
11
1555.88577890895
21
325.417060791242
31
0
0
LINE
8
layer0
10
1558.32617583868
20
321.040168955198
30
0
11
1556.76850649157
21
318.068838681276
31
0
0
LINE
8
layer0
10
1556.76850649157
20
318.068838681276
30
0
11
1561.78166120729
21
324.255994863542
31
0
0
LINE
8
layer0
10
1561.78166120729
20
324.255994863542
30
0
11
1563.88142830586
21
327.896373599876
31
0
0
LINE
8
layer0
10
1563.88142830586
20
327.896373599876
30
0
11
1558.32617583868
21
321.040168955198
31
0
0
LINE
8
layer0
10
1556.76850649157
20
318.068838681276
30
0
11
1552.12295421003
21
318.239289100409
31
0
0
LINE
8
layer0
10
1552.12295421003
20
318.239289100409
30
0
11
1556.95061226608
21
324.197508242083
31
0
0
LINE
8
layer0
10
1556.95061226608
20
324.197508242083
30
0
11
1561.78166120729
21
324.255994863542
31
0
0
LINE
8
layer0
10
1561.78166120729
20
324.255994863542
30
0
11
1556.76850649157
21
318.068838681276
31
0
0
LINE
8
layer0
10
1552.12295421003
20
318.239289100409
30
0
11
1547.14695875005
21
321.471464460042
31
0
0
LINE
8
layer0
10
1547.14695875005
20
321.471464460042
30
0
11
1552.25917202773
21
327.780877151201
31
0
0
LINE
8
layer0
10
1552.25917202773
20
327.780877151201
30
0
11
1556.95061226608
21
324.197508242083
31
0
0
LINE
8
layer0
10
1556.95061226608
20
324.197508242083
30
0
11
1552.12295421003
21
318.239289100409
31
0
0
LINE
8
layer0
10
1547.14695875005
20
321.471464460042
30
0
11
1547.06035620967
21
321.496464460042
31
0
0
LINE
8
layer0
10
1547.06035620967
20
321.496464460042
30
0
11
1552.17256948735
21
327.805877151201
31
0
0
LINE
8
layer0
10
1552.17256948735
20
327.805877151201
30
0
11
1552.25917202773
21
327.780877151201
31
0
0
LINE
8
layer0
10
1552.25917202773
20
327.780877151201
30
0
11
1547.14695875005
21
321.471464460042
31
0
0
LINE
8
layer0
10
1552.17256948735
20
327.805877151201
30
0
11
1550.33413818825
21
332.901142691062
31
0
0
LINE
8
layer0
10
1550.33413818825
20
332.901142691062
30
0
11
1556.15627512437
21
337.94326118205
31
0
0
LINE
8
layer0
10
1556.15627512437
20
337.94326118205
30
0
11
1557.39899265074
21
332.332092381618
31
0
0
LINE
8
layer0
10
1557.39899265074
20
332.332092381618
30
0
11
1552.17256948735
21
327.805877151201
31
0
0
LINE
8
layer0
10
1550.33413818825
20
332.901142691062
30
0
11
1552.45348571469
21
336.526734325146
31
0
0
LINE
8
layer0
10
1552.45348571469
20
336.526734325146
30
0
11
1558.82863902917
21
342.047779048503
31
0
0
LINE
8
layer0
10
1558.82863902917
20
342.047779048503
30
0
11
1556.15627512437
21
337.94326118205
31
0
0
LINE
8
layer0
10
1556.15627512437
20
337.94326118205
30
0
11
1550.33413818825
21
332.901142691062
31
0
0
LINE
8
layer0
10
1552.45348571469
20
336.526734325146
30
0
11
1557.29222677077
21
336.564132408804
31
0
0
LINE
8
layer0
10
1557.29222677077
20
336.564132408804
30
0
11
1563.85455841259
21
342.247278318676
31
0
0
LINE
8
layer0
10
1563.85455841259
20
342.247278318676
30
0
11
1558.82863902917
21
342.047779048503
31
0
0
LINE
8
layer0
10
1558.82863902917
20
342.047779048503
30
0
11
1552.45348571469
21
336.526734325146
31
0
0
LINE
8
layer0
10
1557.29222677077
20
336.564132408804
30
0
11
1562.02296957681
21
332.991484349991
31
0
0
LINE
8
layer0
10
1562.02296957681
20
332.991484349991
30
0
11
1568.29726873498
21
338.425186811913
31
0
0
LINE
8
layer0
10
1568.29726873498
20
338.425186811913
30
0
11
1563.85455841259
21
342.247278318676
31
0
0
LINE
8
layer0
10
1563.85455841259
20
342.247278318676
30
0
11
1557.29222677077
21
336.564132408804
31
0
0
LINE
8
layer0
10
1562.02296957681
20
332.991484349991
30
0
11
1563.88142830586
21
327.896373599876
31
0
0
LINE
8
layer0
10
1563.88142830586
20
327.896373599876
30
0
11
1569.56078841779
21
332.814843734042
31
0
0
LINE
8
layer0
10
1569.56078841779
20
332.814843734042
30
0
11
1568.29726873498
21
338.425186811913
31
0
0
LINE
8
layer0
10
1568.29726873498
20
338.425186811913
30
0
11
1562.02296957681
21
332.991484349991
31
0
0
LINE
8
layer0
10
1563.88142830586
20
327.896373599876
30
0
11
1561.78166120729
21
324.255994863542
31
0
0
LINE
8
layer0
10
1561.78166120729
20
324.255994863542
30
0
11
1566.9068127815
21
328.694506325057
31
0
0
LINE
8
layer0
10
1566.9068127815
20
328.694506325057
30
0
11
1569.56078841779
21
332.814843734042
31
0
0
LINE
8
layer0
10
1569.56078841779
20
332.814843734042
30
0
11
1563.88142830586
21
327.896373599876
31
0
0
LINE
8
layer0
10
1561.78166120729
20
324.255994863542
30
0
11
1556.95061226608
21
324.197508242083
31
0
0
LINE
8
layer0
10
1556.95061226608
20
324.197508242083
30
0
11
1561.8861230749
21
328.471785983179
31
0
0
LINE
8
layer0
10
1561.8861230749
20
328.471785983179
30
0
11
1566.9068127815
21
328.694506325057
31
0
0
LINE
8
layer0
10
1566.9068127815
20
328.694506325057
30
0
11
1561.78166120729
21
324.255994863542
31
0
0
LINE
8
layer0
10
1556.95061226608
20
324.197508242083
30
0
11
1552.25917202773
21
327.780877151201
31
0
0
LINE
8
layer0
10
1552.25917202773
20
327.780877151201
30
0
11
1557.48559519111
21
332.307092381618
31
0
0
LINE
8
layer0
10
1557.48559519111
20
332.307092381618
30
0
11
1561.8861230749
21
328.471785983179
31
0
0
LINE
8
layer0
10
1561.8861230749
20
328.471785983179
30
0
11
1556.95061226608
21
324.197508242083
31
0
0
LINE
8
layer0
10
1552.25917202773
20
327.780877151201
30
0
11
1552.17256948735
21
327.805877151201
31
0
0
LINE
8
layer0
10
1552.17256948735
20
327.805877151201
30
0
11
1557.39899265074
21
332.332092381618
31
0
0
LINE
8
layer0
10
1557.39899265074
20
332.332092381618
30
0
11
1557.48559519111
21
332.307092381618
31
0
0
LINE
8
layer0
10
1557.48559519111
20
332.307092381618
30
0
11
1552.25917202773
21
327.780877151201
31
0
0
LINE
8
layer0
10
1557.39899265074
20
332.332092381618
30
0
11
1556.15627512437
21
337.94326118205
31
0
0
LINE
8
layer0
10
1556.15627512437
20
337.94326118205
30
0
11
1561.85118439957
21
340.778566525096
31
0
0
LINE
8
layer0
10
1561.85118439957
20
340.778566525096
30
0
11
1562.51120592842
21
334.877292826533
31
0
0
LINE
8
layer0
10
1562.51120592842
20
334.877292826533
30
0
11
1557.39899265074
21
332.332092381618
31
0
0
LINE
8
layer0
10
1556.15627512437
20
337.94326118205
30
0
11
1558.82863902917
21
342.047779048503
31
0
0
LINE
8
layer0
10
1558.82863902917
20
342.047779048503
30
0
11
1565.06447994803
21
345.152396211172
31
0
0
LINE
8
layer0
10
1565.06447994803
20
345.152396211172
30
0
11
1561.85118439957
21
340.778566525096
31
0
0
LINE
8
layer0
10
1561.85118439957
20
340.778566525096
30
0
11
1556.15627512437
21
337.94326118205
31
0
0
LINE
8
layer0
10
1558.82863902917
20
342.047779048503
30
0
11
1563.85455841259
21
342.247278318676
31
0
0
LINE
8
layer0
10
1563.85455841259
20
342.247278318676
30
0
11
1570.27348736325
21
345.443048904467
31
0
0
LINE
8
layer0
10
1570.27348736325
20
345.443048904467
30
0
11
1565.06447994803
21
345.152396211172
31
0
0
LINE
8
layer0
10
1565.06447994803
20
345.152396211172
30
0
11
1558.82863902917
21
342.047779048503
31
0
0
LINE
8
layer0
10
1563.85455841259
20
342.247278318676
30
0
11
1568.29726873498
21
338.425186811913
31
0
0
LINE
8
layer0
10
1568.29726873498
20
338.425186811913
30
0
11
1574.43445940284
21
341.480689305626
31
0
0
LINE
8
layer0
10
1574.43445940284
20
341.480689305626
30
0
11
1570.27348736325
21
345.443048904467
31
0
0
LINE
8
layer0
10
1570.27348736325
20
345.443048904467
30
0
11
1563.85455841259
21
342.247278318676
31
0
0
LINE
8
layer0
10
1568.29726873498
20
338.425186811913
30
0
11
1569.56078841779
21
332.814843734042
31
0
0
LINE
8
layer0
10
1569.56078841779
20
332.814843734042
30
0
11
1575.11604088497
21
335.580618611395
31
0
0
LINE
8
layer0
10
1575.11604088497
20
335.580618611395
30
0
11
1574.43445940284
21
341.480689305626
31
0
0
LINE
8
layer0
10
1574.43445940284
20
341.480689305626
30
0
11
1568.29726873498
21
338.425186811913
31
0
0
LINE
8
layer0
10
1569.56078841779
20
332.814843734042
30
0
11
1566.9068127815
21
328.694506325057
31
0
0
LINE
8
layer0
10
1566.9068127815
20
328.694506325057
30
0
11
1571.91996749721
21
331.190388816612
31
0
0
LINE
8
layer0
10
1571.91996749721
20
331.190388816612
30
0
11
1575.11604088497
21
335.580618611395
31
0
0
LINE
8
layer0
10
1575.11604088497
20
335.580618611395
30
0
11
1569.56078841779
21
332.814843734042
31
0
0
LINE
8
layer0
10
1566.9068127815
20
328.694506325057
30
0
11
1561.8861230749
21
328.471785983179
31
0
0
LINE
8
layer0
10
1561.8861230749
20
328.471785983179
30
0
11
1566.71378113095
21
330.875315876149
31
0
0
LINE
8
layer0
10
1566.71378113095
20
330.875315876149
30
0
11
1571.91996749721
21
331.190388816612
31
0
0
LINE
8
layer0
10
1571.91996749721
20
331.190388816612
30
0
11
1566.9068127815
21
328.694506325057
31
0
0
LINE
8
layer0
10
1561.8861230749
20
328.471785983179
30
0
11
1557.48559519111
21
332.307092381618
31
0
0
LINE
8
layer0
10
1557.48559519111
20
332.307092381618
30
0
11
1562.5978084688
21
334.852292826533
31
0
0
LINE
8
layer0
10
1562.5978084688
20
334.852292826533
30
0
11
1566.71378113095
21
330.875315876149
31
0
0
LINE
8
layer0
10
1566.71378113095
20
330.875315876149
30
0
11
1561.8861230749
21
328.471785983179
31
0
0
LINE
8
layer0
10
1557.48559519111
20
332.307092381618
30
0
11
1557.39899265074
21
332.332092381618
31
0
0
LINE
8
layer0
10
1557.39899265074
20
332.332092381618
30
0
11
1562.51120592842
21
334.877292826533
31
0
0
LINE
8
layer0
10
1562.51120592842
20
334.877292826533
30
0
11
1562.5978084688
21
334.852292826533
31
0
0
LINE
8
layer0
10
1562.5978084688
20
334.852292826533
30
0
11
1557.48559519111
21
332.307092381618
31
0
0
LINE
8
layer0
10
1562.51120592842
20
334.877292826533
30
0
11
1561.85118439957
21
340.778566525096
31
0
0
LINE
8
layer0
10
1561.85118439957
20
340.778566525096
30
0
11
1567.16997115134
21
341.283142271404
31
0
0
LINE
8
layer0
10
1567.16997115134
20
341.283142271404
30
0
11
1567.28578106904
21
335.330241013276
31
0
0
LINE
8
layer0
10
1567.28578106904
20
335.330241013276
30
0
11
1562.51120592842
21
334.877292826533
31
0
0
LINE
8
layer0
10
1561.85118439957
20
340.778566525096
30
0
11
1565.06447994803
21
345.152396211172
31
0
0
LINE
8
layer0
10
1565.06447994803
20
345.152396211172
30
0
11
1570.88847230025
21
345.704899145537
31
0
0
LINE
8
layer0
10
1570.88847230025
20
345.704899145537
30
0
11
1567.16997115134
21
341.283142271404
31
0
0
LINE
8
layer0
10
1567.16997115134
20
341.283142271404
30
0
11
1561.85118439957
21
340.778566525096
31
0
0
LINE
8
layer0
10
1565.06447994803
20
345.152396211172
30
0
11
1570.27348736325
21
345.443048904467
31
0
0
LINE
8
layer0
10
1570.27348736325
20
345.443048904467
30
0
11
1576.26847562618
21
346.011773656568
31
0
0
LINE
8
layer0
10
1576.26847562618
20
346.011773656568
30
0
11
1570.88847230025
21
345.704899145537
31
0
0
LINE
8
layer0
10
1570.88847230025
20
345.704899145537
30
0
11
1565.06447994803
21
345.152396211172
31
0
0
LINE
8
layer0
10
1570.27348736325
20
345.443048904467
30
0
11
1574.43445940284
21
341.480689305626
31
0
0
LINE
8
layer0
10
1574.43445940284
20
341.480689305626
30
0
11
1580.16631689868
21
342.024451710226
31
0
0
LINE
8
layer0
10
1580.16631689868
20
342.024451710226
30
0
11
1576.26847562618
21
346.011773656568
31
0
0
LINE
8
layer0
10
1576.26847562618
20
346.011773656568
30
0
11
1570.27348736325
21
345.443048904467
31
0
0
LINE
8
layer0
10
1574.43445940284
20
341.480689305626
30
0
11
1575.11604088497
21
335.580618611395
31
0
0
LINE
8
layer0
10
1575.11604088497
20
335.580618611395
30
0
11
1580.30439451753
21
336.072820598135
31
0
0
LINE
8
layer0
10
1580.30439451753
20
336.072820598135
30
0
11
1580.16631689868
21
342.024451710226
31
0
0
LINE
8
layer0
10
1580.16631689868
20
342.024451710226
30
0
11
1574.43445940284
21
341.480689305626
31
0
0
LINE
8
layer0
10
1575.11604088497
20
335.580618611395
30
0
11
1571.91996749721
21
331.190388816612
31
0
0
LINE
8
layer0
10
1571.91996749721
20
331.190388816612
30
0
11
1576.60202643757
21
331.634560296753
31
0
0
LINE
8
layer0
10
1576.60202643757
20
331.634560296753
30
0
11
1580.30439451753
21
336.072820598135
31
0
0
LINE
8
layer0
10
1580.30439451753
20
336.072820598135
30
0
11
1575.11604088497
21
335.580618611395
31
0
0
LINE
8
layer0
10
1571.91996749721
20
331.190388816612
30
0
11
1566.71378113095
21
330.875315876149
31
0
0
LINE
8
layer0
10
1566.71378113095
20
330.875315876149
30
0
11
1571.2225946115
21
331.303052131256
31
0
0
LINE
8
layer0
10
1571.2225946115
20
331.303052131256
30
0
11
1576.60202643757
21
331.634560296753
31
0
0
LINE
8
layer0
10
1576.60202643757
20
331.634560296753
30
0
11
1571.91996749721
21
331.190388816612
31
0
0
LINE
8
layer0
10
1566.71378113095
20
330.875315876149
30
0
11
1562.5978084688
21
334.852292826533
31
0
0
LINE
8
layer0
10
1562.5978084688
20
334.852292826533
30
0
11
1567.37238360942
21
335.305241013276
31
0
0
LINE
8
layer0
10
1567.37238360942
20
335.305241013276
30
0
11
1571.2225946115
21
331.303052131256
31
0
0
LINE
8
layer0
10
1571.2225946115
20
331.303052131256
30
0
11
1566.71378113095
21
330.875315876149
31
0
0
LINE
8
layer0
10
1562.5978084688
20
334.852292826533
30
0
11
1562.51120592842
21
334.877292826533
31
0
0
LINE
8
layer0
10
1562.51120592842
20
334.877292826533
30
0
11
1567.28578106904
21
335.330241013276
31
0
0
LINE
8
layer0
10
1567.28578106904
20
335.330241013276
30
0
11
1567.37238360942
21
335.305241013276
31
0
0
LINE
8
layer0
10
1567.37238360942
20
335.305241013276
30
0
11
1562.5978084688
21
334.852292826533
31
0
0
LINE
8
layer0
10
1567.28578106904
20
335.330241013276
30
0
11
1567.16997115134
21
341.283142271404
31
0
0
LINE
8
layer0
10
1567.16997115134
20
341.283142271404
30
0
11
1571.88017887623
21
339.434936039638
31
0
0
LINE
8
layer0
10
1571.88017887623
20
339.434936039638
30
0
11
1571.51404622802
21
333.671140932601
31
0
0
LINE
8
layer0
10
1571.51404622802
20
333.671140932601
30
0
11
1567.28578106904
21
335.330241013276
31
0
0
LINE
8
layer0
10
1567.16997115134
20
341.283142271404
30
0
11
1570.88847230025
21
345.704899145537
31
0
0
LINE
8
layer0
10
1570.88847230025
20
345.704899145537
30
0
11
1576.04607967341
21
343.681140822164
31
0
0
LINE
8
layer0
10
1576.04607967341
20
343.681140822164
30
0
11
1571.88017887623
21
339.434936039638
31
0
0
LINE
8
layer0
10
1571.88017887623
20
339.434936039638
30
0
11
1567.16997115134
21
341.283142271404
31
0
0
LINE
8
layer0
10
1570.88847230025
20
345.704899145537
30
0
11
1576.26847562618
21
346.011773656568
31
0
0
LINE
8
layer0
10
1576.26847562618
20
346.011773656568
30
0
11
1581.57751344713
21
343.928596574269
31
0
0
LINE
8
layer0
10
1581.57751344713
20
343.928596574269
30
0
11
1576.04607967341
21
343.681140822164
31
0
0
LINE
8
layer0
10
1576.04607967341
20
343.681140822164
30
0
11
1570.88847230025
21
345.704899145537
31
0
0
LINE
8
layer0
10
1576.26847562618
20
346.011773656568
30
0
11
1580.16631689868
21
342.024451710226
31
0
0
LINE
8
layer0
10
1580.16631689868
20
342.024451710226
30
0
11
1585.24233154543
21
340.032708999372
31
0
0
LINE
8
layer0
10
1585.24233154543
20
340.032708999372
30
0
11
1581.57751344713
21
343.928596574269
31
0
0
LINE
8
layer0
10
1581.57751344713
20
343.928596574269
30
0
11
1576.26847562618
21
346.011773656568
31
0
0
LINE
8
layer0
10
1580.16631689868
20
342.024451710226
30
0
11
1580.30439451753
21
336.072820598135
31
0
0
LINE
8
layer0
10
1580.30439451753
20
336.072820598135
30
0
11
1584.89909336526
21
334.269938105594
31
0
0
LINE
8
layer0
10
1584.89909336526
20
334.269938105594
30
0
11
1585.24233154543
21
340.032708999372
31
0
0
LINE
8
layer0
10
1585.24233154543
20
340.032708999372
30
0
11
1580.16631689868
21
342.024451710226
31
0
0
LINE
8
layer0
10
1580.30439451753
20
336.072820598135
30
0
11
1576.60202643757
21
331.634560296753
31
0
0
LINE
8
layer0
10
1576.60202643757
20
331.634560296753
30
0
11
1580.74836115985
21
330.007608340428
31
0
0
LINE
8
layer0
10
1580.74836115985
20
330.007608340428
30
0
11
1584.89909336526
21
334.269938105594
31
0
0
LINE
8
layer0
10
1584.89909336526
20
334.269938105594
30
0
11
1580.30439451753
21
336.072820598135
31
0
0
LINE
8
layer0
10
1576.60202643757
20
331.634560296753
30
0
11
1571.2225946115
21
331.303052131256
31
0
0
LINE
8
layer0
10
1571.2225946115
20
331.303052131256
30
0
11
1575.21550673176
21
329.736300621645
31
0
0
LINE
8
layer0
10
1575.21550673176
20
329.736300621645
30
0
11
1580.74836115985
21
330.007608340428
31
0
0
LINE
8
layer0
10
1580.74836115985
20
330.007608340428
30
0
11
1576.60202643757
21
331.634560296753
31
0
0
LINE
8
layer0
10
1571.2225946115
20
331.303052131256
30
0
11
1567.37238360942
21
335.305241013276
31
0
0
LINE
8
layer0
10
1567.37238360942
20
335.305241013276
30
0
11
1571.60064876839
21
333.646140932601
31
0
0
LINE
8
layer0
10
1571.60064876839
20
333.646140932601
30
0
11
1575.21550673176
21
329.736300621645
31
0
0
LINE
8
layer0
10
1575.21550673176
20
329.736300621645
30
0
11
1571.2225946115
21
331.303052131256
31
0
0
LINE
8
layer0
10
1567.37238360942
20
335.305241013276
30
0
11
1567.28578106904
21
335.330241013276
31
0
0
LINE
8
layer0
10
1567.28578106904
20
335.330241013276
30
0
11
1571.51404622802
21
333.671140932601
31
0
0
LINE
8
layer0
10
1571.51404622802
20
333.671140932601
30
0
11
1571.60064876839
21
333.646140932601
31
0
0
LINE
8
layer0
10
1571.60064876839
20
333.646140932601
30
0
11
1567.37238360942
21
335.305241013276
31
0
0
LINE
8
layer0
10
1571.51404622802
20
333.671140932601
30
0
11
1571.88017887623
21
339.434936039638
31
0
0
LINE
8
layer0
10
1571.88017887623
20
339.434936039638
30
0
11
1575.7759488946
21
335.314723310802
31
0
0
LINE
8
layer0
10
1575.7759488946
20
335.314723310802
30
0
11
1575.01120592842
21
329.972503219278
31
0
0
LINE
8
layer0
10
1575.01120592842
20
329.972503219278
30
0
11
1571.51404622802
21
333.671140932601
31
0
0
LINE
8
layer0
10
1571.88017887623
20
339.434936039638
30
0
11
1576.04607967341
21
343.681140822164
31
0
0
LINE
8
layer0
10
1576.04607967341
20
343.681140822164
30
0
11
1580.31188987635
21
339.169569190854
31
0
0
LINE
8
layer0
10
1580.31188987635
20
339.169569190854
30
0
11
1575.7759488946
21
335.314723310802
31
0
0
LINE
8
layer0
10
1575.7759488946
20
335.314723310802
30
0
11
1571.88017887623
21
339.434936039638
31
0
0
LINE
8
layer0
10
1576.04607967341
20
343.681140822164
30
0
11
1581.57751344713
21
343.928596574269
31
0
0
LINE
8
layer0
10
1581.57751344713
20
343.928596574269
30
0
11
1585.96857039775
21
339.284562492258
31
0
0
LINE
8
layer0
10
1585.96857039775
20
339.284562492258
30
0
11
1580.31188987635
21
339.169569190854
31
0
0
LINE
8
layer0
10
1580.31188987635
20
339.169569190854
30
0
11
1576.04607967341
21
343.681140822164
31
0
0
LINE
8
layer0
10
1581.57751344713
20
343.928596574269
30
0
11
1585.24233154543
21
340.032708999372
31
0
0
LINE
8
layer0
10
1585.24233154543
20
340.032708999372
30
0
11
1589.44065714562
21
335.592509886969
31
0
0
LINE
8
layer0
10
1589.44065714562
20
335.592509886969
30
0
11
1585.96857039775
21
339.284562492258
31
0
0
LINE
8
layer0
10
1585.96857039775
20
339.284562492258
30
0
11
1581.57751344713
21
343.928596574269
31
0
0
LINE
8
layer0
10
1585.24233154543
20
340.032708999372
30
0
11
1584.89909336526
21
334.269938105594
31
0
0
LINE
8
layer0
10
1584.89909336526
20
334.269938105594
30
0
11
1588.69932704068
21
330.250765749885
31
0
0
LINE
8
layer0
10
1588.69932704068
20
330.250765749885
30
0
11
1589.44065714562
21
335.592509886969
31
0
0
LINE
8
layer0
10
1589.44065714562
20
335.592509886969
30
0
11
1585.24233154543
21
340.032708999372
31
0
0
LINE
8
layer0
10
1584.89909336526
20
334.269938105594
30
0
11
1580.74836115985
21
330.007608340428
31
0
0
LINE
8
layer0
10
1580.74836115985
20
330.007608340428
30
0
11
1584.17775694039
21
326.380638555108
31
0
0
LINE
8
layer0
10
1584.17775694039
20
326.380638555108
30
0
11
1588.69932704068
21
330.250765749885
31
0
0
LINE
8
layer0
10
1588.69932704068
20
330.250765749885
30
0
11
1584.89909336526
21
334.269938105594
31
0
0
LINE
8
layer0
10
1580.74836115985
20
330.007608340428
30
0
11
1575.21550673176
21
329.736300621645
31
0
0
LINE
8
layer0
10
1575.21550673176
20
329.736300621645
30
0
11
1578.51800807196
21
326.243535906394
31
0
0
LINE
8
layer0
10
1578.51800807196
20
326.243535906394
30
0
11
1584.17775694039
21
326.380638555108
31
0
0
LINE
8
layer0
10
1584.17775694039
20
326.380638555108
30
0
11
1580.74836115985
21
330.007608340428
31
0
0
LINE
8
layer0
10
1575.21550673176
20
329.736300621645
30
0
11
1571.60064876839
21
333.646140932601
31
0
0
LINE
8
layer0
10
1571.60064876839
20
333.646140932601
30
0
11
1575.0978084688
21
329.947503219278
31
0
0
LINE
8
layer0
10
1575.0978084688
20
329.947503219278
30
0
11
1578.51800807196
21
326.243535906394
31
0
0
LINE
8
layer0
10
1578.51800807196
20
326.243535906394
30
0
11
1575.21550673176
21
329.736300621645
31
0
0
LINE
8
layer0
10
1571.60064876839
20
333.646140932601
30
0
11
1571.51404622802
21
333.671140932601
31
0
0
LINE
8
layer0
10
1571.51404622802
20
333.671140932601
30
0
11
1575.01120592842
21
329.972503219278
31
0
0
LINE
8
layer0
10
1575.01120592842
20
329.972503219278
30
0
11
1575.0978084688
21
329.947503219278
31
0
0
LINE
8
layer0
10
1575.0978084688
20
329.947503219278
30
0
11
1571.60064876839
21
333.646140932601
31
0
0
LINE
8
layer0
10
1575.01120592842
20
329.972503219278
30
0
11
1575.7759488946
21
335.314723310802
31
0
0
LINE
8
layer0
10
1575.7759488946
20
335.314723310802
30
0
11
1578.68701736266
21
329.102577152123
31
0
0
LINE
8
layer0
10
1578.68701736266
20
329.102577152123
30
0
11
1577.62441751011
21
324.395976089412
31
0
0
LINE
8
layer0
10
1577.62441751011
20
324.395976089412
30
0
11
1575.01120592842
21
329.972503219278
31
0
0
LINE
8
layer0
10
1575.7759488946
20
335.314723310802
30
0
11
1580.31188987635
21
339.169569190854
31
0
0
LINE
8
layer0
10
1580.31188987635
20
339.169569190854
30
0
11
1583.49946653359
21
332.367361580818
31
0
0
LINE
8
layer0
10
1583.49946653359
20
332.367361580818
30
0
11
1578.68701736266
21
329.102577152123
31
0
0
LINE
8
layer0
10
1578.68701736266
20
329.102577152123
30
0
11
1575.7759488946
21
335.314723310802
31
0
0
LINE
8
layer0
10
1580.31188987635
20
339.169569190854
30
0
11
1585.96857039775
21
339.284562492258
31
0
0
LINE
8
layer0
10
1585.96857039775
20
339.284562492258
30
0
11
1589.24973621866
21
332.282637984468
31
0
0
LINE
8
layer0
10
1589.24973621866
20
332.282637984468
30
0
11
1583.49946653359
21
332.367361580818
31
0
0
LINE
8
layer0
10
1583.49946653359
20
332.367361580818
30
0
11
1580.31188987635
21
339.169569190854
31
0
0
LINE
8
layer0
10
1585.96857039775
20
339.284562492258
30
0
11
1589.44065714562
21
335.592509886969
31
0
0
LINE
8
layer0
10
1589.44065714562
20
335.592509886969
30
0
11
1592.57780672471
21
328.897912380669
31
0
0
LINE
8
layer0
10
1592.57780672471
20
328.897912380669
30
0
11
1589.24973621866
21
332.282637984468
31
0
0
LINE
8
layer0
10
1589.24973621866
20
332.282637984468
30
0
11
1585.96857039775
21
339.284562492258
31
0
0
LINE
8
layer0
10
1589.44065714562
20
335.592509886969
30
0
11
1588.69932704068
21
330.250765749885
31
0
0
LINE
8
layer0
10
1588.69932704068
20
330.250765749885
30
0
11
1591.53900709664
21
324.190960649082
31
0
0
LINE
8
layer0
10
1591.53900709664
20
324.190960649082
30
0
11
1592.57780672471
21
328.897912380669
31
0
0
LINE
8
layer0
10
1592.57780672471
20
328.897912380669
30
0
11
1589.44065714562
21
335.592509886969
31
0
0
LINE
8
layer0
10
1588.69932704068
20
330.250765749885
30
0
11
1584.17775694039
21
326.380638555108
31
0
0
LINE
8
layer0
10
1584.17775694039
20
326.380638555108
30
0
11
1586.74033272749
21
320.912166924545
31
0
0
LINE
8
layer0
10
1586.74033272749
20
320.912166924545
30
0
11
1591.53900709664
21
324.190960649082
31
0
0
LINE
8
layer0
10
1591.53900709664
20
324.190960649082
30
0
11
1588.69932704068
21
330.250765749885
31
0
0
LINE
8
layer0
10
1584.17775694039
20
326.380638555108
30
0
11
1578.51800807196
21
326.243535906394
31
0
0
LINE
8
layer0
10
1578.51800807196
20
326.243535906394
30
0
11
1580.98576347637
21
320.977408563703
31
0
0
LINE
8
layer0
10
1580.98576347637
20
320.977408563703
30
0
11
1586.74033272749
21
320.912166924545
31
0
0
LINE
8
layer0
10
1586.74033272749
20
320.912166924545
30
0
11
1584.17775694039
21
326.380638555108
31
0
0
LINE
8
layer0
10
1578.51800807196
20
326.243535906394
30
0
11
1575.0978084688
21
329.947503219278
31
0
0
LINE
8
layer0
10
1575.0978084688
20
329.947503219278
30
0
11
1577.71102005049
21
324.370976089412
31
0
0
LINE
8
layer0
10
1577.71102005049
20
324.370976089412
30
0
11
1580.98576347637
21
320.977408563703
31
0
0
LINE
8
layer0
10
1580.98576347637
20
320.977408563703
30
0
11
1578.51800807196
21
326.243535906394
31
0
0
LINE
8
layer0
10
1575.0978084688
20
329.947503219278
30
0
11
1575.01120592842
21
329.972503219278
31
0
0
LINE
8
layer0
10
1575.01120592842
20
329.972503219278
30
0
11
1577.62441751011
21
324.395976089412
31
0
0
LINE
8
layer0
10
1577.62441751011
20
324.395976089412
30
0
11
1577.71102005049
21
324.370976089412
31
0
0
LINE
8
layer0
10
1577.71102005049
20
324.370976089412
30
0
11
1575.0978084688
21
329.947503219278
31
0
0
LINE
8
layer0
10
1577.62441751011
20
324.395976089412
30
0
11
1578.68701736266
21
329.102577152123
31
0
0
LINE
8
layer0
10
1578.68701736266
20
329.102577152123
30
0
11
1580.4861566195
21
321.069998159917
31
0
0
LINE
8
layer0
10
1580.4861566195
20
321.069998159917
30
0
11
1579.23947108739
21
317.185280537725
31
0
0
LINE
8
layer0
10
1579.23947108739
20
317.185280537725
30
0
11
1577.62441751011
21
324.395976089412
31
0
0
LINE
8
layer0
10
1578.68701736266
20
329.102577152123
30
0
11
1583.49946653359
21
332.367361580818
31
0
0
LINE
8
layer0
10
1583.49946653359
20
332.367361580818
30
0
11
1585.46949724951
21
323.571807105228
31
0
0
LINE
8
layer0
10
1585.46949724951
20
323.571807105228
30
0
11
1580.4861566195
21
321.069998159917
31
0
0
LINE
8
layer0
10
1580.4861566195
20
321.069998159917
30
0
11
1578.68701736266
21
329.102577152123
31
0
0
LINE
8
layer0
10
1583.49946653359
20
332.367361580818
30
0
11
1589.24973621866
21
332.282637984468
31
0
0
LINE
8
layer0
10
1589.24973621866
20
332.282637984468
30
0
11
1591.2776082187
21
323.228840750851
31
0
0
LINE
8
layer0
10
1591.2776082187
20
323.228840750851
30
0
11
1585.46949724951
21
323.571807105228
31
0
0
LINE
8
layer0
10
1585.46949724951
20
323.571807105228
30
0
11
1583.49946653359
21
332.367361580818
31
0
0
LINE
8
layer0
10
1589.24973621866
20
332.282637984468
30
0
11
1592.57780672471
21
328.897912380669
31
0
0
LINE
8
layer0
10
1592.57780672471
20
328.897912380669
30
0
11
1594.51667179237
21
320.24150251574
31
0
0
LINE
8
layer0
10
1594.51667179237
20
320.24150251574
30
0
11
1591.2776082187
21
323.228840750851
31
0
0
LINE
8
layer0
10
1591.2776082187
20
323.228840750851
30
0
11
1589.24973621866
21
332.282637984468
31
0
0
LINE
8
layer0
10
1592.57780672471
20
328.897912380669
30
0
11
1591.53900709664
21
324.190960649082
31
0
0
LINE
8
layer0
10
1591.53900709664
20
324.190960649082
30
0
11
1593.2940258884
21
316.355365364261
31
0
0
LINE
8
layer0
10
1593.2940258884
20
316.355365364261
30
0
11
1594.51667179237
21
320.24150251574
31
0
0
LINE
8
layer0
10
1594.51667179237
20
320.24150251574
30
0
11
1592.57780672471
21
328.897912380669
31
0
0
LINE
8
layer0
10
1591.53900709664
20
324.190960649082
30
0
11
1586.74033272749
21
320.912166924545
31
0
0
LINE
8
layer0
10
1586.74033272749
20
320.912166924545
30
0
11
1588.32409166267
21
313.841191899632
31
0
0
LINE
8
layer0
10
1588.32409166267
20
313.841191899632
30
0
11
1593.2940258884
21
316.355365364261
31
0
0
LINE
8
layer0
10
1593.2940258884
20
316.355365364261
30
0
11
1591.53900709664
21
324.190960649082
31
0
0
LINE
8
layer0
10
1586.74033272749
20
320.912166924545
30
0
11
1580.98576347637
21
320.977408563703
31
0
0
LINE
8
layer0
10
1580.98576347637
20
320.977408563703
30
0
11
1582.51092019222
21
314.168073628132
31
0
0
LINE
8
layer0
10
1582.51092019222
20
314.168073628132
30
0
11
1588.32409166267
21
313.841191899632
31
0
0
LINE
8
layer0
10
1588.32409166267
20
313.841191899632
30
0
11
1586.74033272749
21
320.912166924545
31
0
0
LINE
8
layer0
10
1580.98576347637
20
320.977408563703
30
0
11
1577.71102005049
21
324.370976089412
31
0
0
LINE
8
layer0
10
1577.71102005049
20
324.370976089412
30
0
11
1579.32607362777
21
317.160280537725
31
0
0
LINE
8
layer0
10
1579.32607362777
20
317.160280537725
30
0
11
1582.51092019222
21
314.168073628132
31
0
0
LINE
8
layer0
10
1582.51092019222
20
314.168073628132
30
0
11
1580.98576347637
21
320.977408563703
31
0
0
LINE
8
layer0
10
1577.71102005049
20
324.370976089412
30
0
11
1577.62441751011
21
324.395976089412
31
0
0
LINE
8
layer0
10
1577.62441751011
20
324.395976089412
30
0
11
1579.23947108739
21
317.185280537725
31
0
0
LINE
8
layer0
10
1579.23947108739
20
317.185280537725
30
0
11
1579.32607362777
21
317.160280537725
31
0
0
LINE
8
layer0
10
1579.32607362777
20
317.160280537725
30
0
11
1577.71102005049
21
324.370976089412
31
0
0
LINE
8
layer0
10
1579.23947108739
20
317.185280537725
30
0
11
1580.4861566195
21
321.069998159917
31
0
0
LINE
8
layer0
10
1580.4861566195
20
321.069998159917
30
0
11
1581.09473564636
21
311.568048580735
31
0
0
LINE
8
layer0
10
1581.09473564636
20
311.568048580735
30
0
11
1579.78578106904
21
308.655558560582
31
0
0
LINE
8
layer0
10
1579.78578106904
20
308.655558560582
30
0
11
1579.23947108739
21
317.185280537725
31
0
0
LINE
8
layer0
10
1580.4861566195
20
321.069998159917
30
0
11
1585.46949724951
21
323.571807105228
31
0
0
LINE
8
layer0
10
1585.46949724951
20
323.571807105228
30
0
11
1586.13588222857
21
313.167313700421
31
0
0
LINE
8
layer0
10
1586.13588222857
20
313.167313700421
30
0
11
1581.09473564636
21
311.568048580735
31
0
0
LINE
8
layer0
10
1581.09473564636
20
311.568048580735
30
0
11
1580.4861566195
21
321.069998159917
31
0
0
LINE
8
layer0
10
1585.46949724951
20
323.571807105228
30
0
11
1591.2776082187
21
323.228840750851
31
0
0
LINE
8
layer0
10
1591.2776082187
20
323.228840750851
30
0
11
1591.96355866067
21
312.518865175455
31
0
0
LINE
8
layer0
10
1591.96355866067
20
312.518865175455
30
0
11
1586.13588222857
21
313.167313700421
31
0
0
LINE
8
layer0
10
1586.13588222857
20
313.167313700421
30
0
11
1585.46949724951
21
323.571807105228
31
0
0
LINE
8
layer0
10
1591.2776082187
20
323.228840750851
30
0
11
1594.51667179237
21
320.24150251574
31
0
0
LINE
8
layer0
10
1594.51667179237
20
320.24150251574
30
0
11
1595.17251464146
21
310.001606941342
31
0
0
LINE
8
layer0
10
1595.17251464146
20
310.001606941342
30
0
11
1591.96355866067
21
312.518865175455
31
0
0
LINE
8
layer0
10
1591.96355866067
20
312.518865175455
30
0
11
1591.2776082187
21
323.228840750851
31
0
0
LINE
8
layer0
10
1594.51667179237
20
320.24150251574
30
0
11
1593.2940258884
21
316.355365364261
31
0
0
LINE
8
layer0
10
1593.2940258884
20
316.355365364261
30
0
11
1593.88768067324
21
307.086433008727
31
0
0
LINE
8
layer0
10
1593.88768067324
20
307.086433008727
30
0
11
1595.17251464146
21
310.001606941342
31
0
0
LINE
8
layer0
10
1595.17251464146
20
310.001606941342
30
0
11
1594.51667179237
21
320.24150251574
31
0
0
LINE
8
layer0
10
1593.2940258884
20
316.355365364261
30
0
11
1588.32409166267
21
313.841191899632
31
0
0
LINE
8
layer0
10
1588.32409166267
20
313.841191899632
30
0
11
1588.85981588074
21
305.476749019261
31
0
0
LINE
8
layer0
10
1588.85981588074
20
305.476749019261
30
0
11
1593.88768067324
21
307.086433008727
31
0
0
LINE
8
layer0
10
1593.88768067324
20
307.086433008727
30
0
11
1593.2940258884
21
316.355365364261
31
0
0
LINE
8
layer0
10
1588.32409166267
20
313.841191899632
30
0
11
1582.51092019222
21
314.168073628132
31
0
0
LINE
8
layer0
10
1582.51092019222
20
314.168073628132
30
0
11
1583.02682155251
21
306.113131711178
31
0
0
LINE
8
layer0
10
1583.02682155251
20
306.113131711178
30
0
11
1588.85981588074
21
305.476749019261
31
0
0
LINE
8
layer0
10
1588.85981588074
20
305.476749019261
30
0
11
1588.32409166267
21
313.841191899632
31
0
0
LINE
8
layer0
10
1582.51092019222
20
314.168073628132
30
0
11
1579.32607362777
21
317.160280537725
31
0
0
LINE
8
layer0
10
1579.32607362777
20
317.160280537725
30
0
11
1579.87238360942
21
308.630558560582
31
0
0
LINE
8
layer0
10
1579.87238360942
20
308.630558560582
30
0
11
1583.02682155251
21
306.113131711178
31
0
0
LINE
8
layer0
10
1583.02682155251
20
306.113131711178
30
0
11
1582.51092019222
21
314.168073628132
31
0
0
LINE
8
layer0
10
1579.32607362777
20
317.160280537725
30
0
11
1579.23947108739
21
317.185280537725
31
0
0
LINE
8
layer0
10
1579.23947108739
20
317.185280537725
30
0
11
1579.78578106904
21
308.655558560582
31
0
0
LINE
8
layer0
10
1579.78578106904
20
308.655558560582
30
0
11
1579.87238360942
21
308.630558560582
31
0
0
LINE
8
layer0
10
1579.87238360942
20
308.630558560582
30
0
11
1579.32607362777
21
317.160280537725
31
0
0
ENDBLK
0
BLOCK
8
layer0
2
PF_OBJECT63
70
0
10
0
20
0
30
0
0
LINE
8
layer0
10
1581.81061651333
20
206.390222193283
30
0
11
1582.03561750234
21
208.654811055887
31
0
0
LINE
8
layer0
10
1582.03561750234
20
208.654811055887
30
0
11
1547.58911111958
21
231.231825074392
31
0
0
LINE
8
layer0
10
1547.58911111958
20
231.231825074392
30
0
11
1547.13910914155
21
226.702647349184
31
0
0
LINE
8
layer0
10
1547.13910914155
20
226.702647349184
30
0
11
1581.81061651333
21
206.390222193283
31
0
0
LINE
8
layer0
10
1579.83473673198
20
199.935559989019
30
0
11
1581.81061651333
21
206.390222193283
31
0
0
LINE
8
layer0
10
1581.81061651333
20
206.390222193283
30
0
11
1547.13910914155
21
226.702647349184
31
0
0
LINE
8
layer0
10
1547.13910914155
20
226.702647349184
30
0
11
1543.18734957887
21
213.793322940655
31
0
0
LINE
8
layer0
10
1543.18734957887
20
213.793322940655
30
0
11
1579.83473673198
21
199.935559989019
31
0
0
LINE
8
layer0
10
1577.26542173661
20
193.071878021815
30
0
11
1579.83473673198
21
199.935559989019
31
0
0
LINE
8
layer0
10
1579.83473673198
20
199.935559989019
30
0
11
1543.18734957887
21
213.793322940655
31
0
0
LINE
8
layer0
10
1543.18734957887
20
213.793322940655
30
0
11
1538.04871958811
21
200.065959006247
31
0
0
LINE
8
layer0
10
1538.04871958811
20
200.065959006247
30
0
11
1577.26542173661
21
193.071878021815
31
0
0
LINE
8
layer0
10
1575.60774140547
20
189.819828100244
30
0
11
1577.26542173661
21
193.071878021815
31
0
0
LINE
8
layer0
10
1577.26542173661
20
193.071878021815
30
0
11
1538.04871958811
21
200.065959006247
31
0
0
LINE
8
layer0
10
1538.04871958811
20
200.065959006247
30
0
11
1534.73335892585
21
193.561859163106
31
0
0
LINE
8
layer0
10
1534.73335892585
20
193.561859163106
30
0
11
1575.60774140547
21
189.819828100244
31
0
0
LINE
8
layer0
10
1575.83274239449
20
192.084416962848
30
0
11
1575.60774140547
21
189.819828100244
31
0
0
LINE
8
layer0
10
1575.60774140547
20
189.819828100244
30
0
11
1534.73335892585
21
193.561859163106
31
0
0
LINE
8
layer0
10
1534.73335892585
20
193.561859163106
30
0
11
1535.18336090388
21
198.091036888314
31
0
0
LINE
8
layer0
10
1535.18336090388
20
198.091036888314
30
0
11
1575.83274239449
21
192.084416962848
31
0
0
LINE
8
layer0
10
1577.80862217583
20
198.539079167113
30
0
11
1575.83274239449
21
192.084416962848
31
0
0
LINE
8
layer0
10
1575.83274239449
20
192.084416962848
30
0
11
1535.18336090388
21
198.091036888314
31
0
0
LINE
8
layer0
10
1535.18336090388
20
198.091036888314
30
0
11
1539.13512046656
21
211.000361296843
31
0
0
LINE
8
layer0
10
1539.13512046656
20
211.000361296843
30
0
11
1577.80862217583
21
198.539079167113
31
0
0
LINE
8
layer0
10
1580.37793717121
20
205.402761134317
30
0
11
1577.80862217583
21
198.539079167113
31
0
0
LINE
8
layer0
10
1577.80862217583
20
198.539079167113
30
0
11
1539.13512046656
21
211.000361296843
31
0
0
LINE
8
layer0
10
1539.13512046656
20
211.000361296843
30
0
11
1544.27375045732
21
224.727725231251
31
0
0
LINE
8
layer0
10
1544.27375045732
20
224.727725231251
30
0
11
1580.37793717121
21
205.402761134317
31
0
0
LINE
8
layer0
10
1582.03561750234
20
208.654811055887
30
0
11
1580.37793717121
21
205.402761134317
31
0
0
LINE
8
layer0
10
1580.37793717121
20
205.402761134317
30
0
11
1544.27375045732
21
224.727725231251
31
0
0
LINE
8
layer0
10
1544.27375045732
20
224.727725231251
30
0
11
1547.58911111958
21
231.231825074392
31
0
0
LINE
8
layer0
10
1547.58911111958
20
231.231825074392
30
0
11
1582.03561750234
21
208.654811055887
31
0
0
LINE
8
layer0
10
1547.58911111958
20
231.231825074392
30
0
11
1544.27375045732
21
224.727725231251
31
0
0
LINE
8
layer0
10
1544.27375045732
20
224.727725231251
30
0
11
1539.13512046656
21
211.000361296843
31
0
0
LINE
8
layer0
10
1539.13512046656
20
211.000361296843
30
0
11
1535.18336090388
21
198.091036888314
31
0
0
LINE
8
layer0
10
1535.18336090388
20
198.091036888314
30
0
11
1534.73335892585
21
193.561859163106
31
0
0
LINE
8
layer0
10
1534.73335892585
20
193.561859163106
30
0
11
1538.04871958811
21
200.065959006247
31
0
0
LINE
8
layer0
10
1538.04871958811
20
200.065959006247
30
0
11
1543.18734957887
21
213.793322940655
31
0
0
LINE
8
layer0
10
1543.18734957887
20
213.793322940655
30
0
11
1547.13910914155
21
226.702647349184
31
0
0
LINE
8
layer0
10
1547.13910914155
20
226.702647349184
30
0
11
1547.58911111958
21
231.231825074392
31
0
0
LINE
8
layer0
10
1580.37793717121
20
205.402761134317
30
0
11
1582.03561750234
21
208.654811055887
31
0
0
LINE
8
layer0
10
1582.03561750234
20
208.654811055887
30
0
11
1581.81061651333
21
206.390222193283
31
0
0
LINE
8
layer0
10
1581.81061651333
20
206.390222193283
30
0
11
1579.83473673198
21
199.935559989019
31
0
0
LINE
8
layer0
10
1579.83473673198
20
199.935559989019
30
0
11
1577.26542173661
21
193.071878021815
31
0
0
LINE
8
layer0
10
1577.26542173661
20
193.071878021815
30
0
11
1575.60774140547
21
189.819828100244
31
0
0
LINE
8
layer0
10
1575.60774140547
20
189.819828100244
30
0
11
1575.83274239449
21
192.084416962848
31
0
0
LINE
8
layer0
10
1575.83274239449
20
192.084416962848
30
0
11
1577.80862217583
21
198.539079167113
31
0
0
LINE
8
layer0
10
1577.80862217583
20
198.539079167113
30
0
11
1580.37793717121
21
205.402761134317
31
0
0
ENDBLK
0
BLOCK
8
layer0
2
PF_OBJECT64
70
0
10
0
20
0
30
0
0
LINE
8
layer0
10
1603.82216960385
20
198.63499418135
30
0
11
1599.35612557803
21
203.654811055887
31
0
0
LINE
8
layer0
10
1599.35612557803
20
203.654811055887
30
0
11
1624.90961919527
21
208.911316998703
31
0
0
LINE
8
layer0
10
1624.90961919527
20
208.911316998703
30
0
11
1633.84170724692
21
198.871683249629
31
0
0
LINE
8
layer0
10
1633.84170724692
20
198.871683249629
30
0
11
1603.82216960385
21
198.63499418135
31
0
0
LINE
8
layer0
10
1603.78938428936
20
191.039079167113
30
0
11
1603.82216960385
21
198.63499418135
31
0
0
LINE
8
layer0
10
1603.82216960385
20
198.63499418135
30
0
11
1633.84170724692
21
198.871683249629
31
0
0
LINE
8
layer0
10
1633.84170724692
20
198.871683249629
30
0
11
1633.77613661794
21
183.679853221155
31
0
0
LINE
8
layer0
10
1633.77613661794
20
183.679853221155
30
0
11
1603.78938428936
21
191.039079167113
31
0
0
LINE
8
layer0
10
1599.27697482713
20
185.316650009882
30
0
11
1603.78938428936
21
191.039079167113
31
0
0
LINE
8
layer0
10
1603.78938428936
20
191.039079167113
30
0
11
1633.77613661794
21
183.679853221155
31
0
0
LINE
8
layer0
10
1633.77613661794
20
183.679853221155
30
0
11
1624.75131769348
21
172.234994906693
31
0
0
LINE
8
layer0
10
1624.75131769348
20
172.234994906693
30
0
11
1599.27697482713
21
185.316650009882
31
0
0
LINE
8
layer0
10
1592.92824948116
20
184.819828100244
30
0
11
1599.27697482713
21
185.316650009882
31
0
0
LINE
8
layer0
10
1599.27697482713
20
185.316650009882
30
0
11
1624.75131769348
21
172.234994906693
31
0
0
LINE
8
layer0
10
1624.75131769348
20
172.234994906693
30
0
11
1612.05386700154
21
171.241351087417
31
0
0
LINE
8
layer0
10
1612.05386700154
20
171.241351087417
30
0
11
1592.92824948116
21
184.819828100244
31
0
0
LINE
8
layer0
10
1588.46220545534
20
189.839644974781
30
0
11
1592.92824948116
21
184.819828100244
31
0
0
LINE
8
layer0
10
1592.92824948116
20
184.819828100244
30
0
11
1612.05386700154
21
171.241351087417
31
0
0
LINE
8
layer0
10
1612.05386700154
20
171.241351087417
30
0
11
1603.12177894989
21
181.280984836491
31
0
0
LINE
8
layer0
10
1603.12177894989
20
181.280984836491
30
0
11
1588.46220545534
21
189.839644974781
31
0
0
LINE
8
layer0
10
1588.49499076983
20
197.435559989019
30
0
11
1588.46220545534
21
189.839644974781
31
0
0
LINE
8
layer0
10
1588.46220545534
20
189.839644974781
30
0
11
1603.12177894989
21
181.280984836491
31
0
0
LINE
8
layer0
10
1603.12177894989
20
181.280984836491
30
0
11
1603.18734957887
21
196.472814864966
31
0
0
LINE
8
layer0
10
1603.18734957887
20
196.472814864966
30
0
11
1588.49499076983
21
197.435559989019
31
0
0
LINE
8
layer0
10
1593.00740023206
20
203.157989146249
30
0
11
1588.49499076983
21
197.435559989019
31
0
0
LINE
8
layer0
10
1588.49499076983
20
197.435559989019
30
0
11
1603.18734957887
21
196.472814864966
31
0
0
LINE
8
layer0
10
1603.18734957887
20
196.472814864966
30
0
11
1612.21216850333
21
207.917673179428
31
0
0
LINE
8
layer0
10
1612.21216850333
20
207.917673179428
30
0
11
1593.00740023206
21
203.157989146249
31
0
0
LINE
8
layer0
10
1599.35612557803
20
203.654811055887
30
0
11
1593.00740023206
21
203.157989146249
31
0
0
LINE
8
layer0
10
1593.00740023206
20
203.157989146249
30
0
11
1612.21216850333
21
207.917673179428
31
0
0
LINE
8
layer0
10
1612.21216850333
20
207.917673179428
30
0
11
1624.90961919527
21
208.911316998703
31
0
0
LINE
8
layer0
10
1624.90961919527
20
208.911316998703
30
0
11
1599.35612557803
21
203.654811055887
31
0
0
LINE
8
layer0
10
1624.90961919527
20
208.911316998703
30
0
11
1612.21216850333
21
207.917673179428
31
0
0
LINE
8
layer0
10
1612.21216850333
20
207.917673179428
30
0
11
1603.18734957887
21
196.472814864966
31
0
0
LINE
8
layer0
10
1603.18734957887
20
196.472814864966
30
0
11
1603.12177894989
21
181.280984836491
31
0
0
LINE
8
layer0
10
1603.12177894989
20
181.280984836491
30
0
11
1612.05386700154
21
171.241351087417
31
0
0
LINE
8
layer0
10
1612.05386700154
20
171.241351087417
30
0
11
1624.75131769348
21
172.234994906693
31
0
0
LINE
8
layer0
10
1624.75131769348
20
172.234994906693
30
0
11
1633.77613661794
21
183.679853221155
31
0
0
LINE
8
layer0
10
1633.77613661794
20
183.679853221155
30
0
11
1633.84170724692
21
198.871683249629
31
0
0
LINE
8
layer0
10
1633.84170724692
20
198.871683249629
30
0
11
1624.90961919527
21
208.911316998703
31
0
0
LINE
8
layer0
10
1593.00740023206
20
203.157989146249
30
0
11
1599.35612557803
21
203.654811055887
31
0
0
LINE
8
layer0
10
1599.35612557803
20
203.654811055887
30
0
11
1603.82216960385
21
198.63499418135
31
0
0
LINE
8
layer0
10
1603.82216960385
20
198.63499418135
30
0
11
1603.78938428936
21
191.039079167113
31
0
0
LINE
8
layer0
10
1603.78938428936
20
191.039079167113
30
0
11
1599.27697482713
21
185.316650009882
31
0
0
LINE
8
layer0
10
1599.27697482713
20
185.316650009882
30
0
11
1592.92824948116
21
184.819828100244
31
0
0
LINE
8
layer0
10
1592.92824948116
20
184.819828100244
30
0
11
1588.46220545534
21
189.839644974781
31
0
0
LINE
8
layer0
10
1588.46220545534
20
189.839644974781
30
0
11
1588.49499076983
21
197.435559989019
31
0
0
LINE
8
layer0
10
1588.49499076983
20
197.435559989019
30
0
11
1593.00740023206
21
203.157989146249
31
0
0
ENDBLK
0
ENDSEC
0
SECTION
2
ENTITIES
0
INSERT
2
PF_OBJECT0
8
0
10
0
20
0
30
0
0
INSERT
2
PF_OBJECT1
8
0
10
0
20
0
30
0
0
INSERT
2
PF_OBJECT2
8
0
10
0
20
0
30
0
0
INSERT
2
PF_OBJECT3
8
0
10
0
20
0
30
0
0
INSERT
2
PF_OBJECT4
8
0
10
0
20
0
30
0
0
INSERT
2
PF_OBJECT5
8
0
10
0
20
0
30
0
0
INSERT
2
PF_OBJECT6
8
0
10
0
20
0
30
0
0
INSERT
2
PF_OBJECT7
8
0
10
0
20
0
30
0
0
INSERT
2
PF_OBJECT8
8
0
10
0
20
0
30
0
0
INSERT
2
PF_OBJECT9
8
0
10
0
20
0
30
0
0
INSERT
2
PF_OBJECT10
8
0
10
0
20
0
30
0
0
INSERT
2
PF_OBJECT11
8
0
10
0
20
0
30
0
0
INSERT
2
PF_OBJECT12
8
0
10
0
20
0
30
0
0
INSERT
2
PF_SKETCH13
8
0
10
0
20
0
30
0
0
INSERT
2
PF_SKETCH14
8
0
10
0
20
0
30
0
0
INSERT
2
PF_SKETCH15
8
0
10
0
20
0
30
0
0
INSERT
2
PF_SKETCH16
8
0
10
0
20
0
30
0
0
INSERT
2
PF_SKETCH17
8
0
10
0
20
0
30
0
0
INSERT
2
PF_SKETCH18
8
0
10
0
20
0
30
0
0
INSERT
2
PF_OBJECT19
8
0
10
0
20
0
30
0
0
INSERT
2
PF_OBJECT20
8
0
10
0
20
0
30
0
0
INSERT
2
PF_OBJECT21
8
0
10
0
20
0
30
0
0
INSERT
2
PF_OBJECT22
8
0
10
0
20
0
30
0
0
INSERT
2
PF_OBJECT23
8
0
10
0
20
0
30
0
0
INSERT
2
PF_OBJECT24
8
0
10
0
20
0
30
0
0
INSERT
2
PF_OBJECT25
8
0
10
0
20
0
30
0
0
INSERT
2
PF_OBJECT26
8
0
10
0
20
0
30
0
0
INSERT
2
PF_OBJECT27
8
0
10
0
20
0
30
0
0
INSERT
2
PF_OBJECT28
8
0
10
0
20
0
30
0
0
INSERT
2
PF_OBJECT29
8
0
10
0
20
0
30
0
0
INSERT
2
PF_OBJECT30
8
0
10
0
20
0
30
0
0
INSERT
2
PF_OBJECT31
8
0
10
0
20
0
30
0
0
INSERT
2
PF_SKETCH32
8
0
10
0
20
0
30
0
0
INSERT
2
PF_SKETCH33
8
0
10
0
20
0
30
0
0
INSERT
2
PF_SKETCH34
8
0
10
0
20
0
30
0
0
INSERT
2
PF_SKETCH35
8
0
10
0
20
0
30
0
0
INSERT
2
PF_SKETCH36
8
0
10
0
20
0
30
0
0
INSERT
2
PF_SKETCH37
8
0
10
0
20
0
30
0
0
INSERT
2
PF_OBJECT38
8
0
10
0
20
0
30
0
0
INSERT
2
PF_OBJECT39
8
0
10
0
20
0
30
0
0
INSERT
2
PF_OBJECT40
8
0
10
0
20
0
30
0
0
INSERT
2
PF_OBJECT41
8
0
10
0
20
0
30
0
0
INSERT
2
PF_OBJECT42
8
0
10
0
20
0
30
0
0
INSERT
2
PF_OBJECT43
8
0
10
0
20
0
30
0
0
INSERT
2
PF_OBJECT44
8
0
10
0
20
0
30
0
0
INSERT
2
PF_OBJECT45
8
0
10
0
20
0
30
0
0
INSERT
2
PF_OBJECT46
8
0
10
0
20
0
30
0
0
INSERT
2
PF_OBJECT47
8
0
10
0
20
0
30
0
0
INSERT
2
PF_SKETCH48
8
0
10
0
20
0
30
0
0
INSERT
2
PF_SKETCH49
8
0
10
0
20
0
30
0
0
INSERT
2
PF_SKETCH50
8
0
10
0
20
0
30
0
0
INSERT
2
PF_SKETCH51
8
0
10
0
20
0
30
0
0
INSERT
2
PF_SKETCH52
8
0
10
0
20
0
30
0
0
INSERT
2
PF_SKETCH53
8
0
10
0
20
0
30
0
0
INSERT
2
PF_OBJECT54
8
0
10
0
20
0
30
0
0
INSERT
2
PF_OBJECT55
8
0
10
0
20
0
30
0
0
INSERT
2
PF_OBJECT56
8
0
10
0
20
0
30
0
0
INSERT
2
PF_OBJECT57
8
0
10
0
20
0
30
0
0
INSERT
2
PF_OBJECT58
8
0
10
0
20
0
30
0
0
INSERT
2
PF_OBJECT59
8
0
10
0
20
0
30
0
0
INSERT
2
PF_OBJECT60
8
0
10
0
20
0
30
0
0
INSERT
2
PF_OBJECT61
8
0
10
0
20
0
30
0
0
INSERT
2
PF_OBJECT62
8
0
10
0
20
0
30
0
0
INSERT
2
PF_OBJECT63
8
0
10
0
20
0
30
0
0
INSERT
2
PF_OBJECT64
8
0
10
0
20
0
30
0
0
ENDSEC
0
EOF
