0
SECTION
2
HEADER
9
$EXTMIN
10
-570.000000000001
20
-570
30
0
9
$EXTMAX
10
4570
20
2750
30
0
0
ENDSEC
0
SECTION
2
TABLES
0
TABLE
2
LAYER
5
2
70
3
0
LAYER
5
14
2
layer0
5
14
70
0
62
7
6
CONTINUOUS
0
ENDTAB
0
TABLE
2
DIMSTYLE
70
2
0
DIMSTYLE
2
PFDIMSTYLE
70
0
3

4

5

6

7

40
1
41
30
42
0
43
0
44
1
45
0
46
0
47
0
48
0
71
0
72
0
73
0
74
0
75
0
76
0
77
2
78
12
140
30
141
0
142
0
143
1
144
1
145
0
146
1
147
5
170
0
171
1
172
0
173
1
174
0
175
0
176
7
177
7
178
7
0
ENDTAB
0
ENDSEC
0
SECTION
2
BLOCKS
0
BLOCK
8
layer0
2
PF_OBJECT0
70
0
10
0
20
0
30
0
0
LINE
8
layer0
10
3499.10161513775
20
1325.27820916122
30
0
11
3499.10161513775
21
-969.689110867545
31
0
0
LINE
8
layer0
10
3499.10161513775
20
-969.689110867545
30
0
11
-25.6217782649107
21
47.8108891324554
31
0
0
LINE
8
layer0
10
-25.6217782649107
20
47.8108891324554
30
0
11
-25.6217782649108
21
2342.77820916122
31
0
0
LINE
8
layer0
10
-25.6217782649108
20
2342.77820916122
30
0
11
3499.10161513775
21
1325.27820916122
31
0
0
LINE
8
layer0
10
3464.10161513775
20
1294.96732002876
30
0
11
3499.10161513775
21
1325.27820916122
31
0
0
LINE
8
layer0
10
3499.10161513775
20
1325.27820916122
30
0
11
-25.6217782649107
21
2342.77820916122
31
0
0
LINE
8
layer0
10
-25.6217782649107
20
2342.77820916122
30
0
11
-2.46139223857096E-14
21
2294.96732002876
31
0
0
LINE
8
layer0
10
-2.46139223857096E-14
20
2294.96732002876
30
0
11
3464.10161513775
21
1294.96732002876
31
0
0
LINE
8
layer0
10
0
20
0
30
0
11
-25.6217782649108
21
47.8108891324554
31
0
0
LINE
8
layer0
10
-25.6217782649108
20
47.8108891324554
30
0
11
3499.10161513775
21
-969.689110867545
31
0
0
LINE
8
layer0
10
3499.10161513775
20
-969.689110867545
30
0
11
3464.10161513775
21
-1000
31
0
0
LINE
8
layer0
10
3464.10161513775
20
-1000
30
0
11
0
21
0
31
0
0
LINE
8
layer0
10
3464.10161513775
20
1294.96732002876
30
0
11
3464.10161513775
21
-1000
31
0
0
LINE
8
layer0
10
3464.10161513775
20
-1000
30
0
11
3499.10161513775
21
-969.689110867545
31
0
0
LINE
8
layer0
10
3499.10161513775
20
-969.689110867545
30
0
11
3499.10161513775
21
1325.27820916122
31
0
0
LINE
8
layer0
10
3499.10161513775
20
1325.27820916122
30
0
11
3464.10161513775
21
1294.96732002876
31
0
0
LINE
8
layer0
10
-25.6217782649108
20
2342.77820916122
30
0
11
-25.6217782649108
21
47.8108891324554
31
0
0
LINE
8
layer0
10
-25.6217782649108
20
47.8108891324554
30
0
11
-3.69208835785644E-14
21
1.06581410364015E-14
31
0
0
LINE
8
layer0
10
-3.69208835785644E-14
20
1.06581410364015E-14
30
0
11
-2.46139223857096E-14
21
2294.96732002876
31
0
0
LINE
8
layer0
10
-2.46139223857096E-14
20
2294.96732002876
30
0
11
-25.6217782649108
21
2342.77820916122
31
0
0
LINE
8
layer0
10
0
20
2294.96732002876
30
0
11
-2.46139223857096E-14
21
7.105427357601E-15
31
0
0
LINE
8
layer0
10
-2.46139223857096E-14
20
7.105427357601E-15
30
0
11
3464.10161513775
21
-1000
31
0
0
LINE
8
layer0
10
3464.10161513775
20
-1000
30
0
11
3464.10161513775
21
1294.96732002876
31
0
0
LINE
8
layer0
10
3464.10161513775
20
1294.96732002876
30
0
11
0
21
2294.96732002876
31
0
0
ENDBLK
0
BLOCK
8
layer0
2
PF_OBJECT1
70
0
10
0
20
0
30
0
0
LINE
8
layer0
10
-25.621778264911
20
2342.77820916122
30
0
11
-25.621778264911
21
47.8108891324557
31
0
0
LINE
8
layer0
10
-25.621778264911
20
47.8108891324557
30
0
11
-1560.62177826491
21
-1281.53810567666
31
0
0
LINE
8
layer0
10
-1560.62177826491
20
-1281.53810567666
30
0
11
-1560.62177826491
21
1013.4292143521
31
0
0
LINE
8
layer0
10
-1560.62177826491
20
1013.4292143521
30
0
11
-25.621778264911
21
2342.77820916122
31
0
0
LINE
8
layer0
10
-2.27373675443232E-13
20
2294.96732002876
30
0
11
-25.621778264911
21
2342.77820916122
31
0
0
LINE
8
layer0
10
-25.621778264911
20
2342.77820916122
30
0
11
-1560.62177826491
21
1013.4292143521
31
0
0
LINE
8
layer0
10
-1560.62177826491
20
1013.4292143521
30
0
11
-1500
21
995.929214352105
31
0
0
LINE
8
layer0
10
-1500
20
995.929214352105
30
0
11
-2.27373675443232E-13
21
2294.96732002876
31
0
0
LINE
8
layer0
10
-1500
20
-1299.03810567666
30
0
11
-1560.62177826491
21
-1281.53810567666
31
0
0
LINE
8
layer0
10
-1560.62177826491
20
-1281.53810567666
30
0
11
-25.621778264911
21
47.8108891324557
31
0
0
LINE
8
layer0
10
-25.621778264911
20
47.8108891324557
30
0
11
-2.27373675443232E-13
21
4.54747350886464E-13
31
0
0
LINE
8
layer0
10
-2.27373675443232E-13
20
4.54747350886464E-13
30
0
11
-1500
21
-1299.03810567666
31
0
0
LINE
8
layer0
10
-1560.62177826491
20
1013.4292143521
30
0
11
-1560.62177826491
21
-1281.53810567666
31
0
0
LINE
8
layer0
10
-1560.62177826491
20
-1281.53810567666
30
0
11
-1500
21
-1299.03810567666
31
0
0
LINE
8
layer0
10
-1500
20
-1299.03810567666
30
0
11
-1500
21
995.929214352105
31
0
0
LINE
8
layer0
10
-1500
20
995.929214352105
30
0
11
-1560.62177826491
21
1013.4292143521
31
0
0
LINE
8
layer0
10
-4.54747350886464E-13
20
2294.96732002876
30
0
11
-4.54747350886464E-13
21
2.27373675443232E-13
31
0
0
LINE
8
layer0
10
-4.54747350886464E-13
20
2.27373675443232E-13
30
0
11
-25.6217782649112
21
47.8108891324555
31
0
0
LINE
8
layer0
10
-25.6217782649112
20
47.8108891324555
30
0
11
-25.6217782649112
21
2342.77820916122
31
0
0
LINE
8
layer0
10
-25.6217782649112
20
2342.77820916122
30
0
11
-4.54747350886464E-13
21
2294.96732002876
31
0
0
LINE
8
layer0
10
-1500
20
995.929214352105
30
0
11
-1500
21
-1299.03810567666
31
0
0
LINE
8
layer0
10
-1500
20
-1299.03810567666
30
0
11
-2.27373675443232E-13
21
4.54747350886464E-13
31
0
0
LINE
8
layer0
10
-2.27373675443232E-13
20
4.54747350886464E-13
30
0
11
-2.27373675443232E-13
21
2294.96732002876
31
0
0
LINE
8
layer0
10
-2.27373675443232E-13
20
2294.96732002876
30
0
11
-1500
21
995.929214352105
31
0
0
ENDBLK
0
BLOCK
8
layer0
2
PF_OBJECT2
70
0
10
0
20
0
30
0
0
LINE
8
layer0
10
0
20
0
30
0
11
-1500
21
-1299.03810567666
31
0
0
LINE
8
layer0
10
-1500
20
-1299.03810567666
30
0
11
1964.10161513776
21
-2299.03810567666
31
0
0
LINE
8
layer0
10
1964.10161513776
20
-2299.03810567666
30
0
11
3464.10161513775
21
-1000
31
0
0
LINE
8
layer0
10
3464.10161513775
20
-1000
30
0
11
0
21
0
31
0
0
LINE
8
layer0
10
0
20
0
30
0
11
3464.10161513775
21
-1000
31
0
0
LINE
8
layer0
10
3464.10161513775
20
-1000
30
0
11
-1500
21
-1299.03810567666
31
0
0
LINE
8
layer0
10
-1500
20
-1299.03810567666
30
0
11
0
21
0
31
0
0
LINE
8
layer0
10
3464.10161513775
20
-1000
30
0
11
1964.10161513776
21
-2299.03810567666
31
0
0
LINE
8
layer0
10
1964.10161513776
20
-2299.03810567666
30
0
11
-1500
21
-1299.03810567666
31
0
0
LINE
8
layer0
10
-1500
20
-1299.03810567666
30
0
11
3464.10161513775
21
-1000
31
0
0
ENDBLK
0
BLOCK
8
layer0
2
PF_OBJECT3
70
0
10
0
20
0
30
0
0
LINE
8
layer0
10
269.256683580811
20
-416.054967118364
30
0
11
562.256683580811
21
-162.309523809524
31
0
0
LINE
8
layer0
10
562.256683580811
20
-162.309523809524
30
0
11
562.256683580811
21
591.132577482938
31
0
0
LINE
8
layer0
10
562.256683580811
20
591.132577482938
30
0
11
269.256683580811
21
337.387134174097
31
0
0
LINE
8
layer0
10
269.256683580811
20
337.387134174097
30
0
11
269.256683580811
21
-416.054967118364
31
0
0
LINE
8
layer0
10
549.060105999334
20
-158.5
30
0
11
256.060105999334
21
-412.245443308841
31
0
0
LINE
8
layer0
10
256.060105999334
20
-412.245443308841
30
0
11
256.060105999334
21
341.196657983621
31
0
0
LINE
8
layer0
10
256.060105999334
20
341.196657983621
30
0
11
549.060105999334
21
594.942101292462
31
0
0
LINE
8
layer0
10
549.060105999334
20
594.942101292462
30
0
11
549.060105999334
21
-158.5
31
0
0
LINE
8
layer0
10
562.256683580811
20
-162.309523809524
30
0
11
549.060105999334
21
-158.5
31
0
0
LINE
8
layer0
10
549.060105999334
20
-158.5
30
0
11
549.060105999334
21
594.942101292462
31
0
0
LINE
8
layer0
10
549.060105999334
20
594.942101292462
30
0
11
562.256683580811
21
591.132577482938
31
0
0
LINE
8
layer0
10
562.256683580811
20
591.132577482938
30
0
11
562.256683580811
21
-162.309523809524
31
0
0
LINE
8
layer0
10
256.060105999334
20
-412.245443308841
30
0
11
269.256683580811
21
-416.054967118364
31
0
0
LINE
8
layer0
10
269.256683580811
20
-416.054967118364
30
0
11
269.256683580811
21
337.387134174097
31
0
0
LINE
8
layer0
10
269.256683580811
20
337.387134174097
30
0
11
256.060105999334
21
341.196657983621
31
0
0
LINE
8
layer0
10
256.060105999334
20
341.196657983621
30
0
11
256.060105999334
21
-412.245443308841
31
0
0
LINE
8
layer0
10
269.256683580811
20
337.387134174097
30
0
11
562.256683580811
21
591.132577482938
31
0
0
LINE
8
layer0
10
562.256683580811
20
591.132577482938
30
0
11
549.060105999334
21
594.942101292462
31
0
0
LINE
8
layer0
10
549.060105999334
20
594.942101292462
30
0
11
256.060105999334
21
341.196657983621
31
0
0
LINE
8
layer0
10
256.060105999334
20
341.196657983621
30
0
11
269.256683580811
21
337.387134174097
31
0
0
LINE
8
layer0
10
562.256683580811
20
-162.309523809524
30
0
11
269.256683580811
21
-416.054967118364
31
0
0
LINE
8
layer0
10
269.256683580811
20
-416.054967118364
30
0
11
256.060105999334
21
-412.245443308841
31
0
0
LINE
8
layer0
10
256.060105999334
20
-412.245443308841
30
0
11
549.060105999334
21
-158.5
31
0
0
LINE
8
layer0
10
549.060105999334
20
-158.5
30
0
11
562.256683580811
21
-162.309523809524
31
0
0
ENDBLK
0
BLOCK
8
layer0
2
PF_OBJECT4
70
0
10
0
20
0
30
0
0
LINE
8
layer0
10
1561.29059054066
20
-351.978875334514
30
0
11
1069.3881611911
21
-209.978875334514
31
0
0
LINE
8
layer0
10
1069.3881611911
20
-209.978875334514
30
0
11
1069.3881611911
21
-196.122468873963
31
0
0
LINE
8
layer0
10
1069.3881611911
20
-196.122468873963
30
0
11
1561.29059054066
21
-338.122468873963
31
0
0
LINE
8
layer0
10
1561.29059054066
20
-338.122468873963
30
0
11
1561.29059054066
21
-351.978875334514
31
0
0
LINE
8
layer0
10
813.888161191099
20
-431.248366001438
30
0
11
1305.79059054066
21
-573.248366001438
31
0
0
LINE
8
layer0
10
1305.79059054066
20
-573.248366001438
30
0
11
1305.79059054066
21
-559.391959540887
31
0
0
LINE
8
layer0
10
1305.79059054066
20
-559.391959540887
30
0
11
813.888161191099
21
-417.391959540887
31
0
0
LINE
8
layer0
10
813.888161191099
20
-417.391959540887
30
0
11
813.888161191099
21
-431.248366001438
31
0
0
LINE
8
layer0
10
1069.3881611911
20
-209.978875334514
30
0
11
813.888161191099
21
-431.248366001438
31
0
0
LINE
8
layer0
10
813.888161191099
20
-431.248366001438
30
0
11
813.888161191099
21
-417.391959540887
31
0
0
LINE
8
layer0
10
813.888161191099
20
-417.391959540887
30
0
11
1069.3881611911
21
-196.122468873963
31
0
0
LINE
8
layer0
10
1069.3881611911
20
-196.122468873963
30
0
11
1069.3881611911
21
-209.978875334514
31
0
0
LINE
8
layer0
10
1305.79059054066
20
-573.248366001438
30
0
11
1561.29059054066
21
-351.978875334514
31
0
0
LINE
8
layer0
10
1561.29059054066
20
-351.978875334514
30
0
11
1561.29059054066
21
-338.122468873963
31
0
0
LINE
8
layer0
10
1561.29059054066
20
-338.122468873963
30
0
11
1305.79059054066
21
-559.391959540887
31
0
0
LINE
8
layer0
10
1305.79059054066
20
-559.391959540887
30
0
11
1305.79059054066
21
-573.248366001438
31
0
0
LINE
8
layer0
10
1561.29059054066
20
-338.122468873963
30
0
11
1069.3881611911
21
-196.122468873963
31
0
0
LINE
8
layer0
10
1069.3881611911
20
-196.122468873963
30
0
11
813.888161191099
21
-417.391959540887
31
0
0
LINE
8
layer0
10
813.888161191099
20
-417.391959540887
30
0
11
1305.79059054066
21
-559.391959540887
31
0
0
LINE
8
layer0
10
1305.79059054066
20
-559.391959540887
30
0
11
1561.29059054066
21
-338.122468873963
31
0
0
LINE
8
layer0
10
1069.3881611911
20
-209.978875334514
30
0
11
1561.29059054066
21
-351.978875334514
31
0
0
LINE
8
layer0
10
1561.29059054066
20
-351.978875334514
30
0
11
1305.79059054066
21
-573.248366001438
31
0
0
LINE
8
layer0
10
1305.79059054066
20
-573.248366001438
30
0
11
813.888161191099
21
-431.248366001438
31
0
0
LINE
8
layer0
10
813.888161191099
20
-431.248366001438
30
0
11
1069.3881611911
21
-209.978875334514
31
0
0
ENDBLK
0
BLOCK
8
layer0
2
PF_OBJECT5
70
0
10
0
20
0
30
0
0
LINE
8
layer0
10
1563.29059054066
20
-350.246824526945
30
0
11
1071.3881611911
21
-208.246824526945
31
0
0
LINE
8
layer0
10
1071.3881611911
20
-208.246824526945
30
0
11
1071.3881611911
21
415.291466197851
31
0
0
LINE
8
layer0
10
1071.3881611911
20
415.291466197851
30
0
11
1563.29059054066
21
273.291466197851
31
0
0
LINE
8
layer0
10
1563.29059054066
20
273.291466197851
30
0
11
1563.29059054066
21
-350.246824526945
31
0
0
LINE
8
layer0
10
1069.3881611911
20
-209.978875334514
30
0
11
1561.29059054066
21
-351.978875334514
31
0
0
LINE
8
layer0
10
1561.29059054066
20
-351.978875334514
30
0
11
1561.29059054066
21
271.559415390282
31
0
0
LINE
8
layer0
10
1561.29059054066
20
271.559415390282
30
0
11
1069.3881611911
21
413.559415390282
31
0
0
LINE
8
layer0
10
1069.3881611911
20
413.559415390282
30
0
11
1069.3881611911
21
-209.978875334514
31
0
0
LINE
8
layer0
10
1071.3881611911
20
-208.246824526945
30
0
11
1069.3881611911
21
-209.978875334514
31
0
0
LINE
8
layer0
10
1069.3881611911
20
-209.978875334514
30
0
11
1069.3881611911
21
413.559415390282
31
0
0
LINE
8
layer0
10
1069.3881611911
20
413.559415390282
30
0
11
1071.3881611911
21
415.291466197851
31
0
0
LINE
8
layer0
10
1071.3881611911
20
415.291466197851
30
0
11
1071.3881611911
21
-208.246824526945
31
0
0
LINE
8
layer0
10
1561.29059054066
20
-351.978875334514
30
0
11
1563.29059054066
21
-350.246824526945
31
0
0
LINE
8
layer0
10
1563.29059054066
20
-350.246824526945
30
0
11
1563.29059054066
21
273.291466197851
31
0
0
LINE
8
layer0
10
1563.29059054066
20
273.291466197851
30
0
11
1561.29059054066
21
271.559415390282
31
0
0
LINE
8
layer0
10
1561.29059054066
20
271.559415390282
30
0
11
1561.29059054066
21
-351.978875334514
31
0
0
LINE
8
layer0
10
1563.29059054066
20
273.291466197851
30
0
11
1071.3881611911
21
415.291466197851
31
0
0
LINE
8
layer0
10
1071.3881611911
20
415.291466197851
30
0
11
1069.3881611911
21
413.559415390282
31
0
0
LINE
8
layer0
10
1069.3881611911
20
413.559415390282
30
0
11
1561.29059054066
21
271.559415390282
31
0
0
LINE
8
layer0
10
1561.29059054066
20
271.559415390282
30
0
11
1563.29059054066
21
273.291466197851
31
0
0
LINE
8
layer0
10
1071.3881611911
20
-208.246824526945
30
0
11
1563.29059054066
21
-350.246824526945
31
0
0
LINE
8
layer0
10
1563.29059054066
20
-350.246824526945
30
0
11
1561.29059054066
21
-351.978875334514
31
0
0
LINE
8
layer0
10
1561.29059054066
20
-351.978875334514
30
0
11
1069.3881611911
21
-209.978875334514
31
0
0
LINE
8
layer0
10
1069.3881611911
20
-209.978875334514
30
0
11
1071.3881611911
21
-208.246824526945
31
0
0
ENDBLK
0
BLOCK
8
layer0
2
PF_OBJECT6
70
0
10
0
20
0
30
0
0
LINE
8
layer0
10
1561.29059054066
20
271.559415390282
30
0
11
1069.3881611911
21
413.559415390282
31
0
0
LINE
8
layer0
10
1069.3881611911
20
413.559415390282
30
0
11
1061.3881611911
21
406.631212160006
31
0
0
LINE
8
layer0
10
1061.3881611911
20
406.631212160006
30
0
11
1553.29059054066
21
264.631212160006
31
0
0
LINE
8
layer0
10
1553.29059054066
20
264.631212160006
30
0
11
1561.29059054066
21
271.559415390282
31
0
0
LINE
8
layer0
10
1069.3881611911
20
370.25814520106
30
0
11
1561.29059054066
21
228.25814520106
31
0
0
LINE
8
layer0
10
1561.29059054066
20
228.25814520106
30
0
11
1553.29059054066
21
221.329941970784
31
0
0
LINE
8
layer0
10
1553.29059054066
20
221.329941970784
30
0
11
1061.3881611911
21
363.329941970784
31
0
0
LINE
8
layer0
10
1061.3881611911
20
363.329941970784
30
0
11
1069.3881611911
21
370.25814520106
31
0
0
LINE
8
layer0
10
1069.3881611911
20
413.559415390282
30
0
11
1069.3881611911
21
370.25814520106
31
0
0
LINE
8
layer0
10
1069.3881611911
20
370.25814520106
30
0
11
1061.3881611911
21
363.329941970784
31
0
0
LINE
8
layer0
10
1061.3881611911
20
363.329941970784
30
0
11
1061.3881611911
21
406.631212160006
31
0
0
LINE
8
layer0
10
1061.3881611911
20
406.631212160006
30
0
11
1069.3881611911
21
413.559415390282
31
0
0
LINE
8
layer0
10
1561.29059054066
20
228.25814520106
30
0
11
1561.29059054066
21
271.559415390282
31
0
0
LINE
8
layer0
10
1561.29059054066
20
271.559415390282
30
0
11
1553.29059054066
21
264.631212160006
31
0
0
LINE
8
layer0
10
1553.29059054066
20
264.631212160006
30
0
11
1553.29059054066
21
221.329941970784
31
0
0
LINE
8
layer0
10
1553.29059054066
20
221.329941970784
30
0
11
1561.29059054066
21
228.25814520106
31
0
0
LINE
8
layer0
10
1553.29059054066
20
264.631212160006
30
0
11
1061.3881611911
21
406.631212160006
31
0
0
LINE
8
layer0
10
1061.3881611911
20
406.631212160006
30
0
11
1061.3881611911
21
363.329941970784
31
0
0
LINE
8
layer0
10
1061.3881611911
20
363.329941970784
30
0
11
1553.29059054066
21
221.329941970784
31
0
0
LINE
8
layer0
10
1553.29059054066
20
221.329941970784
30
0
11
1553.29059054066
21
264.631212160006
31
0
0
LINE
8
layer0
10
1069.3881611911
20
413.559415390282
30
0
11
1561.29059054066
21
271.559415390282
31
0
0
LINE
8
layer0
10
1561.29059054066
20
271.559415390282
30
0
11
1561.29059054066
21
228.25814520106
31
0
0
LINE
8
layer0
10
1561.29059054066
20
228.25814520106
30
0
11
1069.3881611911
21
370.25814520106
31
0
0
LINE
8
layer0
10
1069.3881611911
20
370.25814520106
30
0
11
1069.3881611911
21
413.559415390282
31
0
0
ENDBLK
0
BLOCK
8
layer0
2
PF_OBJECT7
70
0
10
0
20
0
30
0
0
LINE
8
layer0
10
838.888161191099
20
200.084153357418
30
0
11
1330.79059054066
21
58.0841533574178
31
0
0
LINE
8
layer0
10
1330.79059054066
20
58.0841533574178
30
0
11
1305.79059054066
21
36.4335182628068
31
0
0
LINE
8
layer0
10
1305.79059054066
20
36.4335182628068
30
0
11
813.888161191099
21
178.433518262807
31
0
0
LINE
8
layer0
10
813.888161191099
20
178.433518262807
30
0
11
838.888161191099
21
200.084153357418
31
0
0
LINE
8
layer0
10
1330.79059054066
20
71.9405598179687
30
0
11
838.888161191099
21
213.940559817969
31
0
0
LINE
8
layer0
10
838.888161191099
20
213.940559817969
30
0
11
813.888161191099
21
192.289924723358
31
0
0
LINE
8
layer0
10
813.888161191099
20
192.289924723358
30
0
11
1305.79059054066
21
50.2899247233577
31
0
0
LINE
8
layer0
10
1305.79059054066
20
50.2899247233577
30
0
11
1330.79059054066
21
71.9405598179687
31
0
0
LINE
8
layer0
10
1305.79059054066
20
36.4335182628068
30
0
11
1330.79059054066
21
58.0841533574178
31
0
0
LINE
8
layer0
10
1330.79059054066
20
58.0841533574178
30
0
11
1330.79059054066
21
71.9405598179687
31
0
0
LINE
8
layer0
10
1330.79059054066
20
71.9405598179687
30
0
11
1305.79059054066
21
50.2899247233577
31
0
0
LINE
8
layer0
10
1305.79059054066
20
50.2899247233577
30
0
11
1305.79059054066
21
36.4335182628068
31
0
0
LINE
8
layer0
10
838.888161191099
20
200.084153357418
30
0
11
813.888161191099
21
178.433518262807
31
0
0
LINE
8
layer0
10
813.888161191099
20
178.433518262807
30
0
11
813.888161191099
21
192.289924723358
31
0
0
LINE
8
layer0
10
813.888161191099
20
192.289924723358
30
0
11
838.888161191099
21
213.940559817969
31
0
0
LINE
8
layer0
10
838.888161191099
20
213.940559817969
30
0
11
838.888161191099
21
200.084153357418
31
0
0
LINE
8
layer0
10
813.888161191099
20
178.433518262807
30
0
11
1305.79059054066
21
36.4335182628068
31
0
0
LINE
8
layer0
10
1305.79059054066
20
36.4335182628068
30
0
11
1305.79059054066
21
50.2899247233577
31
0
0
LINE
8
layer0
10
1305.79059054066
20
50.2899247233577
30
0
11
813.888161191099
21
192.289924723358
31
0
0
LINE
8
layer0
10
813.888161191099
20
192.289924723358
30
0
11
813.888161191099
21
178.433518262807
31
0
0
LINE
8
layer0
10
1330.79059054066
20
58.0841533574178
30
0
11
838.888161191099
21
200.084153357418
31
0
0
LINE
8
layer0
10
838.888161191099
20
200.084153357418
30
0
11
838.888161191099
21
213.940559817969
31
0
0
LINE
8
layer0
10
838.888161191099
20
213.940559817969
30
0
11
1330.79059054066
21
71.9405598179687
31
0
0
LINE
8
layer0
10
1330.79059054066
20
71.9405598179687
30
0
11
1330.79059054066
21
58.0841533574178
31
0
0
LINE
8
layer0
10
1588.29059054066
20
-328.596189432334
30
0
11
1602.14699700121
21
-332.596189432334
31
0
0
LINE
8
layer0
10
1602.14699700121
20
-332.596189432334
30
0
11
1319.14699700121
21
-577.68137870333
31
0
0
LINE
8
layer0
10
1319.14699700121
20
-577.68137870333
30
0
11
1305.29059054066
21
-573.68137870333
31
0
0
LINE
8
layer0
10
1305.29059054066
20
-573.68137870333
30
0
11
1588.29059054066
21
-328.596189432334
31
0
0
LINE
8
layer0
10
1602.14699700121
20
290.942101292462
30
0
11
1588.29059054066
21
294.942101292462
31
0
0
LINE
8
layer0
10
1588.29059054066
20
294.942101292462
30
0
11
1305.29059054066
21
49.8569120214656
31
0
0
LINE
8
layer0
10
1305.29059054066
20
49.8569120214656
30
0
11
1319.14699700121
21
45.8569120214656
31
0
0
LINE
8
layer0
10
1319.14699700121
20
45.8569120214656
30
0
11
1602.14699700121
21
290.942101292462
31
0
0
LINE
8
layer0
10
1319.14699700121
20
-577.68137870333
30
0
11
1602.14699700121
21
-332.596189432334
31
0
0
LINE
8
layer0
10
1602.14699700121
20
-332.596189432334
30
0
11
1602.14699700121
21
290.942101292462
31
0
0
LINE
8
layer0
10
1602.14699700121
20
290.942101292462
30
0
11
1319.14699700121
21
45.8569120214656
31
0
0
LINE
8
layer0
10
1319.14699700121
20
45.8569120214656
30
0
11
1319.14699700121
21
-577.68137870333
31
0
0
LINE
8
layer0
10
1588.29059054066
20
-328.596189432334
30
0
11
1305.29059054066
21
-573.68137870333
31
0
0
LINE
8
layer0
10
1305.29059054066
20
-573.68137870333
30
0
11
1305.29059054066
21
49.8569120214656
31
0
0
LINE
8
layer0
10
1305.29059054066
20
49.8569120214656
30
0
11
1588.29059054066
21
294.942101292462
31
0
0
LINE
8
layer0
10
1588.29059054066
20
294.942101292462
30
0
11
1588.29059054066
21
-328.596189432334
31
0
0
LINE
8
layer0
10
1305.29059054066
20
-573.68137870333
30
0
11
1319.14699700121
21
-577.68137870333
31
0
0
LINE
8
layer0
10
1319.14699700121
20
-577.68137870333
30
0
11
1319.14699700121
21
45.8569120214656
31
0
0
LINE
8
layer0
10
1319.14699700121
20
45.8569120214656
30
0
11
1305.29059054066
21
49.8569120214656
31
0
0
LINE
8
layer0
10
1305.29059054066
20
49.8569120214656
30
0
11
1305.29059054066
21
-573.68137870333
31
0
0
LINE
8
layer0
10
1602.14699700121
20
-332.596189432334
30
0
11
1588.29059054066
21
-328.596189432334
31
0
0
LINE
8
layer0
10
1588.29059054066
20
-328.596189432334
30
0
11
1588.29059054066
21
294.942101292462
31
0
0
LINE
8
layer0
10
1588.29059054066
20
294.942101292462
30
0
11
1602.14699700121
21
290.942101292462
31
0
0
LINE
8
layer0
10
1602.14699700121
20
290.942101292462
30
0
11
1602.14699700121
21
-332.596189432334
31
0
0
LINE
8
layer0
10
1082.53175473055
20
-182.596189432334
30
0
11
1096.3881611911
21
-186.596189432334
31
0
0
LINE
8
layer0
10
1096.3881611911
20
-186.596189432334
30
0
11
813.388161191099
21
-431.68137870333
31
0
0
LINE
8
layer0
10
813.388161191099
20
-431.68137870333
30
0
11
799.531754730548
21
-427.68137870333
31
0
0
LINE
8
layer0
10
799.531754730548
20
-427.68137870333
30
0
11
1082.53175473055
21
-182.596189432334
31
0
0
LINE
8
layer0
10
1096.3881611911
20
436.942101292462
30
0
11
1082.53175473055
21
440.942101292462
31
0
0
LINE
8
layer0
10
1082.53175473055
20
440.942101292462
30
0
11
799.531754730548
21
195.856912021466
31
0
0
LINE
8
layer0
10
799.531754730548
20
195.856912021466
30
0
11
813.388161191099
21
191.856912021466
31
0
0
LINE
8
layer0
10
813.388161191099
20
191.856912021466
30
0
11
1096.3881611911
21
436.942101292462
31
0
0
LINE
8
layer0
10
813.388161191099
20
-431.68137870333
30
0
11
1096.3881611911
21
-186.596189432334
31
0
0
LINE
8
layer0
10
1096.3881611911
20
-186.596189432334
30
0
11
1096.3881611911
21
436.942101292462
31
0
0
LINE
8
layer0
10
1096.3881611911
20
436.942101292462
30
0
11
813.388161191099
21
191.856912021466
31
0
0
LINE
8
layer0
10
813.388161191099
20
191.856912021466
30
0
11
813.388161191099
21
-431.68137870333
31
0
0
LINE
8
layer0
10
1082.53175473055
20
-182.596189432334
30
0
11
799.531754730548
21
-427.68137870333
31
0
0
LINE
8
layer0
10
799.531754730548
20
-427.68137870333
30
0
11
799.531754730548
21
195.856912021466
31
0
0
LINE
8
layer0
10
799.531754730548
20
195.856912021466
30
0
11
1082.53175473055
21
440.942101292462
31
0
0
LINE
8
layer0
10
1082.53175473055
20
440.942101292462
30
0
11
1082.53175473055
21
-182.596189432334
31
0
0
LINE
8
layer0
10
799.531754730548
20
-427.68137870333
30
0
11
813.388161191099
21
-431.68137870333
31
0
0
LINE
8
layer0
10
813.388161191099
20
-431.68137870333
30
0
11
813.388161191099
21
191.856912021466
31
0
0
LINE
8
layer0
10
813.388161191099
20
191.856912021466
30
0
11
799.531754730548
21
195.856912021466
31
0
0
LINE
8
layer0
10
799.531754730548
20
195.856912021466
30
0
11
799.531754730548
21
-427.68137870333
31
0
0
LINE
8
layer0
10
1096.3881611911
20
-186.596189432334
30
0
11
1082.53175473055
21
-182.596189432334
31
0
0
LINE
8
layer0
10
1082.53175473055
20
-182.596189432334
30
0
11
1082.53175473055
21
440.942101292462
31
0
0
LINE
8
layer0
10
1082.53175473055
20
440.942101292462
30
0
11
1096.3881611911
21
436.942101292462
31
0
0
LINE
8
layer0
10
1096.3881611911
20
436.942101292462
30
0
11
1096.3881611911
21
-186.596189432334
31
0
0
ENDBLK
0
BLOCK
8
layer0
2
PF_OBJECT8
70
0
10
0
20
0
30
0
0
LINE
8
layer0
10
1145.26224208055
20
-92.544794630147
30
0
11
1143.49447512758
21
-92.8074608789432
31
0
0
LINE
8
layer0
10
1143.49447512758
20
-92.8074608789432
30
0
11
1271.66623488768
21
-129.807460878943
31
0
0
LINE
8
layer0
10
1271.66623488768
20
-129.807460878943
30
0
11
1273.43400184064
21
-129.544794630147
31
0
0
LINE
8
layer0
10
1273.43400184064
20
-129.544794630147
30
0
11
1145.26224208055
21
-92.544794630147
31
0
0
LINE
8
layer0
10
1145.99447512758
20
-94.9725243884043
30
0
11
1145.26224208055
21
-92.544794630147
31
0
0
LINE
8
layer0
10
1145.26224208055
20
-92.544794630147
30
0
11
1273.43400184064
21
-129.544794630147
31
0
0
LINE
8
layer0
10
1273.43400184064
20
-129.544794630147
30
0
11
1274.16623488768
21
-131.972524388404
31
0
0
LINE
8
layer0
10
1274.16623488768
20
-131.972524388404
30
0
11
1145.99447512758
21
-94.9725243884043
31
0
0
LINE
8
layer0
10
1145.26224208055
20
-98.6685189871049
30
0
11
1145.99447512758
21
-94.9725243884043
31
0
0
LINE
8
layer0
10
1145.99447512758
20
-94.9725243884043
30
0
11
1274.16623488768
21
-131.972524388404
31
0
0
LINE
8
layer0
10
1274.16623488768
20
-131.972524388404
30
0
11
1273.43400184064
21
-135.668518987105
31
0
0
LINE
8
layer0
10
1273.43400184064
20
-135.668518987105
30
0
11
1145.26224208055
21
-98.6685189871049
31
0
0
LINE
8
layer0
10
1143.49447512758
20
-101.467714916788
30
0
11
1145.26224208055
21
-98.6685189871049
31
0
0
LINE
8
layer0
10
1145.26224208055
20
-98.6685189871049
30
0
11
1273.43400184064
21
-135.668518987105
31
0
0
LINE
8
layer0
10
1273.43400184064
20
-135.668518987105
30
0
11
1271.66623488768
21
-138.467714916788
31
0
0
LINE
8
layer0
10
1271.66623488768
20
-138.467714916788
30
0
11
1143.49447512758
21
-101.467714916788
31
0
0
LINE
8
layer0
10
1141.72670817462
20
-101.730381165584
30
0
11
1143.49447512758
21
-101.467714916788
31
0
0
LINE
8
layer0
10
1143.49447512758
20
-101.467714916788
30
0
11
1271.66623488768
21
-138.467714916788
31
0
0
LINE
8
layer0
10
1271.66623488768
20
-138.467714916788
30
0
11
1269.89846793471
21
-138.730381165584
31
0
0
LINE
8
layer0
10
1269.89846793471
20
-138.730381165584
30
0
11
1141.72670817462
21
-101.730381165584
31
0
0
LINE
8
layer0
10
1140.99447512758
20
-99.3026514073265
30
0
11
1141.72670817462
21
-101.730381165584
31
0
0
LINE
8
layer0
10
1141.72670817462
20
-101.730381165584
30
0
11
1269.89846793471
21
-138.730381165584
31
0
0
LINE
8
layer0
10
1269.89846793471
20
-138.730381165584
30
0
11
1269.16623488768
21
-136.302651407326
31
0
0
LINE
8
layer0
10
1269.16623488768
20
-136.302651407326
30
0
11
1140.99447512758
21
-99.3026514073265
31
0
0
LINE
8
layer0
10
1141.72670817462
20
-95.6066568086259
30
0
11
1140.99447512758
21
-99.3026514073265
31
0
0
LINE
8
layer0
10
1140.99447512758
20
-99.3026514073265
30
0
11
1269.16623488768
21
-136.302651407326
31
0
0
LINE
8
layer0
10
1269.16623488768
20
-136.302651407326
30
0
11
1269.89846793471
21
-132.606656808626
31
0
0
LINE
8
layer0
10
1269.89846793471
20
-132.606656808626
30
0
11
1141.72670817462
21
-95.6066568086259
31
0
0
LINE
8
layer0
10
1143.49447512758
20
-92.8074608789432
30
0
11
1141.72670817462
21
-95.6066568086259
31
0
0
LINE
8
layer0
10
1141.72670817462
20
-95.6066568086259
30
0
11
1269.89846793471
21
-132.606656808626
31
0
0
LINE
8
layer0
10
1269.89846793471
20
-132.606656808626
30
0
11
1271.66623488768
21
-129.807460878943
31
0
0
LINE
8
layer0
10
1271.66623488768
20
-129.807460878943
30
0
11
1143.49447512758
21
-92.8074608789432
31
0
0
LINE
8
layer0
10
1271.66623488768
20
-129.807460878943
30
0
11
1269.89846793471
21
-132.606656808626
31
0
0
LINE
8
layer0
10
1269.89846793471
20
-132.606656808626
30
0
11
1269.16623488768
21
-136.302651407326
31
0
0
LINE
8
layer0
10
1269.16623488768
20
-136.302651407326
30
0
11
1269.89846793471
21
-138.730381165584
31
0
0
LINE
8
layer0
10
1269.89846793471
20
-138.730381165584
30
0
11
1271.66623488768
21
-138.467714916788
31
0
0
LINE
8
layer0
10
1271.66623488768
20
-138.467714916788
30
0
11
1273.43400184064
21
-135.668518987105
31
0
0
LINE
8
layer0
10
1273.43400184064
20
-135.668518987105
30
0
11
1274.16623488768
21
-131.972524388404
31
0
0
LINE
8
layer0
10
1274.16623488768
20
-131.972524388404
30
0
11
1273.43400184064
21
-129.544794630147
31
0
0
LINE
8
layer0
10
1273.43400184064
20
-129.544794630147
30
0
11
1271.66623488768
21
-129.807460878943
31
0
0
LINE
8
layer0
10
1141.72670817462
20
-95.6066568086259
30
0
11
1143.49447512758
21
-92.8074608789432
31
0
0
LINE
8
layer0
10
1143.49447512758
20
-92.8074608789432
30
0
11
1145.26224208055
21
-92.544794630147
31
0
0
LINE
8
layer0
10
1145.26224208055
20
-92.544794630147
30
0
11
1145.99447512758
21
-94.9725243884043
31
0
0
LINE
8
layer0
10
1145.99447512758
20
-94.9725243884043
30
0
11
1145.26224208055
21
-98.6685189871049
31
0
0
LINE
8
layer0
10
1145.26224208055
20
-98.6685189871049
30
0
11
1143.49447512758
21
-101.467714916788
31
0
0
LINE
8
layer0
10
1143.49447512758
20
-101.467714916788
30
0
11
1141.72670817462
21
-101.730381165584
31
0
0
LINE
8
layer0
10
1141.72670817462
20
-101.730381165584
30
0
11
1140.99447512758
21
-99.3026514073265
31
0
0
LINE
8
layer0
10
1140.99447512758
20
-99.3026514073265
30
0
11
1141.72670817462
21
-95.6066568086259
31
0
0
ENDBLK
0
BLOCK
8
layer0
2
PF_OBJECT9
70
0
10
0
20
0
30
0
0
LINE
8
layer0
10
1170.81498320327
20
-97.8074608789432
30
0
11
1153.49447512758
21
-92.8074608789432
31
0
0
LINE
8
layer0
10
1153.49447512758
20
-92.8074608789432
30
0
11
1153.49447512758
21
-84.1472068410988
31
0
0
LINE
8
layer0
10
1153.49447512758
20
-84.1472068410988
30
0
11
1170.81498320327
21
-89.1472068410988
31
0
0
LINE
8
layer0
10
1170.81498320327
20
-89.1472068410988
30
0
11
1170.81498320327
21
-97.8074608789432
31
0
0
LINE
8
layer0
10
1143.49447512758
20
-101.467714916788
30
0
11
1160.81498320327
21
-106.467714916788
31
0
0
LINE
8
layer0
10
1160.81498320327
20
-106.467714916788
30
0
11
1160.81498320327
21
-97.8074608789432
31
0
0
LINE
8
layer0
10
1160.81498320327
20
-97.8074608789432
30
0
11
1143.49447512758
21
-92.8074608789432
31
0
0
LINE
8
layer0
10
1143.49447512758
20
-92.8074608789432
30
0
11
1143.49447512758
21
-101.467714916788
31
0
0
LINE
8
layer0
10
1153.49447512758
20
-92.8074608789432
30
0
11
1143.49447512758
21
-101.467714916788
31
0
0
LINE
8
layer0
10
1143.49447512758
20
-101.467714916788
30
0
11
1143.49447512758
21
-92.8074608789432
31
0
0
LINE
8
layer0
10
1143.49447512758
20
-92.8074608789432
30
0
11
1153.49447512758
21
-84.1472068410988
31
0
0
LINE
8
layer0
10
1153.49447512758
20
-84.1472068410988
30
0
11
1153.49447512758
21
-92.8074608789432
31
0
0
LINE
8
layer0
10
1160.81498320327
20
-106.467714916788
30
0
11
1170.81498320327
21
-97.8074608789432
31
0
0
LINE
8
layer0
10
1170.81498320327
20
-97.8074608789432
30
0
11
1170.81498320327
21
-89.1472068410988
31
0
0
LINE
8
layer0
10
1170.81498320327
20
-89.1472068410988
30
0
11
1160.81498320327
21
-97.8074608789432
31
0
0
LINE
8
layer0
10
1160.81498320327
20
-97.8074608789432
30
0
11
1160.81498320327
21
-106.467714916788
31
0
0
LINE
8
layer0
10
1170.81498320327
20
-89.1472068410988
30
0
11
1153.49447512758
21
-84.1472068410988
31
0
0
LINE
8
layer0
10
1153.49447512758
20
-84.1472068410988
30
0
11
1143.49447512758
21
-92.8074608789432
31
0
0
LINE
8
layer0
10
1143.49447512758
20
-92.8074608789432
30
0
11
1160.81498320327
21
-97.8074608789432
31
0
0
LINE
8
layer0
10
1160.81498320327
20
-97.8074608789432
30
0
11
1170.81498320327
21
-89.1472068410988
31
0
0
LINE
8
layer0
10
1153.49447512758
20
-92.8074608789432
30
0
11
1170.81498320327
21
-97.8074608789432
31
0
0
LINE
8
layer0
10
1170.81498320327
20
-97.8074608789432
30
0
11
1160.81498320327
21
-106.467714916788
31
0
0
LINE
8
layer0
10
1160.81498320327
20
-106.467714916788
30
0
11
1143.49447512758
21
-101.467714916788
31
0
0
LINE
8
layer0
10
1143.49447512758
20
-101.467714916788
30
0
11
1153.49447512758
21
-92.8074608789432
31
0
0
ENDBLK
0
BLOCK
8
layer0
2
PF_OBJECT10
70
0
10
0
20
0
30
0
0
LINE
8
layer0
10
1281.66623488768
20
-129.807460878943
30
0
11
1264.34572681199
21
-124.807460878943
31
0
0
LINE
8
layer0
10
1264.34572681199
20
-124.807460878943
30
0
11
1264.34572681199
21
-116.147206841099
31
0
0
LINE
8
layer0
10
1264.34572681199
20
-116.147206841099
30
0
11
1281.66623488768
21
-121.147206841099
31
0
0
LINE
8
layer0
10
1281.66623488768
20
-121.147206841099
30
0
11
1281.66623488768
21
-129.807460878943
31
0
0
LINE
8
layer0
10
1254.34572681199
20
-133.467714916788
30
0
11
1271.66623488768
21
-138.467714916788
31
0
0
LINE
8
layer0
10
1271.66623488768
20
-138.467714916788
30
0
11
1271.66623488768
21
-129.807460878943
31
0
0
LINE
8
layer0
10
1271.66623488768
20
-129.807460878943
30
0
11
1254.34572681199
21
-124.807460878943
31
0
0
LINE
8
layer0
10
1254.34572681199
20
-124.807460878943
30
0
11
1254.34572681199
21
-133.467714916788
31
0
0
LINE
8
layer0
10
1264.34572681199
20
-124.807460878943
30
0
11
1254.34572681199
21
-133.467714916788
31
0
0
LINE
8
layer0
10
1254.34572681199
20
-133.467714916788
30
0
11
1254.34572681199
21
-124.807460878943
31
0
0
LINE
8
layer0
10
1254.34572681199
20
-124.807460878943
30
0
11
1264.34572681199
21
-116.147206841099
31
0
0
LINE
8
layer0
10
1264.34572681199
20
-116.147206841099
30
0
11
1264.34572681199
21
-124.807460878943
31
0
0
LINE
8
layer0
10
1271.66623488768
20
-138.467714916788
30
0
11
1281.66623488768
21
-129.807460878943
31
0
0
LINE
8
layer0
10
1281.66623488768
20
-129.807460878943
30
0
11
1281.66623488768
21
-121.147206841099
31
0
0
LINE
8
layer0
10
1281.66623488768
20
-121.147206841099
30
0
11
1271.66623488768
21
-129.807460878943
31
0
0
LINE
8
layer0
10
1271.66623488768
20
-129.807460878943
30
0
11
1271.66623488768
21
-138.467714916788
31
0
0
LINE
8
layer0
10
1281.66623488768
20
-121.147206841099
30
0
11
1264.34572681199
21
-116.147206841099
31
0
0
LINE
8
layer0
10
1264.34572681199
20
-116.147206841099
30
0
11
1254.34572681199
21
-124.807460878943
31
0
0
LINE
8
layer0
10
1254.34572681199
20
-124.807460878943
30
0
11
1271.66623488768
21
-129.807460878943
31
0
0
LINE
8
layer0
10
1271.66623488768
20
-129.807460878943
30
0
11
1281.66623488768
21
-121.147206841099
31
0
0
LINE
8
layer0
10
1264.34572681199
20
-124.807460878943
30
0
11
1281.66623488768
21
-129.807460878943
31
0
0
LINE
8
layer0
10
1281.66623488768
20
-129.807460878943
30
0
11
1271.66623488768
21
-138.467714916788
31
0
0
LINE
8
layer0
10
1271.66623488768
20
-138.467714916788
30
0
11
1254.34572681199
21
-133.467714916788
31
0
0
LINE
8
layer0
10
1254.34572681199
20
-133.467714916788
30
0
11
1264.34572681199
21
-124.807460878943
31
0
0
ENDBLK
0
BLOCK
8
layer0
2
PF_OBJECT11
70
0
10
0
20
0
30
0
0
LINE
8
layer0
10
1315.04892078986
20
-575.632340597654
30
0
11
800.629830941902
21
-427.132340597654
31
0
0
LINE
8
layer0
10
800.629830941902
20
-427.132340597654
30
0
11
800.629830941902
21
62.1720125405542
31
0
0
LINE
8
layer0
10
800.629830941902
20
62.1720125405542
30
0
11
1315.04892078986
21
-86.3279874594458
31
0
0
LINE
8
layer0
10
1315.04892078986
20
-86.3279874594458
30
0
11
1315.04892078986
21
-575.632340597654
31
0
0
LINE
8
layer0
10
790.629830941902
20
-435.792594635498
30
0
11
1305.04892078986
21
-584.292594635498
31
0
0
LINE
8
layer0
10
1305.04892078986
20
-584.292594635498
30
0
11
1305.04892078986
21
-94.9882414972901
31
0
0
LINE
8
layer0
10
1305.04892078986
20
-94.9882414972901
30
0
11
790.629830941902
21
53.5117585027098
31
0
0
LINE
8
layer0
10
790.629830941902
20
53.5117585027098
30
0
11
790.629830941902
21
-435.792594635498
31
0
0
LINE
8
layer0
10
800.629830941902
20
-427.132340597654
30
0
11
790.629830941902
21
-435.792594635498
31
0
0
LINE
8
layer0
10
790.629830941902
20
-435.792594635498
30
0
11
790.629830941902
21
53.5117585027098
31
0
0
LINE
8
layer0
10
790.629830941902
20
53.5117585027098
30
0
11
800.629830941902
21
62.1720125405542
31
0
0
LINE
8
layer0
10
800.629830941902
20
62.1720125405542
30
0
11
800.629830941902
21
-427.132340597654
31
0
0
LINE
8
layer0
10
1305.04892078986
20
-584.292594635498
30
0
11
1315.04892078986
21
-575.632340597654
31
0
0
LINE
8
layer0
10
1315.04892078986
20
-575.632340597654
30
0
11
1315.04892078986
21
-86.3279874594458
31
0
0
LINE
8
layer0
10
1315.04892078986
20
-86.3279874594458
30
0
11
1305.04892078986
21
-94.9882414972901
31
0
0
LINE
8
layer0
10
1305.04892078986
20
-94.9882414972901
30
0
11
1305.04892078986
21
-584.292594635498
31
0
0
LINE
8
layer0
10
1315.04892078986
20
-86.3279874594458
30
0
11
800.629830941902
21
62.1720125405542
31
0
0
LINE
8
layer0
10
800.629830941902
20
62.1720125405542
30
0
11
790.629830941902
21
53.5117585027098
31
0
0
LINE
8
layer0
10
790.629830941902
20
53.5117585027098
30
0
11
1305.04892078986
21
-94.9882414972901
31
0
0
LINE
8
layer0
10
1305.04892078986
20
-94.9882414972901
30
0
11
1315.04892078986
21
-86.3279874594458
31
0
0
LINE
8
layer0
10
800.629830941902
20
-427.132340597654
30
0
11
1315.04892078986
21
-575.632340597654
31
0
0
LINE
8
layer0
10
1315.04892078986
20
-575.632340597654
30
0
11
1305.04892078986
21
-584.292594635498
31
0
0
LINE
8
layer0
10
1305.04892078986
20
-584.292594635498
30
0
11
790.629830941902
21
-435.792594635498
31
0
0
LINE
8
layer0
10
790.629830941902
20
-435.792594635498
30
0
11
800.629830941902
21
-427.132340597654
31
0
0
ENDBLK
0
BLOCK
8
layer0
2
PF_OBJECT12
70
0
10
0
20
0
30
0
0
LINE
8
layer0
10
1315.04892078986
20
-81.1318350367391
30
0
11
800.629830941902
21
67.3681649632609
31
0
0
LINE
8
layer0
10
800.629830941902
20
67.3681649632609
30
0
11
800.629830941902
21
186.013645281729
31
0
0
LINE
8
layer0
10
800.629830941902
20
186.013645281729
30
0
11
1315.04892078986
21
37.513645281729
31
0
0
LINE
8
layer0
10
1315.04892078986
20
37.513645281729
30
0
11
1315.04892078986
21
-81.1318350367391
31
0
0
LINE
8
layer0
10
790.629830941902
20
58.7079109254165
30
0
11
1305.04892078986
21
-89.7920890745835
31
0
0
LINE
8
layer0
10
1305.04892078986
20
-89.7920890745835
30
0
11
1305.04892078986
21
28.8533912438846
31
0
0
LINE
8
layer0
10
1305.04892078986
20
28.8533912438846
30
0
11
790.629830941902
21
177.353391243885
31
0
0
LINE
8
layer0
10
790.629830941902
20
177.353391243885
30
0
11
790.629830941902
21
58.7079109254165
31
0
0
LINE
8
layer0
10
800.629830941902
20
67.3681649632609
30
0
11
790.629830941902
21
58.7079109254165
31
0
0
LINE
8
layer0
10
790.629830941902
20
58.7079109254165
30
0
11
790.629830941902
21
177.353391243885
31
0
0
LINE
8
layer0
10
790.629830941902
20
177.353391243885
30
0
11
800.629830941902
21
186.013645281729
31
0
0
LINE
8
layer0
10
800.629830941902
20
186.013645281729
30
0
11
800.629830941902
21
67.3681649632609
31
0
0
LINE
8
layer0
10
1305.04892078986
20
-89.7920890745835
30
0
11
1315.04892078986
21
-81.1318350367391
31
0
0
LINE
8
layer0
10
1315.04892078986
20
-81.1318350367391
30
0
11
1315.04892078986
21
37.513645281729
31
0
0
LINE
8
layer0
10
1315.04892078986
20
37.513645281729
30
0
11
1305.04892078986
21
28.8533912438846
31
0
0
LINE
8
layer0
10
1305.04892078986
20
28.8533912438846
30
0
11
1305.04892078986
21
-89.7920890745835
31
0
0
LINE
8
layer0
10
1315.04892078986
20
37.513645281729
30
0
11
800.629830941902
21
186.013645281729
31
0
0
LINE
8
layer0
10
800.629830941902
20
186.013645281729
30
0
11
790.629830941902
21
177.353391243885
31
0
0
LINE
8
layer0
10
790.629830941902
20
177.353391243885
30
0
11
1305.04892078986
21
28.8533912438846
31
0
0
LINE
8
layer0
10
1305.04892078986
20
28.8533912438846
30
0
11
1315.04892078986
21
37.513645281729
31
0
0
LINE
8
layer0
10
800.629830941902
20
67.3681649632609
30
0
11
1315.04892078986
21
-81.1318350367391
31
0
0
LINE
8
layer0
10
1315.04892078986
20
-81.1318350367391
30
0
11
1305.04892078986
21
-89.7920890745835
31
0
0
LINE
8
layer0
10
1305.04892078986
20
-89.7920890745835
30
0
11
790.629830941902
21
58.7079109254165
31
0
0
LINE
8
layer0
10
790.629830941902
20
58.7079109254165
30
0
11
800.629830941902
21
67.3681649632609
31
0
0
ENDBLK
0
BLOCK
8
layer0
2
PF_OBJECT13
70
0
10
0
20
0
30
0
0
LINE
8
layer0
10
1110.47404107115
20
-378.301270189222
30
0
11
1075.83302491977
21
-368.301270189222
31
0
0
LINE
8
layer0
10
1075.83302491977
20
-368.301270189222
30
0
11
1075.83302491977
21
-238.397459621556
31
0
0
LINE
8
layer0
10
1075.83302491977
20
-238.397459621556
30
0
11
1110.47404107115
21
-248.397459621556
31
0
0
LINE
8
layer0
10
1110.47404107115
20
-248.397459621556
30
0
11
1110.47404107115
21
-378.301270189222
31
0
0
LINE
8
layer0
10
1055.83302491977
20
-385.621778264911
30
0
11
1090.47404107115
21
-395.621778264911
31
0
0
LINE
8
layer0
10
1090.47404107115
20
-395.621778264911
30
0
11
1090.47404107115
21
-265.717967697245
31
0
0
LINE
8
layer0
10
1090.47404107115
20
-265.717967697245
30
0
11
1055.83302491977
21
-255.717967697245
31
0
0
LINE
8
layer0
10
1055.83302491977
20
-255.717967697245
30
0
11
1055.83302491977
21
-385.621778264911
31
0
0
LINE
8
layer0
10
1075.83302491977
20
-368.301270189222
30
0
11
1055.83302491977
21
-385.621778264911
31
0
0
LINE
8
layer0
10
1055.83302491977
20
-385.621778264911
30
0
11
1055.83302491977
21
-255.717967697245
31
0
0
LINE
8
layer0
10
1055.83302491977
20
-255.717967697245
30
0
11
1075.83302491977
21
-238.397459621556
31
0
0
LINE
8
layer0
10
1075.83302491977
20
-238.397459621556
30
0
11
1075.83302491977
21
-368.301270189222
31
0
0
LINE
8
layer0
10
1090.47404107115
20
-395.621778264911
30
0
11
1110.47404107115
21
-378.301270189222
31
0
0
LINE
8
layer0
10
1110.47404107115
20
-378.301270189222
30
0
11
1110.47404107115
21
-248.397459621556
31
0
0
LINE
8
layer0
10
1110.47404107115
20
-248.397459621556
30
0
11
1090.47404107115
21
-265.717967697245
31
0
0
LINE
8
layer0
10
1090.47404107115
20
-265.717967697245
30
0
11
1090.47404107115
21
-395.621778264911
31
0
0
LINE
8
layer0
10
1110.47404107115
20
-248.397459621556
30
0
11
1075.83302491977
21
-238.397459621556
31
0
0
LINE
8
layer0
10
1075.83302491977
20
-238.397459621556
30
0
11
1055.83302491977
21
-255.717967697245
31
0
0
LINE
8
layer0
10
1055.83302491977
20
-255.717967697245
30
0
11
1090.47404107115
21
-265.717967697245
31
0
0
LINE
8
layer0
10
1090.47404107115
20
-265.717967697245
30
0
11
1110.47404107115
21
-248.397459621556
31
0
0
LINE
8
layer0
10
1075.83302491977
20
-368.301270189222
30
0
11
1110.47404107115
21
-378.301270189222
31
0
0
LINE
8
layer0
10
1110.47404107115
20
-378.301270189222
30
0
11
1090.47404107115
21
-395.621778264911
31
0
0
LINE
8
layer0
10
1090.47404107115
20
-395.621778264911
30
0
11
1055.83302491977
21
-385.621778264911
31
0
0
LINE
8
layer0
10
1055.83302491977
20
-385.621778264911
30
0
11
1075.83302491977
21
-368.301270189222
31
0
0
ENDBLK
0
BLOCK
8
layer0
2
PF_OBJECT14
70
0
10
0
20
0
30
0
0
LINE
8
layer0
10
952.474041071148
20
-515.133283987163
30
0
11
917.83302491977
21
-505.133283987163
31
0
0
LINE
8
layer0
10
917.83302491977
20
-505.133283987163
30
0
11
917.83302491977
21
-375.229473419497
31
0
0
LINE
8
layer0
10
917.83302491977
20
-375.229473419497
30
0
11
952.474041071148
21
-385.229473419497
31
0
0
LINE
8
layer0
10
952.474041071148
20
-385.229473419497
30
0
11
952.474041071148
21
-515.133283987163
31
0
0
LINE
8
layer0
10
897.83302491977
20
-522.453792062852
30
0
11
932.474041071148
21
-532.453792062852
31
0
0
LINE
8
layer0
10
932.474041071148
20
-532.453792062852
30
0
11
932.474041071148
21
-402.549981495186
31
0
0
LINE
8
layer0
10
932.474041071148
20
-402.549981495186
30
0
11
897.83302491977
21
-392.549981495186
31
0
0
LINE
8
layer0
10
897.83302491977
20
-392.549981495186
30
0
11
897.83302491977
21
-522.453792062852
31
0
0
LINE
8
layer0
10
917.83302491977
20
-505.133283987163
30
0
11
897.83302491977
21
-522.453792062852
31
0
0
LINE
8
layer0
10
897.83302491977
20
-522.453792062852
30
0
11
897.83302491977
21
-392.549981495186
31
0
0
LINE
8
layer0
10
897.83302491977
20
-392.549981495186
30
0
11
917.83302491977
21
-375.229473419497
31
0
0
LINE
8
layer0
10
917.83302491977
20
-375.229473419497
30
0
11
917.83302491977
21
-505.133283987163
31
0
0
LINE
8
layer0
10
932.474041071148
20
-532.453792062852
30
0
11
952.474041071148
21
-515.133283987163
31
0
0
LINE
8
layer0
10
952.474041071148
20
-515.133283987163
30
0
11
952.474041071148
21
-385.229473419497
31
0
0
LINE
8
layer0
10
952.474041071148
20
-385.229473419497
30
0
11
932.474041071148
21
-402.549981495186
31
0
0
LINE
8
layer0
10
932.474041071148
20
-402.549981495186
30
0
11
932.474041071148
21
-532.453792062852
31
0
0
LINE
8
layer0
10
952.474041071148
20
-385.229473419497
30
0
11
917.83302491977
21
-375.229473419497
31
0
0
LINE
8
layer0
10
917.83302491977
20
-375.229473419497
30
0
11
897.83302491977
21
-392.549981495186
31
0
0
LINE
8
layer0
10
897.83302491977
20
-392.549981495186
30
0
11
932.474041071148
21
-402.549981495186
31
0
0
LINE
8
layer0
10
932.474041071148
20
-402.549981495186
30
0
11
952.474041071148
21
-385.229473419497
31
0
0
LINE
8
layer0
10
917.83302491977
20
-505.133283987163
30
0
11
952.474041071148
21
-515.133283987163
31
0
0
LINE
8
layer0
10
952.474041071148
20
-515.133283987163
30
0
11
932.474041071148
21
-532.453792062852
31
0
0
LINE
8
layer0
10
932.474041071148
20
-532.453792062852
30
0
11
897.83302491977
21
-522.453792062852
31
0
0
LINE
8
layer0
10
897.83302491977
20
-522.453792062852
30
0
11
917.83302491977
21
-505.133283987163
31
0
0
ENDBLK
0
BLOCK
8
layer0
2
PF_OBJECT15
70
0
10
0
20
0
30
0
0
LINE
8
layer0
10
1508.84572681199
20
-493.301270189222
30
0
11
1474.20471066061
21
-483.301270189222
31
0
0
LINE
8
layer0
10
1474.20471066061
20
-483.301270189222
30
0
11
1474.20471066061
21
-353.397459621556
31
0
0
LINE
8
layer0
10
1474.20471066061
20
-353.397459621556
30
0
11
1508.84572681199
21
-363.397459621556
31
0
0
LINE
8
layer0
10
1508.84572681199
20
-363.397459621556
30
0
11
1508.84572681199
21
-493.301270189222
31
0
0
LINE
8
layer0
10
1454.20471066061
20
-500.621778264911
30
0
11
1488.84572681199
21
-510.621778264911
31
0
0
LINE
8
layer0
10
1488.84572681199
20
-510.621778264911
30
0
11
1488.84572681199
21
-380.717967697245
31
0
0
LINE
8
layer0
10
1488.84572681199
20
-380.717967697245
30
0
11
1454.20471066061
21
-370.717967697245
31
0
0
LINE
8
layer0
10
1454.20471066061
20
-370.717967697245
30
0
11
1454.20471066061
21
-500.621778264911
31
0
0
LINE
8
layer0
10
1474.20471066061
20
-483.301270189222
30
0
11
1454.20471066061
21
-500.621778264911
31
0
0
LINE
8
layer0
10
1454.20471066061
20
-500.621778264911
30
0
11
1454.20471066061
21
-370.717967697245
31
0
0
LINE
8
layer0
10
1454.20471066061
20
-370.717967697245
30
0
11
1474.20471066061
21
-353.397459621556
31
0
0
LINE
8
layer0
10
1474.20471066061
20
-353.397459621556
30
0
11
1474.20471066061
21
-483.301270189222
31
0
0
LINE
8
layer0
10
1488.84572681199
20
-510.621778264911
30
0
11
1508.84572681199
21
-493.301270189222
31
0
0
LINE
8
layer0
10
1508.84572681199
20
-493.301270189222
30
0
11
1508.84572681199
21
-363.397459621556
31
0
0
LINE
8
layer0
10
1508.84572681199
20
-363.397459621556
30
0
11
1488.84572681199
21
-380.717967697245
31
0
0
LINE
8
layer0
10
1488.84572681199
20
-380.717967697245
30
0
11
1488.84572681199
21
-510.621778264911
31
0
0
LINE
8
layer0
10
1508.84572681199
20
-363.397459621556
30
0
11
1474.20471066061
21
-353.397459621556
31
0
0
LINE
8
layer0
10
1474.20471066061
20
-353.397459621556
30
0
11
1454.20471066061
21
-370.717967697245
31
0
0
LINE
8
layer0
10
1454.20471066061
20
-370.717967697245
30
0
11
1488.84572681199
21
-380.717967697245
31
0
0
LINE
8
layer0
10
1488.84572681199
20
-380.717967697245
30
0
11
1508.84572681199
21
-363.397459621556
31
0
0
LINE
8
layer0
10
1474.20471066061
20
-483.301270189222
30
0
11
1508.84572681199
21
-493.301270189222
31
0
0
LINE
8
layer0
10
1508.84572681199
20
-493.301270189222
30
0
11
1488.84572681199
21
-510.621778264911
31
0
0
LINE
8
layer0
10
1488.84572681199
20
-510.621778264911
30
0
11
1454.20471066061
21
-500.621778264911
31
0
0
LINE
8
layer0
10
1454.20471066061
20
-500.621778264911
30
0
11
1474.20471066061
21
-483.301270189222
31
0
0
ENDBLK
0
BLOCK
8
layer0
2
PF_OBJECT16
70
0
10
0
20
0
30
0
0
LINE
8
layer0
10
1350.84572681199
20
-630.133283987163
30
0
11
1316.20471066061
21
-620.133283987163
31
0
0
LINE
8
layer0
10
1316.20471066061
20
-620.133283987163
30
0
11
1316.20471066061
21
-490.229473419497
31
0
0
LINE
8
layer0
10
1316.20471066061
20
-490.229473419497
30
0
11
1350.84572681199
21
-500.229473419497
31
0
0
LINE
8
layer0
10
1350.84572681199
20
-500.229473419497
30
0
11
1350.84572681199
21
-630.133283987163
31
0
0
LINE
8
layer0
10
1296.20471066061
20
-637.453792062852
30
0
11
1330.84572681199
21
-647.453792062852
31
0
0
LINE
8
layer0
10
1330.84572681199
20
-647.453792062852
30
0
11
1330.84572681199
21
-517.549981495186
31
0
0
LINE
8
layer0
10
1330.84572681199
20
-517.549981495186
30
0
11
1296.20471066061
21
-507.549981495186
31
0
0
LINE
8
layer0
10
1296.20471066061
20
-507.549981495186
30
0
11
1296.20471066061
21
-637.453792062852
31
0
0
LINE
8
layer0
10
1316.20471066061
20
-620.133283987163
30
0
11
1296.20471066061
21
-637.453792062852
31
0
0
LINE
8
layer0
10
1296.20471066061
20
-637.453792062852
30
0
11
1296.20471066061
21
-507.549981495186
31
0
0
LINE
8
layer0
10
1296.20471066061
20
-507.549981495186
30
0
11
1316.20471066061
21
-490.229473419497
31
0
0
LINE
8
layer0
10
1316.20471066061
20
-490.229473419497
30
0
11
1316.20471066061
21
-620.133283987163
31
0
0
LINE
8
layer0
10
1330.84572681199
20
-647.453792062852
30
0
11
1350.84572681199
21
-630.133283987163
31
0
0
LINE
8
layer0
10
1350.84572681199
20
-630.133283987163
30
0
11
1350.84572681199
21
-500.229473419497
31
0
0
LINE
8
layer0
10
1350.84572681199
20
-500.229473419497
30
0
11
1330.84572681199
21
-517.549981495186
31
0
0
LINE
8
layer0
10
1330.84572681199
20
-517.549981495186
30
0
11
1330.84572681199
21
-647.453792062852
31
0
0
LINE
8
layer0
10
1350.84572681199
20
-500.229473419497
30
0
11
1316.20471066061
21
-490.229473419497
31
0
0
LINE
8
layer0
10
1316.20471066061
20
-490.229473419497
30
0
11
1296.20471066061
21
-507.549981495186
31
0
0
LINE
8
layer0
10
1296.20471066061
20
-507.549981495186
30
0
11
1330.84572681199
21
-517.549981495186
31
0
0
LINE
8
layer0
10
1330.84572681199
20
-517.549981495186
30
0
11
1350.84572681199
21
-500.229473419497
31
0
0
LINE
8
layer0
10
1316.20471066061
20
-620.133283987163
30
0
11
1350.84572681199
21
-630.133283987163
31
0
0
LINE
8
layer0
10
1350.84572681199
20
-630.133283987163
30
0
11
1330.84572681199
21
-647.453792062852
31
0
0
LINE
8
layer0
10
1330.84572681199
20
-647.453792062852
30
0
11
1296.20471066061
21
-637.453792062852
31
0
0
LINE
8
layer0
10
1296.20471066061
20
-637.453792062852
30
0
11
1316.20471066061
21
-620.133283987163
31
0
0
ENDBLK
0
BLOCK
8
layer0
70
0
10
0
20
0
30
0
2
PF_SKETCH17
0
LINE
8
layer0
10
1035.36508806388
20
400.094569747296
30
0
11
988.198421397215
21
359.24703820213
31
0
0
ENDBLK
0
BLOCK
8
layer0
70
0
10
0
20
0
30
0
2
PF_SKETCH18
0
LINE
8
layer0
10
1554.98033033454
20
250.094569747296
30
0
11
1507.81366366788
21
209.24703820213
31
0
0
ENDBLK
0
BLOCK
8
layer0
70
0
10
0
20
0
30
0
2
PF_SKETCH19
0
LINE
8
layer0
10
941.031754730548
20
318.399506656964
30
0
11
893.865088063882
21
277.551975111798
31
0
0
ENDBLK
0
BLOCK
8
layer0
70
0
10
0
20
0
30
0
2
PF_SKETCH20
0
LINE
8
layer0
10
1460.64699700121
20
168.399506656964
30
0
11
1413.48033033454
21
127.551975111798
31
0
0
ENDBLK
0
BLOCK
8
layer0
70
0
10
0
20
0
30
0
2
PF_SKETCH21
0
LINE
8
layer0
10
846.698421397215
20
236.704443566632
30
0
11
799.531754730548
21
195.856912021466
31
0
0
ENDBLK
0
BLOCK
8
layer0
70
0
10
0
20
0
30
0
2
PF_SKETCH22
0
LINE
8
layer0
10
1366.31366366788
20
86.7044435666316
30
0
11
1319.14699700121
21
45.8569120214656
31
0
0
ENDBLK
0
BLOCK
8
layer0
2
PF_OBJECT23
70
0
10
0
20
0
30
0
0
LINE
8
layer0
10
2080.90583281132
20
-501.978875334514
30
0
11
1589.00340346176
21
-359.978875334514
31
0
0
LINE
8
layer0
10
1589.00340346176
20
-359.978875334514
30
0
11
1589.00340346176
21
-346.122468873963
31
0
0
LINE
8
layer0
10
1589.00340346176
20
-346.122468873963
30
0
11
2080.90583281132
21
-488.122468873963
31
0
0
LINE
8
layer0
10
2080.90583281132
20
-488.122468873963
30
0
11
2080.90583281132
21
-501.978875334514
31
0
0
LINE
8
layer0
10
1333.50340346176
20
-581.248366001438
30
0
11
1825.40583281132
21
-723.248366001438
31
0
0
LINE
8
layer0
10
1825.40583281132
20
-723.248366001438
30
0
11
1825.40583281132
21
-709.391959540887
31
0
0
LINE
8
layer0
10
1825.40583281132
20
-709.391959540887
30
0
11
1333.50340346176
21
-567.391959540887
31
0
0
LINE
8
layer0
10
1333.50340346176
20
-567.391959540887
30
0
11
1333.50340346176
21
-581.248366001438
31
0
0
LINE
8
layer0
10
1589.00340346176
20
-359.978875334514
30
0
11
1333.50340346176
21
-581.248366001438
31
0
0
LINE
8
layer0
10
1333.50340346176
20
-581.248366001438
30
0
11
1333.50340346176
21
-567.391959540887
31
0
0
LINE
8
layer0
10
1333.50340346176
20
-567.391959540887
30
0
11
1589.00340346176
21
-346.122468873963
31
0
0
LINE
8
layer0
10
1589.00340346176
20
-346.122468873963
30
0
11
1589.00340346176
21
-359.978875334514
31
0
0
LINE
8
layer0
10
1825.40583281132
20
-723.248366001438
30
0
11
2080.90583281132
21
-501.978875334514
31
0
0
LINE
8
layer0
10
2080.90583281132
20
-501.978875334514
30
0
11
2080.90583281132
21
-488.122468873963
31
0
0
LINE
8
layer0
10
2080.90583281132
20
-488.122468873963
30
0
11
1825.40583281132
21
-709.391959540887
31
0
0
LINE
8
layer0
10
1825.40583281132
20
-709.391959540887
30
0
11
1825.40583281132
21
-723.248366001438
31
0
0
LINE
8
layer0
10
2080.90583281132
20
-488.122468873963
30
0
11
1589.00340346176
21
-346.122468873963
31
0
0
LINE
8
layer0
10
1589.00340346176
20
-346.122468873963
30
0
11
1333.50340346176
21
-567.391959540887
31
0
0
LINE
8
layer0
10
1333.50340346176
20
-567.391959540887
30
0
11
1825.40583281132
21
-709.391959540887
31
0
0
LINE
8
layer0
10
1825.40583281132
20
-709.391959540887
30
0
11
2080.90583281132
21
-488.122468873963
31
0
0
LINE
8
layer0
10
1589.00340346176
20
-359.978875334514
30
0
11
2080.90583281132
21
-501.978875334514
31
0
0
LINE
8
layer0
10
2080.90583281132
20
-501.978875334514
30
0
11
1825.40583281132
21
-723.248366001438
31
0
0
LINE
8
layer0
10
1825.40583281132
20
-723.248366001438
30
0
11
1333.50340346176
21
-581.248366001438
31
0
0
LINE
8
layer0
10
1333.50340346176
20
-581.248366001438
30
0
11
1589.00340346176
21
-359.978875334514
31
0
0
ENDBLK
0
BLOCK
8
layer0
2
PF_OBJECT24
70
0
10
0
20
0
30
0
0
LINE
8
layer0
10
2082.90583281132
20
-500.246824526945
30
0
11
1591.00340346176
21
-358.246824526945
31
0
0
LINE
8
layer0
10
1591.00340346176
20
-358.246824526945
30
0
11
1591.00340346176
21
265.291466197851
31
0
0
LINE
8
layer0
10
1591.00340346176
20
265.291466197851
30
0
11
2082.90583281132
21
123.291466197851
31
0
0
LINE
8
layer0
10
2082.90583281132
20
123.291466197851
30
0
11
2082.90583281132
21
-500.246824526945
31
0
0
LINE
8
layer0
10
1589.00340346176
20
-359.978875334514
30
0
11
2080.90583281132
21
-501.978875334514
31
0
0
LINE
8
layer0
10
2080.90583281132
20
-501.978875334514
30
0
11
2080.90583281132
21
121.559415390282
31
0
0
LINE
8
layer0
10
2080.90583281132
20
121.559415390282
30
0
11
1589.00340346176
21
263.559415390282
31
0
0
LINE
8
layer0
10
1589.00340346176
20
263.559415390282
30
0
11
1589.00340346176
21
-359.978875334514
31
0
0
LINE
8
layer0
10
1591.00340346176
20
-358.246824526945
30
0
11
1589.00340346176
21
-359.978875334514
31
0
0
LINE
8
layer0
10
1589.00340346176
20
-359.978875334514
30
0
11
1589.00340346176
21
263.559415390282
31
0
0
LINE
8
layer0
10
1589.00340346176
20
263.559415390282
30
0
11
1591.00340346176
21
265.291466197851
31
0
0
LINE
8
layer0
10
1591.00340346176
20
265.291466197851
30
0
11
1591.00340346176
21
-358.246824526945
31
0
0
LINE
8
layer0
10
2080.90583281132
20
-501.978875334514
30
0
11
2082.90583281132
21
-500.246824526945
31
0
0
LINE
8
layer0
10
2082.90583281132
20
-500.246824526945
30
0
11
2082.90583281132
21
123.291466197851
31
0
0
LINE
8
layer0
10
2082.90583281132
20
123.291466197851
30
0
11
2080.90583281132
21
121.559415390282
31
0
0
LINE
8
layer0
10
2080.90583281132
20
121.559415390282
30
0
11
2080.90583281132
21
-501.978875334514
31
0
0
LINE
8
layer0
10
2082.90583281132
20
123.291466197851
30
0
11
1591.00340346176
21
265.291466197851
31
0
0
LINE
8
layer0
10
1591.00340346176
20
265.291466197851
30
0
11
1589.00340346176
21
263.559415390282
31
0
0
LINE
8
layer0
10
1589.00340346176
20
263.559415390282
30
0
11
2080.90583281132
21
121.559415390282
31
0
0
LINE
8
layer0
10
2080.90583281132
20
121.559415390282
30
0
11
2082.90583281132
21
123.291466197851
31
0
0
LINE
8
layer0
10
1591.00340346176
20
-358.246824526945
30
0
11
2082.90583281132
21
-500.246824526945
31
0
0
LINE
8
layer0
10
2082.90583281132
20
-500.246824526945
30
0
11
2080.90583281132
21
-501.978875334514
31
0
0
LINE
8
layer0
10
2080.90583281132
20
-501.978875334514
30
0
11
1589.00340346176
21
-359.978875334514
31
0
0
LINE
8
layer0
10
1589.00340346176
20
-359.978875334514
30
0
11
1591.00340346176
21
-358.246824526945
31
0
0
ENDBLK
0
BLOCK
8
layer0
2
PF_OBJECT25
70
0
10
0
20
0
30
0
0
LINE
8
layer0
10
2055.90583281132
20
99.9087802956709
30
0
11
1564.00340346176
21
241.908780295671
31
0
0
LINE
8
layer0
10
1564.00340346176
20
241.908780295671
30
0
11
1564.00340346176
21
228.05237383512
31
0
0
LINE
8
layer0
10
1564.00340346176
20
228.05237383512
30
0
11
2055.90583281132
21
86.0523738351199
31
0
0
LINE
8
layer0
10
2055.90583281132
20
86.0523738351199
30
0
11
2055.90583281132
21
99.9087802956709
31
0
0
LINE
8
layer0
10
1589.00340346176
20
263.559415390282
30
0
11
2080.90583281132
21
121.559415390282
31
0
0
LINE
8
layer0
10
2080.90583281132
20
121.559415390282
30
0
11
2080.90583281132
21
107.703008929731
31
0
0
LINE
8
layer0
10
2080.90583281132
20
107.703008929731
30
0
11
1589.00340346176
21
249.703008929731
31
0
0
LINE
8
layer0
10
1589.00340346176
20
249.703008929731
30
0
11
1589.00340346176
21
263.559415390282
31
0
0
LINE
8
layer0
10
1564.00340346176
20
241.908780295671
30
0
11
1589.00340346176
21
263.559415390282
31
0
0
LINE
8
layer0
10
1589.00340346176
20
263.559415390282
30
0
11
1589.00340346176
21
249.703008929731
31
0
0
LINE
8
layer0
10
1589.00340346176
20
249.703008929731
30
0
11
1564.00340346176
21
228.05237383512
31
0
0
LINE
8
layer0
10
1564.00340346176
20
228.05237383512
30
0
11
1564.00340346176
21
241.908780295671
31
0
0
LINE
8
layer0
10
2080.90583281132
20
121.559415390282
30
0
11
2055.90583281132
21
99.9087802956709
31
0
0
LINE
8
layer0
10
2055.90583281132
20
99.9087802956709
30
0
11
2055.90583281132
21
86.0523738351199
31
0
0
LINE
8
layer0
10
2055.90583281132
20
86.0523738351199
30
0
11
2080.90583281132
21
107.703008929731
31
0
0
LINE
8
layer0
10
2080.90583281132
20
107.703008929731
30
0
11
2080.90583281132
21
121.559415390282
31
0
0
LINE
8
layer0
10
2055.90583281132
20
86.0523738351199
30
0
11
1564.00340346176
21
228.05237383512
31
0
0
LINE
8
layer0
10
1564.00340346176
20
228.05237383512
30
0
11
1589.00340346176
21
249.703008929731
31
0
0
LINE
8
layer0
10
1589.00340346176
20
249.703008929731
30
0
11
2080.90583281132
21
107.703008929731
31
0
0
LINE
8
layer0
10
2080.90583281132
20
107.703008929731
30
0
11
2055.90583281132
21
86.0523738351199
31
0
0
LINE
8
layer0
10
1564.00340346176
20
241.908780295671
30
0
11
2055.90583281132
21
99.9087802956709
31
0
0
LINE
8
layer0
10
2055.90583281132
20
99.9087802956709
30
0
11
2080.90583281132
21
121.559415390282
31
0
0
LINE
8
layer0
10
2080.90583281132
20
121.559415390282
30
0
11
1589.00340346176
21
263.559415390282
31
0
0
LINE
8
layer0
10
1589.00340346176
20
263.559415390282
30
0
11
1564.00340346176
21
241.908780295671
31
0
0
ENDBLK
0
BLOCK
8
layer0
2
PF_OBJECT26
70
0
10
0
20
0
30
0
0
LINE
8
layer0
10
1358.50340346176
20
50.0841533574178
30
0
11
1850.40583281132
21
-91.9158466425822
31
0
0
LINE
8
layer0
10
1850.40583281132
20
-91.9158466425822
30
0
11
1825.40583281132
21
-113.566481737193
31
0
0
LINE
8
layer0
10
1825.40583281132
20
-113.566481737193
30
0
11
1333.50340346176
21
28.4335182628068
31
0
0
LINE
8
layer0
10
1333.50340346176
20
28.4335182628068
30
0
11
1358.50340346176
21
50.0841533574178
31
0
0
LINE
8
layer0
10
1850.40583281132
20
-78.0594401820313
30
0
11
1358.50340346176
21
63.9405598179688
31
0
0
LINE
8
layer0
10
1358.50340346176
20
63.9405598179688
30
0
11
1333.50340346176
21
42.2899247233577
31
0
0
LINE
8
layer0
10
1333.50340346176
20
42.2899247233577
30
0
11
1825.40583281132
21
-99.7100752766423
31
0
0
LINE
8
layer0
10
1825.40583281132
20
-99.7100752766423
30
0
11
1850.40583281132
21
-78.0594401820313
31
0
0
LINE
8
layer0
10
1825.40583281132
20
-113.566481737193
30
0
11
1850.40583281132
21
-91.9158466425822
31
0
0
LINE
8
layer0
10
1850.40583281132
20
-91.9158466425822
30
0
11
1850.40583281132
21
-78.0594401820313
31
0
0
LINE
8
layer0
10
1850.40583281132
20
-78.0594401820313
30
0
11
1825.40583281132
21
-99.7100752766423
31
0
0
LINE
8
layer0
10
1825.40583281132
20
-99.7100752766423
30
0
11
1825.40583281132
21
-113.566481737193
31
0
0
LINE
8
layer0
10
1358.50340346176
20
50.0841533574178
30
0
11
1333.50340346176
21
28.4335182628068
31
0
0
LINE
8
layer0
10
1333.50340346176
20
28.4335182628068
30
0
11
1333.50340346176
21
42.2899247233577
31
0
0
LINE
8
layer0
10
1333.50340346176
20
42.2899247233577
30
0
11
1358.50340346176
21
63.9405598179688
31
0
0
LINE
8
layer0
10
1358.50340346176
20
63.9405598179688
30
0
11
1358.50340346176
21
50.0841533574178
31
0
0
LINE
8
layer0
10
1333.50340346176
20
28.4335182628068
30
0
11
1825.40583281132
21
-113.566481737193
31
0
0
LINE
8
layer0
10
1825.40583281132
20
-113.566481737193
30
0
11
1825.40583281132
21
-99.7100752766423
31
0
0
LINE
8
layer0
10
1825.40583281132
20
-99.7100752766423
30
0
11
1333.50340346176
21
42.2899247233577
31
0
0
LINE
8
layer0
10
1333.50340346176
20
42.2899247233577
30
0
11
1333.50340346176
21
28.4335182628068
31
0
0
LINE
8
layer0
10
1850.40583281132
20
-91.9158466425822
30
0
11
1358.50340346176
21
50.0841533574178
31
0
0
LINE
8
layer0
10
1358.50340346176
20
50.0841533574178
30
0
11
1358.50340346176
21
63.9405598179688
31
0
0
LINE
8
layer0
10
1358.50340346176
20
63.9405598179688
30
0
11
1850.40583281132
21
-78.0594401820313
31
0
0
LINE
8
layer0
10
1850.40583281132
20
-78.0594401820313
30
0
11
1850.40583281132
21
-91.9158466425822
31
0
0
LINE
8
layer0
10
2107.90583281132
20
-478.596189432334
30
0
11
2121.76223927187
21
-482.596189432334
31
0
0
LINE
8
layer0
10
2121.76223927187
20
-482.596189432334
30
0
11
1838.76223927187
21
-727.68137870333
31
0
0
LINE
8
layer0
10
1838.76223927187
20
-727.68137870333
30
0
11
1824.90583281132
21
-723.68137870333
31
0
0
LINE
8
layer0
10
1824.90583281132
20
-723.68137870333
30
0
11
2107.90583281132
21
-478.596189432334
31
0
0
LINE
8
layer0
10
2121.76223927187
20
140.942101292462
30
0
11
2107.90583281132
21
144.942101292462
31
0
0
LINE
8
layer0
10
2107.90583281132
20
144.942101292462
30
0
11
1824.90583281132
21
-100.143087978534
31
0
0
LINE
8
layer0
10
1824.90583281132
20
-100.143087978534
30
0
11
1838.76223927187
21
-104.143087978534
31
0
0
LINE
8
layer0
10
1838.76223927187
20
-104.143087978534
30
0
11
2121.76223927187
21
140.942101292462
31
0
0
LINE
8
layer0
10
1838.76223927187
20
-727.68137870333
30
0
11
2121.76223927187
21
-482.596189432334
31
0
0
LINE
8
layer0
10
2121.76223927187
20
-482.596189432334
30
0
11
2121.76223927187
21
140.942101292462
31
0
0
LINE
8
layer0
10
2121.76223927187
20
140.942101292462
30
0
11
1838.76223927187
21
-104.143087978534
31
0
0
LINE
8
layer0
10
1838.76223927187
20
-104.143087978534
30
0
11
1838.76223927187
21
-727.68137870333
31
0
0
LINE
8
layer0
10
2107.90583281132
20
-478.596189432334
30
0
11
1824.90583281132
21
-723.68137870333
31
0
0
LINE
8
layer0
10
1824.90583281132
20
-723.68137870333
30
0
11
1824.90583281132
21
-100.143087978534
31
0
0
LINE
8
layer0
10
1824.90583281132
20
-100.143087978534
30
0
11
2107.90583281132
21
144.942101292462
31
0
0
LINE
8
layer0
10
2107.90583281132
20
144.942101292462
30
0
11
2107.90583281132
21
-478.596189432334
31
0
0
LINE
8
layer0
10
1824.90583281132
20
-723.68137870333
30
0
11
1838.76223927187
21
-727.68137870333
31
0
0
LINE
8
layer0
10
1838.76223927187
20
-727.68137870333
30
0
11
1838.76223927187
21
-104.143087978534
31
0
0
LINE
8
layer0
10
1838.76223927187
20
-104.143087978534
30
0
11
1824.90583281132
21
-100.143087978534
31
0
0
LINE
8
layer0
10
1824.90583281132
20
-100.143087978534
30
0
11
1824.90583281132
21
-723.68137870333
31
0
0
LINE
8
layer0
10
2121.76223927187
20
-482.596189432334
30
0
11
2107.90583281132
21
-478.596189432334
31
0
0
LINE
8
layer0
10
2107.90583281132
20
-478.596189432334
30
0
11
2107.90583281132
21
144.942101292462
31
0
0
LINE
8
layer0
10
2107.90583281132
20
144.942101292462
30
0
11
2121.76223927187
21
140.942101292462
31
0
0
LINE
8
layer0
10
2121.76223927187
20
140.942101292462
30
0
11
2121.76223927187
21
-482.596189432334
31
0
0
LINE
8
layer0
10
1602.14699700121
20
-332.596189432334
30
0
11
1616.00340346176
21
-336.596189432334
31
0
0
LINE
8
layer0
10
1616.00340346176
20
-336.596189432334
30
0
11
1333.00340346176
21
-581.68137870333
31
0
0
LINE
8
layer0
10
1333.00340346176
20
-581.68137870333
30
0
11
1319.14699700121
21
-577.68137870333
31
0
0
LINE
8
layer0
10
1319.14699700121
20
-577.68137870333
30
0
11
1602.14699700121
21
-332.596189432334
31
0
0
LINE
8
layer0
10
1616.00340346176
20
286.942101292462
30
0
11
1602.14699700121
21
290.942101292462
31
0
0
LINE
8
layer0
10
1602.14699700121
20
290.942101292462
30
0
11
1319.14699700121
21
45.8569120214656
31
0
0
LINE
8
layer0
10
1319.14699700121
20
45.8569120214656
30
0
11
1333.00340346176
21
41.8569120214656
31
0
0
LINE
8
layer0
10
1333.00340346176
20
41.8569120214656
30
0
11
1616.00340346176
21
286.942101292462
31
0
0
LINE
8
layer0
10
1333.00340346176
20
-581.68137870333
30
0
11
1616.00340346176
21
-336.596189432334
31
0
0
LINE
8
layer0
10
1616.00340346176
20
-336.596189432334
30
0
11
1616.00340346176
21
286.942101292462
31
0
0
LINE
8
layer0
10
1616.00340346176
20
286.942101292462
30
0
11
1333.00340346176
21
41.8569120214656
31
0
0
LINE
8
layer0
10
1333.00340346176
20
41.8569120214656
30
0
11
1333.00340346176
21
-581.68137870333
31
0
0
LINE
8
layer0
10
1602.14699700121
20
-332.596189432334
30
0
11
1319.14699700121
21
-577.68137870333
31
0
0
LINE
8
layer0
10
1319.14699700121
20
-577.68137870333
30
0
11
1319.14699700121
21
45.8569120214656
31
0
0
LINE
8
layer0
10
1319.14699700121
20
45.8569120214656
30
0
11
1602.14699700121
21
290.942101292462
31
0
0
LINE
8
layer0
10
1602.14699700121
20
290.942101292462
30
0
11
1602.14699700121
21
-332.596189432334
31
0
0
LINE
8
layer0
10
1319.14699700121
20
-577.68137870333
30
0
11
1333.00340346176
21
-581.68137870333
31
0
0
LINE
8
layer0
10
1333.00340346176
20
-581.68137870333
30
0
11
1333.00340346176
21
41.8569120214656
31
0
0
LINE
8
layer0
10
1333.00340346176
20
41.8569120214656
30
0
11
1319.14699700121
21
45.8569120214656
31
0
0
LINE
8
layer0
10
1319.14699700121
20
45.8569120214656
30
0
11
1319.14699700121
21
-577.68137870333
31
0
0
LINE
8
layer0
10
1616.00340346176
20
-336.596189432334
30
0
11
1602.14699700121
21
-332.596189432334
31
0
0
LINE
8
layer0
10
1602.14699700121
20
-332.596189432334
30
0
11
1602.14699700121
21
290.942101292462
31
0
0
LINE
8
layer0
10
1602.14699700121
20
290.942101292462
30
0
11
1616.00340346176
21
286.942101292462
31
0
0
LINE
8
layer0
10
1616.00340346176
20
286.942101292462
30
0
11
1616.00340346176
21
-336.596189432334
31
0
0
ENDBLK
0
BLOCK
8
layer0
2
PF_OBJECT27
70
0
10
0
20
0
30
0
0
LINE
8
layer0
10
1325.39552606771
20
-144.544794630147
30
0
11
1323.62775911474
21
-144.807460878943
31
0
0
LINE
8
layer0
10
1323.62775911474
20
-144.807460878943
30
0
11
1451.79951887484
21
-181.807460878943
31
0
0
LINE
8
layer0
10
1451.79951887484
20
-181.807460878943
30
0
11
1453.56728582781
21
-181.544794630147
31
0
0
LINE
8
layer0
10
1453.56728582781
20
-181.544794630147
30
0
11
1325.39552606771
21
-144.544794630147
31
0
0
LINE
8
layer0
10
1326.12775911474
20
-146.972524388404
30
0
11
1325.39552606771
21
-144.544794630147
31
0
0
LINE
8
layer0
10
1325.39552606771
20
-144.544794630147
30
0
11
1453.56728582781
21
-181.544794630147
31
0
0
LINE
8
layer0
10
1453.56728582781
20
-181.544794630147
30
0
11
1454.29951887484
21
-183.972524388404
31
0
0
LINE
8
layer0
10
1454.29951887484
20
-183.972524388404
30
0
11
1326.12775911474
21
-146.972524388404
31
0
0
LINE
8
layer0
10
1325.39552606771
20
-150.668518987105
30
0
11
1326.12775911474
21
-146.972524388404
31
0
0
LINE
8
layer0
10
1326.12775911474
20
-146.972524388404
30
0
11
1454.29951887484
21
-183.972524388404
31
0
0
LINE
8
layer0
10
1454.29951887484
20
-183.972524388404
30
0
11
1453.56728582781
21
-187.668518987105
31
0
0
LINE
8
layer0
10
1453.56728582781
20
-187.668518987105
30
0
11
1325.39552606771
21
-150.668518987105
31
0
0
LINE
8
layer0
10
1323.62775911474
20
-153.467714916788
30
0
11
1325.39552606771
21
-150.668518987105
31
0
0
LINE
8
layer0
10
1325.39552606771
20
-150.668518987105
30
0
11
1453.56728582781
21
-187.668518987105
31
0
0
LINE
8
layer0
10
1453.56728582781
20
-187.668518987105
30
0
11
1451.79951887484
21
-190.467714916788
31
0
0
LINE
8
layer0
10
1451.79951887484
20
-190.467714916788
30
0
11
1323.62775911474
21
-153.467714916788
31
0
0
LINE
8
layer0
10
1321.85999216178
20
-153.730381165584
30
0
11
1323.62775911474
21
-153.467714916788
31
0
0
LINE
8
layer0
10
1323.62775911474
20
-153.467714916788
30
0
11
1451.79951887484
21
-190.467714916788
31
0
0
LINE
8
layer0
10
1451.79951887484
20
-190.467714916788
30
0
11
1450.03175192188
21
-190.730381165584
31
0
0
LINE
8
layer0
10
1450.03175192188
20
-190.730381165584
30
0
11
1321.85999216178
21
-153.730381165584
31
0
0
LINE
8
layer0
10
1321.12775911474
20
-151.302651407326
30
0
11
1321.85999216178
21
-153.730381165584
31
0
0
LINE
8
layer0
10
1321.85999216178
20
-153.730381165584
30
0
11
1450.03175192188
21
-190.730381165584
31
0
0
LINE
8
layer0
10
1450.03175192188
20
-190.730381165584
30
0
11
1449.29951887484
21
-188.302651407326
31
0
0
LINE
8
layer0
10
1449.29951887484
20
-188.302651407326
30
0
11
1321.12775911474
21
-151.302651407326
31
0
0
LINE
8
layer0
10
1321.85999216178
20
-147.606656808626
30
0
11
1321.12775911474
21
-151.302651407326
31
0
0
LINE
8
layer0
10
1321.12775911474
20
-151.302651407326
30
0
11
1449.29951887484
21
-188.302651407326
31
0
0
LINE
8
layer0
10
1449.29951887484
20
-188.302651407326
30
0
11
1450.03175192188
21
-184.606656808626
31
0
0
LINE
8
layer0
10
1450.03175192188
20
-184.606656808626
30
0
11
1321.85999216178
21
-147.606656808626
31
0
0
LINE
8
layer0
10
1323.62775911474
20
-144.807460878943
30
0
11
1321.85999216178
21
-147.606656808626
31
0
0
LINE
8
layer0
10
1321.85999216178
20
-147.606656808626
30
0
11
1450.03175192188
21
-184.606656808626
31
0
0
LINE
8
layer0
10
1450.03175192188
20
-184.606656808626
30
0
11
1451.79951887484
21
-181.807460878943
31
0
0
LINE
8
layer0
10
1451.79951887484
20
-181.807460878943
30
0
11
1323.62775911474
21
-144.807460878943
31
0
0
LINE
8
layer0
10
1451.79951887484
20
-181.807460878943
30
0
11
1450.03175192188
21
-184.606656808626
31
0
0
LINE
8
layer0
10
1450.03175192188
20
-184.606656808626
30
0
11
1449.29951887484
21
-188.302651407326
31
0
0
LINE
8
layer0
10
1449.29951887484
20
-188.302651407326
30
0
11
1450.03175192188
21
-190.730381165584
31
0
0
LINE
8
layer0
10
1450.03175192188
20
-190.730381165584
30
0
11
1451.79951887484
21
-190.467714916788
31
0
0
LINE
8
layer0
10
1451.79951887484
20
-190.467714916788
30
0
11
1453.56728582781
21
-187.668518987105
31
0
0
LINE
8
layer0
10
1453.56728582781
20
-187.668518987105
30
0
11
1454.29951887484
21
-183.972524388404
31
0
0
LINE
8
layer0
10
1454.29951887484
20
-183.972524388404
30
0
11
1453.56728582781
21
-181.544794630147
31
0
0
LINE
8
layer0
10
1453.56728582781
20
-181.544794630147
30
0
11
1451.79951887484
21
-181.807460878943
31
0
0
LINE
8
layer0
10
1321.85999216178
20
-147.606656808626
30
0
11
1323.62775911474
21
-144.807460878943
31
0
0
LINE
8
layer0
10
1323.62775911474
20
-144.807460878943
30
0
11
1325.39552606771
21
-144.544794630147
31
0
0
LINE
8
layer0
10
1325.39552606771
20
-144.544794630147
30
0
11
1326.12775911474
21
-146.972524388404
31
0
0
LINE
8
layer0
10
1326.12775911474
20
-146.972524388404
30
0
11
1325.39552606771
21
-150.668518987105
31
0
0
LINE
8
layer0
10
1325.39552606771
20
-150.668518987105
30
0
11
1323.62775911474
21
-153.467714916788
31
0
0
LINE
8
layer0
10
1323.62775911474
20
-153.467714916788
30
0
11
1321.85999216178
21
-153.730381165584
31
0
0
LINE
8
layer0
10
1321.85999216178
20
-153.730381165584
30
0
11
1321.12775911474
21
-151.302651407326
31
0
0
LINE
8
layer0
10
1321.12775911474
20
-151.302651407326
30
0
11
1321.85999216178
21
-147.606656808626
31
0
0
ENDBLK
0
BLOCK
8
layer0
2
PF_OBJECT28
70
0
10
0
20
0
30
0
0
LINE
8
layer0
10
1350.94826719043
20
-149.807460878943
30
0
11
1333.62775911474
21
-144.807460878943
31
0
0
LINE
8
layer0
10
1333.62775911474
20
-144.807460878943
30
0
11
1333.62775911474
21
-136.147206841099
31
0
0
LINE
8
layer0
10
1333.62775911474
20
-136.147206841099
30
0
11
1350.94826719043
21
-141.147206841099
31
0
0
LINE
8
layer0
10
1350.94826719043
20
-141.147206841099
30
0
11
1350.94826719043
21
-149.807460878943
31
0
0
LINE
8
layer0
10
1323.62775911474
20
-153.467714916788
30
0
11
1340.94826719043
21
-158.467714916788
31
0
0
LINE
8
layer0
10
1340.94826719043
20
-158.467714916788
30
0
11
1340.94826719043
21
-149.807460878943
31
0
0
LINE
8
layer0
10
1340.94826719043
20
-149.807460878943
30
0
11
1323.62775911474
21
-144.807460878943
31
0
0
LINE
8
layer0
10
1323.62775911474
20
-144.807460878943
30
0
11
1323.62775911474
21
-153.467714916788
31
0
0
LINE
8
layer0
10
1333.62775911474
20
-144.807460878943
30
0
11
1323.62775911474
21
-153.467714916788
31
0
0
LINE
8
layer0
10
1323.62775911474
20
-153.467714916788
30
0
11
1323.62775911474
21
-144.807460878943
31
0
0
LINE
8
layer0
10
1323.62775911474
20
-144.807460878943
30
0
11
1333.62775911474
21
-136.147206841099
31
0
0
LINE
8
layer0
10
1333.62775911474
20
-136.147206841099
30
0
11
1333.62775911474
21
-144.807460878943
31
0
0
LINE
8
layer0
10
1340.94826719043
20
-158.467714916788
30
0
11
1350.94826719043
21
-149.807460878943
31
0
0
LINE
8
layer0
10
1350.94826719043
20
-149.807460878943
30
0
11
1350.94826719043
21
-141.147206841099
31
0
0
LINE
8
layer0
10
1350.94826719043
20
-141.147206841099
30
0
11
1340.94826719043
21
-149.807460878943
31
0
0
LINE
8
layer0
10
1340.94826719043
20
-149.807460878943
30
0
11
1340.94826719043
21
-158.467714916788
31
0
0
LINE
8
layer0
10
1350.94826719043
20
-141.147206841099
30
0
11
1333.62775911474
21
-136.147206841099
31
0
0
LINE
8
layer0
10
1333.62775911474
20
-136.147206841099
30
0
11
1323.62775911474
21
-144.807460878943
31
0
0
LINE
8
layer0
10
1323.62775911474
20
-144.807460878943
30
0
11
1340.94826719043
21
-149.807460878943
31
0
0
LINE
8
layer0
10
1340.94826719043
20
-149.807460878943
30
0
11
1350.94826719043
21
-141.147206841099
31
0
0
LINE
8
layer0
10
1333.62775911474
20
-144.807460878943
30
0
11
1350.94826719043
21
-149.807460878943
31
0
0
LINE
8
layer0
10
1350.94826719043
20
-149.807460878943
30
0
11
1340.94826719043
21
-158.467714916788
31
0
0
LINE
8
layer0
10
1340.94826719043
20
-158.467714916788
30
0
11
1323.62775911474
21
-153.467714916788
31
0
0
LINE
8
layer0
10
1323.62775911474
20
-153.467714916788
30
0
11
1333.62775911474
21
-144.807460878943
31
0
0
ENDBLK
0
BLOCK
8
layer0
2
PF_OBJECT29
70
0
10
0
20
0
30
0
0
LINE
8
layer0
10
1461.79951887484
20
-181.807460878943
30
0
11
1444.47901079915
21
-176.807460878943
31
0
0
LINE
8
layer0
10
1444.47901079915
20
-176.807460878943
30
0
11
1444.47901079915
21
-168.147206841099
31
0
0
LINE
8
layer0
10
1444.47901079915
20
-168.147206841099
30
0
11
1461.79951887484
21
-173.147206841099
31
0
0
LINE
8
layer0
10
1461.79951887484
20
-173.147206841099
30
0
11
1461.79951887484
21
-181.807460878943
31
0
0
LINE
8
layer0
10
1434.47901079915
20
-185.467714916788
30
0
11
1451.79951887484
21
-190.467714916788
31
0
0
LINE
8
layer0
10
1451.79951887484
20
-190.467714916788
30
0
11
1451.79951887484
21
-181.807460878943
31
0
0
LINE
8
layer0
10
1451.79951887484
20
-181.807460878943
30
0
11
1434.47901079915
21
-176.807460878943
31
0
0
LINE
8
layer0
10
1434.47901079915
20
-176.807460878943
30
0
11
1434.47901079915
21
-185.467714916788
31
0
0
LINE
8
layer0
10
1444.47901079915
20
-176.807460878943
30
0
11
1434.47901079915
21
-185.467714916788
31
0
0
LINE
8
layer0
10
1434.47901079915
20
-185.467714916788
30
0
11
1434.47901079915
21
-176.807460878943
31
0
0
LINE
8
layer0
10
1434.47901079915
20
-176.807460878943
30
0
11
1444.47901079915
21
-168.147206841099
31
0
0
LINE
8
layer0
10
1444.47901079915
20
-168.147206841099
30
0
11
1444.47901079915
21
-176.807460878943
31
0
0
LINE
8
layer0
10
1451.79951887484
20
-190.467714916788
30
0
11
1461.79951887484
21
-181.807460878943
31
0
0
LINE
8
layer0
10
1461.79951887484
20
-181.807460878943
30
0
11
1461.79951887484
21
-173.147206841099
31
0
0
LINE
8
layer0
10
1461.79951887484
20
-173.147206841099
30
0
11
1451.79951887484
21
-181.807460878943
31
0
0
LINE
8
layer0
10
1451.79951887484
20
-181.807460878943
30
0
11
1451.79951887484
21
-190.467714916788
31
0
0
LINE
8
layer0
10
1461.79951887484
20
-173.147206841099
30
0
11
1444.47901079915
21
-168.147206841099
31
0
0
LINE
8
layer0
10
1444.47901079915
20
-168.147206841099
30
0
11
1434.47901079915
21
-176.807460878943
31
0
0
LINE
8
layer0
10
1434.47901079915
20
-176.807460878943
30
0
11
1451.79951887484
21
-181.807460878943
31
0
0
LINE
8
layer0
10
1451.79951887484
20
-181.807460878943
30
0
11
1461.79951887484
21
-173.147206841099
31
0
0
LINE
8
layer0
10
1444.47901079915
20
-176.807460878943
30
0
11
1461.79951887484
21
-181.807460878943
31
0
0
LINE
8
layer0
10
1461.79951887484
20
-181.807460878943
30
0
11
1451.79951887484
21
-190.467714916788
31
0
0
LINE
8
layer0
10
1451.79951887484
20
-190.467714916788
30
0
11
1434.47901079915
21
-185.467714916788
31
0
0
LINE
8
layer0
10
1434.47901079915
20
-185.467714916788
30
0
11
1444.47901079915
21
-176.807460878943
31
0
0
ENDBLK
0
BLOCK
8
layer0
2
PF_OBJECT30
70
0
10
0
20
0
30
0
0
LINE
8
layer0
10
1834.66416306052
20
-725.632340597654
30
0
11
1320.24507321256
21
-577.132340597654
31
0
0
LINE
8
layer0
10
1320.24507321256
20
-577.132340597654
30
0
11
1320.24507321256
21
-87.8279874594458
31
0
0
LINE
8
layer0
10
1320.24507321256
20
-87.8279874594458
30
0
11
1834.66416306052
21
-236.327987459446
31
0
0
LINE
8
layer0
10
1834.66416306052
20
-236.327987459446
30
0
11
1834.66416306052
21
-725.632340597654
31
0
0
LINE
8
layer0
10
1310.24507321256
20
-585.792594635498
30
0
11
1824.66416306052
21
-734.292594635498
31
0
0
LINE
8
layer0
10
1824.66416306052
20
-734.292594635498
30
0
11
1824.66416306052
21
-244.98824149729
31
0
0
LINE
8
layer0
10
1824.66416306052
20
-244.98824149729
30
0
11
1310.24507321256
21
-96.4882414972902
31
0
0
LINE
8
layer0
10
1310.24507321256
20
-96.4882414972902
30
0
11
1310.24507321256
21
-585.792594635498
31
0
0
LINE
8
layer0
10
1320.24507321256
20
-577.132340597654
30
0
11
1310.24507321256
21
-585.792594635498
31
0
0
LINE
8
layer0
10
1310.24507321256
20
-585.792594635498
30
0
11
1310.24507321256
21
-96.4882414972902
31
0
0
LINE
8
layer0
10
1310.24507321256
20
-96.4882414972902
30
0
11
1320.24507321256
21
-87.8279874594458
31
0
0
LINE
8
layer0
10
1320.24507321256
20
-87.8279874594458
30
0
11
1320.24507321256
21
-577.132340597654
31
0
0
LINE
8
layer0
10
1824.66416306052
20
-734.292594635498
30
0
11
1834.66416306052
21
-725.632340597654
31
0
0
LINE
8
layer0
10
1834.66416306052
20
-725.632340597654
30
0
11
1834.66416306052
21
-236.327987459446
31
0
0
LINE
8
layer0
10
1834.66416306052
20
-236.327987459446
30
0
11
1824.66416306052
21
-244.98824149729
31
0
0
LINE
8
layer0
10
1824.66416306052
20
-244.98824149729
30
0
11
1824.66416306052
21
-734.292594635498
31
0
0
LINE
8
layer0
10
1834.66416306052
20
-236.327987459446
30
0
11
1320.24507321256
21
-87.8279874594458
31
0
0
LINE
8
layer0
10
1320.24507321256
20
-87.8279874594458
30
0
11
1310.24507321256
21
-96.4882414972902
31
0
0
LINE
8
layer0
10
1310.24507321256
20
-96.4882414972902
30
0
11
1824.66416306052
21
-244.98824149729
31
0
0
LINE
8
layer0
10
1824.66416306052
20
-244.98824149729
30
0
11
1834.66416306052
21
-236.327987459446
31
0
0
LINE
8
layer0
10
1320.24507321256
20
-577.132340597654
30
0
11
1834.66416306052
21
-725.632340597654
31
0
0
LINE
8
layer0
10
1834.66416306052
20
-725.632340597654
30
0
11
1824.66416306052
21
-734.292594635498
31
0
0
LINE
8
layer0
10
1824.66416306052
20
-734.292594635498
30
0
11
1310.24507321256
21
-585.792594635498
31
0
0
LINE
8
layer0
10
1310.24507321256
20
-585.792594635498
30
0
11
1320.24507321256
21
-577.132340597654
31
0
0
ENDBLK
0
BLOCK
8
layer0
2
PF_OBJECT31
70
0
10
0
20
0
30
0
0
LINE
8
layer0
10
1492.53842899811
20
-68.9531618889722
30
0
11
1490.77066204514
21
-69.2158281377685
31
0
0
LINE
8
layer0
10
1490.77066204514
20
-69.2158281377685
30
0
11
1618.94242180524
21
-106.215828137769
31
0
0
LINE
8
layer0
10
1618.94242180524
20
-106.215828137769
30
0
11
1620.7101887582
21
-105.953161888972
31
0
0
LINE
8
layer0
10
1620.7101887582
20
-105.953161888972
30
0
11
1492.53842899811
21
-68.9531618889722
31
0
0
LINE
8
layer0
10
1493.27066204514
20
-71.3808916472295
30
0
11
1492.53842899811
21
-68.9531618889722
31
0
0
LINE
8
layer0
10
1492.53842899811
20
-68.9531618889722
30
0
11
1620.7101887582
21
-105.953161888972
31
0
0
LINE
8
layer0
10
1620.7101887582
20
-105.953161888972
30
0
11
1621.44242180524
21
-108.38089164723
31
0
0
LINE
8
layer0
10
1621.44242180524
20
-108.38089164723
30
0
11
1493.27066204514
21
-71.3808916472295
31
0
0
LINE
8
layer0
10
1492.53842899811
20
-75.0768862459302
30
0
11
1493.27066204514
21
-71.3808916472295
31
0
0
LINE
8
layer0
10
1493.27066204514
20
-71.3808916472295
30
0
11
1621.44242180524
21
-108.38089164723
31
0
0
LINE
8
layer0
10
1621.44242180524
20
-108.38089164723
30
0
11
1620.7101887582
21
-112.07688624593
31
0
0
LINE
8
layer0
10
1620.7101887582
20
-112.07688624593
30
0
11
1492.53842899811
21
-75.0768862459302
31
0
0
LINE
8
layer0
10
1490.77066204514
20
-77.8760821756129
30
0
11
1492.53842899811
21
-75.0768862459302
31
0
0
LINE
8
layer0
10
1492.53842899811
20
-75.0768862459302
30
0
11
1620.7101887582
21
-112.07688624593
31
0
0
LINE
8
layer0
10
1620.7101887582
20
-112.07688624593
30
0
11
1618.94242180524
21
-114.876082175613
31
0
0
LINE
8
layer0
10
1618.94242180524
20
-114.876082175613
30
0
11
1490.77066204514
21
-77.8760821756129
31
0
0
LINE
8
layer0
10
1489.00289509218
20
-78.1387484244091
30
0
11
1490.77066204514
21
-77.8760821756129
31
0
0
LINE
8
layer0
10
1490.77066204514
20
-77.8760821756129
30
0
11
1618.94242180524
21
-114.876082175613
31
0
0
LINE
8
layer0
10
1618.94242180524
20
-114.876082175613
30
0
11
1617.17465485227
21
-115.138748424409
31
0
0
LINE
8
layer0
10
1617.17465485227
20
-115.138748424409
30
0
11
1489.00289509218
21
-78.1387484244091
31
0
0
LINE
8
layer0
10
1488.27066204514
20
-75.7110186661517
30
0
11
1489.00289509218
21
-78.1387484244091
31
0
0
LINE
8
layer0
10
1489.00289509218
20
-78.1387484244091
30
0
11
1617.17465485227
21
-115.138748424409
31
0
0
LINE
8
layer0
10
1617.17465485227
20
-115.138748424409
30
0
11
1616.44242180524
21
-112.711018666152
31
0
0
LINE
8
layer0
10
1616.44242180524
20
-112.711018666152
30
0
11
1488.27066204514
21
-75.7110186661517
31
0
0
LINE
8
layer0
10
1489.00289509218
20
-72.0150240674512
30
0
11
1488.27066204514
21
-75.7110186661517
31
0
0
LINE
8
layer0
10
1488.27066204514
20
-75.7110186661517
30
0
11
1616.44242180524
21
-112.711018666152
31
0
0
LINE
8
layer0
10
1616.44242180524
20
-112.711018666152
30
0
11
1617.17465485227
21
-109.015024067451
31
0
0
LINE
8
layer0
10
1617.17465485227
20
-109.015024067451
30
0
11
1489.00289509218
21
-72.0150240674512
31
0
0
LINE
8
layer0
10
1490.77066204514
20
-69.2158281377685
30
0
11
1489.00289509218
21
-72.0150240674512
31
0
0
LINE
8
layer0
10
1489.00289509218
20
-72.0150240674512
30
0
11
1617.17465485227
21
-109.015024067451
31
0
0
LINE
8
layer0
10
1617.17465485227
20
-109.015024067451
30
0
11
1618.94242180524
21
-106.215828137769
31
0
0
LINE
8
layer0
10
1618.94242180524
20
-106.215828137769
30
0
11
1490.77066204514
21
-69.2158281377685
31
0
0
LINE
8
layer0
10
1618.94242180524
20
-106.215828137769
30
0
11
1617.17465485227
21
-109.015024067451
31
0
0
LINE
8
layer0
10
1617.17465485227
20
-109.015024067451
30
0
11
1616.44242180524
21
-112.711018666152
31
0
0
LINE
8
layer0
10
1616.44242180524
20
-112.711018666152
30
0
11
1617.17465485227
21
-115.138748424409
31
0
0
LINE
8
layer0
10
1617.17465485227
20
-115.138748424409
30
0
11
1618.94242180524
21
-114.876082175613
31
0
0
LINE
8
layer0
10
1618.94242180524
20
-114.876082175613
30
0
11
1620.7101887582
21
-112.07688624593
31
0
0
LINE
8
layer0
10
1620.7101887582
20
-112.07688624593
30
0
11
1621.44242180524
21
-108.38089164723
31
0
0
LINE
8
layer0
10
1621.44242180524
20
-108.38089164723
30
0
11
1620.7101887582
21
-105.953161888972
31
0
0
LINE
8
layer0
10
1620.7101887582
20
-105.953161888972
30
0
11
1618.94242180524
21
-106.215828137769
31
0
0
LINE
8
layer0
10
1489.00289509218
20
-72.0150240674512
30
0
11
1490.77066204514
21
-69.2158281377685
31
0
0
LINE
8
layer0
10
1490.77066204514
20
-69.2158281377685
30
0
11
1492.53842899811
21
-68.9531618889722
31
0
0
LINE
8
layer0
10
1492.53842899811
20
-68.9531618889722
30
0
11
1493.27066204514
21
-71.3808916472295
31
0
0
LINE
8
layer0
10
1493.27066204514
20
-71.3808916472295
30
0
11
1492.53842899811
21
-75.0768862459302
31
0
0
LINE
8
layer0
10
1492.53842899811
20
-75.0768862459302
30
0
11
1490.77066204514
21
-77.8760821756129
31
0
0
LINE
8
layer0
10
1490.77066204514
20
-77.8760821756129
30
0
11
1489.00289509218
21
-78.1387484244091
31
0
0
LINE
8
layer0
10
1489.00289509218
20
-78.1387484244091
30
0
11
1488.27066204514
21
-75.7110186661517
31
0
0
LINE
8
layer0
10
1488.27066204514
20
-75.7110186661517
30
0
11
1489.00289509218
21
-72.0150240674512
31
0
0
ENDBLK
0
BLOCK
8
layer0
2
PF_OBJECT32
70
0
10
0
20
0
30
0
0
LINE
8
layer0
10
1518.09117012083
20
-74.2158281377685
30
0
11
1500.77066204514
21
-69.2158281377685
31
0
0
LINE
8
layer0
10
1500.77066204514
20
-69.2158281377685
30
0
11
1500.77066204514
21
-60.5555740999242
31
0
0
LINE
8
layer0
10
1500.77066204514
20
-60.5555740999242
30
0
11
1518.09117012083
21
-65.5555740999242
31
0
0
LINE
8
layer0
10
1518.09117012083
20
-65.5555740999242
30
0
11
1518.09117012083
21
-74.2158281377685
31
0
0
LINE
8
layer0
10
1490.77066204514
20
-77.8760821756129
30
0
11
1508.09117012083
21
-82.8760821756129
31
0
0
LINE
8
layer0
10
1508.09117012083
20
-82.8760821756129
30
0
11
1508.09117012083
21
-74.2158281377685
31
0
0
LINE
8
layer0
10
1508.09117012083
20
-74.2158281377685
30
0
11
1490.77066204514
21
-69.2158281377685
31
0
0
LINE
8
layer0
10
1490.77066204514
20
-69.2158281377685
30
0
11
1490.77066204514
21
-77.8760821756129
31
0
0
LINE
8
layer0
10
1500.77066204514
20
-69.2158281377685
30
0
11
1490.77066204514
21
-77.8760821756129
31
0
0
LINE
8
layer0
10
1490.77066204514
20
-77.8760821756129
30
0
11
1490.77066204514
21
-69.2158281377685
31
0
0
LINE
8
layer0
10
1490.77066204514
20
-69.2158281377685
30
0
11
1500.77066204514
21
-60.5555740999242
31
0
0
LINE
8
layer0
10
1500.77066204514
20
-60.5555740999242
30
0
11
1500.77066204514
21
-69.2158281377685
31
0
0
LINE
8
layer0
10
1508.09117012083
20
-82.8760821756129
30
0
11
1518.09117012083
21
-74.2158281377685
31
0
0
LINE
8
layer0
10
1518.09117012083
20
-74.2158281377685
30
0
11
1518.09117012083
21
-65.5555740999242
31
0
0
LINE
8
layer0
10
1518.09117012083
20
-65.5555740999242
30
0
11
1508.09117012083
21
-74.2158281377685
31
0
0
LINE
8
layer0
10
1508.09117012083
20
-74.2158281377685
30
0
11
1508.09117012083
21
-82.8760821756129
31
0
0
LINE
8
layer0
10
1518.09117012083
20
-65.5555740999242
30
0
11
1500.77066204514
21
-60.5555740999242
31
0
0
LINE
8
layer0
10
1500.77066204514
20
-60.5555740999242
30
0
11
1490.77066204514
21
-69.2158281377685
31
0
0
LINE
8
layer0
10
1490.77066204514
20
-69.2158281377685
30
0
11
1508.09117012083
21
-74.2158281377685
31
0
0
LINE
8
layer0
10
1508.09117012083
20
-74.2158281377685
30
0
11
1518.09117012083
21
-65.5555740999242
31
0
0
LINE
8
layer0
10
1500.77066204514
20
-69.2158281377685
30
0
11
1518.09117012083
21
-74.2158281377685
31
0
0
LINE
8
layer0
10
1518.09117012083
20
-74.2158281377685
30
0
11
1508.09117012083
21
-82.8760821756129
31
0
0
LINE
8
layer0
10
1508.09117012083
20
-82.8760821756129
30
0
11
1490.77066204514
21
-77.8760821756129
31
0
0
LINE
8
layer0
10
1490.77066204514
20
-77.8760821756129
30
0
11
1500.77066204514
21
-69.2158281377685
31
0
0
ENDBLK
0
BLOCK
8
layer0
2
PF_OBJECT33
70
0
10
0
20
0
30
0
0
LINE
8
layer0
10
1628.94242180524
20
-106.215828137768
30
0
11
1611.62191372955
21
-101.215828137768
31
0
0
LINE
8
layer0
10
1611.62191372955
20
-101.215828137768
30
0
11
1611.62191372955
21
-92.5555740999242
31
0
0
LINE
8
layer0
10
1611.62191372955
20
-92.5555740999242
30
0
11
1628.94242180524
21
-97.5555740999242
31
0
0
LINE
8
layer0
10
1628.94242180524
20
-97.5555740999242
30
0
11
1628.94242180524
21
-106.215828137768
31
0
0
LINE
8
layer0
10
1601.62191372955
20
-109.876082175613
30
0
11
1618.94242180524
21
-114.876082175613
31
0
0
LINE
8
layer0
10
1618.94242180524
20
-114.876082175613
30
0
11
1618.94242180524
21
-106.215828137769
31
0
0
LINE
8
layer0
10
1618.94242180524
20
-106.215828137769
30
0
11
1601.62191372955
21
-101.215828137769
31
0
0
LINE
8
layer0
10
1601.62191372955
20
-101.215828137769
30
0
11
1601.62191372955
21
-109.876082175613
31
0
0
LINE
8
layer0
10
1611.62191372955
20
-101.215828137768
30
0
11
1601.62191372955
21
-109.876082175613
31
0
0
LINE
8
layer0
10
1601.62191372955
20
-109.876082175613
30
0
11
1601.62191372955
21
-101.215828137769
31
0
0
LINE
8
layer0
10
1601.62191372955
20
-101.215828137769
30
0
11
1611.62191372955
21
-92.5555740999242
31
0
0
LINE
8
layer0
10
1611.62191372955
20
-92.5555740999242
30
0
11
1611.62191372955
21
-101.215828137768
31
0
0
LINE
8
layer0
10
1618.94242180524
20
-114.876082175613
30
0
11
1628.94242180524
21
-106.215828137768
31
0
0
LINE
8
layer0
10
1628.94242180524
20
-106.215828137768
30
0
11
1628.94242180524
21
-97.5555740999242
31
0
0
LINE
8
layer0
10
1628.94242180524
20
-97.5555740999242
30
0
11
1618.94242180524
21
-106.215828137769
31
0
0
LINE
8
layer0
10
1618.94242180524
20
-106.215828137769
30
0
11
1618.94242180524
21
-114.876082175613
31
0
0
LINE
8
layer0
10
1628.94242180524
20
-97.5555740999242
30
0
11
1611.62191372955
21
-92.5555740999242
31
0
0
LINE
8
layer0
10
1611.62191372955
20
-92.5555740999242
30
0
11
1601.62191372955
21
-101.215828137769
31
0
0
LINE
8
layer0
10
1601.62191372955
20
-101.215828137769
30
0
11
1618.94242180524
21
-106.215828137769
31
0
0
LINE
8
layer0
10
1618.94242180524
20
-106.215828137769
30
0
11
1628.94242180524
21
-97.5555740999242
31
0
0
LINE
8
layer0
10
1611.62191372955
20
-101.215828137768
30
0
11
1628.94242180524
21
-106.215828137768
31
0
0
LINE
8
layer0
10
1628.94242180524
20
-106.215828137768
30
0
11
1618.94242180524
21
-114.876082175613
31
0
0
LINE
8
layer0
10
1618.94242180524
20
-114.876082175613
30
0
11
1601.62191372955
21
-109.876082175613
31
0
0
LINE
8
layer0
10
1601.62191372955
20
-109.876082175613
30
0
11
1611.62191372955
21
-101.215828137768
31
0
0
ENDBLK
0
BLOCK
8
layer0
2
PF_OBJECT34
70
0
10
0
20
0
30
0
0
LINE
8
layer0
10
1834.66416306052
20
-231.131835036739
30
0
11
1320.24507321256
21
-82.6318350367391
31
0
0
LINE
8
layer0
10
1320.24507321256
20
-82.6318350367391
30
0
11
1320.24507321256
21
36.013645281729
31
0
0
LINE
8
layer0
10
1320.24507321256
20
36.013645281729
30
0
11
1834.66416306052
21
-112.486354718271
31
0
0
LINE
8
layer0
10
1834.66416306052
20
-112.486354718271
30
0
11
1834.66416306052
21
-231.131835036739
31
0
0
LINE
8
layer0
10
1310.24507321256
20
-91.2920890745835
30
0
11
1824.66416306052
21
-239.792089074584
31
0
0
LINE
8
layer0
10
1824.66416306052
20
-239.792089074584
30
0
11
1824.66416306052
21
-121.146608756115
31
0
0
LINE
8
layer0
10
1824.66416306052
20
-121.146608756115
30
0
11
1310.24507321256
21
27.3533912438846
31
0
0
LINE
8
layer0
10
1310.24507321256
20
27.3533912438846
30
0
11
1310.24507321256
21
-91.2920890745835
31
0
0
LINE
8
layer0
10
1320.24507321256
20
-82.6318350367391
30
0
11
1310.24507321256
21
-91.2920890745835
31
0
0
LINE
8
layer0
10
1310.24507321256
20
-91.2920890745835
30
0
11
1310.24507321256
21
27.3533912438846
31
0
0
LINE
8
layer0
10
1310.24507321256
20
27.3533912438846
30
0
11
1320.24507321256
21
36.013645281729
31
0
0
LINE
8
layer0
10
1320.24507321256
20
36.013645281729
30
0
11
1320.24507321256
21
-82.6318350367391
31
0
0
LINE
8
layer0
10
1824.66416306052
20
-239.792089074584
30
0
11
1834.66416306052
21
-231.131835036739
31
0
0
LINE
8
layer0
10
1834.66416306052
20
-231.131835036739
30
0
11
1834.66416306052
21
-112.486354718271
31
0
0
LINE
8
layer0
10
1834.66416306052
20
-112.486354718271
30
0
11
1824.66416306052
21
-121.146608756115
31
0
0
LINE
8
layer0
10
1824.66416306052
20
-121.146608756115
30
0
11
1824.66416306052
21
-239.792089074584
31
0
0
LINE
8
layer0
10
1834.66416306052
20
-112.486354718271
30
0
11
1320.24507321256
21
36.013645281729
31
0
0
LINE
8
layer0
10
1320.24507321256
20
36.013645281729
30
0
11
1310.24507321256
21
27.3533912438846
31
0
0
LINE
8
layer0
10
1310.24507321256
20
27.3533912438846
30
0
11
1824.66416306052
21
-121.146608756115
31
0
0
LINE
8
layer0
10
1824.66416306052
20
-121.146608756115
30
0
11
1834.66416306052
21
-112.486354718271
31
0
0
LINE
8
layer0
10
1320.24507321256
20
-82.6318350367391
30
0
11
1834.66416306052
21
-231.131835036739
31
0
0
LINE
8
layer0
10
1834.66416306052
20
-231.131835036739
30
0
11
1824.66416306052
21
-239.792089074584
31
0
0
LINE
8
layer0
10
1824.66416306052
20
-239.792089074584
30
0
11
1310.24507321256
21
-91.2920890745835
31
0
0
LINE
8
layer0
10
1310.24507321256
20
-91.2920890745835
30
0
11
1320.24507321256
21
-82.6318350367391
31
0
0
ENDBLK
0
BLOCK
8
layer0
2
PF_OBJECT35
70
0
10
0
20
0
30
0
0
LINE
8
layer0
10
2049.11160417726
20
-17.3527254265816
30
0
11
1572.79763209582
21
120.147274573418
31
0
0
LINE
8
layer0
10
1572.79763209582
20
120.147274573418
30
0
11
1572.79763209582
21
206.749814951862
31
0
0
LINE
8
layer0
10
1572.79763209582
20
206.749814951862
30
0
11
2049.11160417726
21
69.2498149518622
31
0
0
LINE
8
layer0
10
2049.11160417726
20
69.2498149518622
30
0
11
2049.11160417726
21
-17.3527254265816
31
0
0
LINE
8
layer0
10
1339.79763209582
20
-81.6366445083559
30
0
11
1348.45788613367
21
-84.1366445083559
31
0
0
LINE
8
layer0
10
1348.45788613367
20
-84.1366445083559
30
0
11
1348.45788613367
21
2.46589587008805
31
0
0
LINE
8
layer0
10
1348.45788613367
20
2.46589587008805
30
0
11
1339.79763209582
21
4.96589587008805
31
0
0
LINE
8
layer0
10
1339.79763209582
20
4.96589587008805
30
0
11
1339.79763209582
21
-81.6366445083559
31
0
0
LINE
8
layer0
10
1807.45135013942
20
-130.034104129912
30
0
11
1807.45135013942
21
-216.636644508356
31
0
0
LINE
8
layer0
10
1807.45135013942
20
-216.636644508356
30
0
11
1816.11160417726
21
-219.136644508356
31
0
0
LINE
8
layer0
10
1816.11160417726
20
-219.136644508356
30
0
11
1816.11160417726
21
-132.534104129912
31
0
0
LINE
8
layer0
10
1816.11160417726
20
-132.534104129912
30
0
11
1807.45135013942
21
-130.034104129912
31
0
0
LINE
8
layer0
10
1807.45135013942
20
-207.976390470511
30
0
11
1348.45788613367
21
-75.4763904705114
31
0
0
LINE
8
layer0
10
1348.45788613367
20
-75.4763904705114
30
0
11
1348.45788613367
21
-84.1366445083559
31
0
0
LINE
8
layer0
10
1348.45788613367
20
-84.1366445083559
30
0
11
1807.45135013942
21
-216.636644508356
31
0
0
LINE
8
layer0
10
1807.45135013942
20
-216.636644508356
30
0
11
1807.45135013942
21
-207.976390470511
31
0
0
LINE
8
layer0
10
1572.79763209582
20
120.147274573418
30
0
11
1567.79763209582
21
115.817147554496
31
0
0
LINE
8
layer0
10
1567.79763209582
20
115.817147554496
30
0
11
1567.79763209582
21
202.41968793294
31
0
0
LINE
8
layer0
10
1567.79763209582
20
202.41968793294
30
0
11
1572.79763209582
21
206.749814951862
31
0
0
LINE
8
layer0
10
1572.79763209582
20
206.749814951862
30
0
11
1572.79763209582
21
120.147274573418
31
0
0
LINE
8
layer0
10
1567.79763209582
20
202.41968793294
30
0
11
1567.79763209582
21
115.817147554496
31
0
0
LINE
8
layer0
10
1567.79763209582
20
115.817147554496
30
0
11
1339.79763209582
21
-81.6366445083559
31
0
0
LINE
8
layer0
10
1339.79763209582
20
-81.6366445083559
30
0
11
1339.79763209582
21
4.96589587008805
31
0
0
LINE
8
layer0
10
1339.79763209582
20
4.96589587008805
30
0
11
1567.79763209582
21
202.41968793294
31
0
0
LINE
8
layer0
10
2044.11160417726
20
64.9196879329401
30
0
11
2044.11160417726
21
-21.6828524455038
31
0
0
LINE
8
layer0
10
2044.11160417726
20
-21.6828524455038
30
0
11
2049.11160417726
21
-17.3527254265816
31
0
0
LINE
8
layer0
10
2049.11160417726
20
-17.3527254265816
30
0
11
2049.11160417726
21
69.2498149518622
31
0
0
LINE
8
layer0
10
2049.11160417726
20
69.2498149518622
30
0
11
2044.11160417726
21
64.9196879329401
31
0
0
LINE
8
layer0
10
1816.11160417726
20
-219.136644508356
30
0
11
2044.11160417726
21
-21.6828524455038
31
0
0
LINE
8
layer0
10
2044.11160417726
20
-21.6828524455038
30
0
11
2044.11160417726
21
64.9196879329401
31
0
0
LINE
8
layer0
10
2044.11160417726
20
64.9196879329401
30
0
11
1816.11160417726
21
-132.534104129912
31
0
0
LINE
8
layer0
10
1816.11160417726
20
-132.534104129912
30
0
11
1816.11160417726
21
-219.136644508356
31
0
0
LINE
8
layer0
10
1572.79763209582
20
120.147274573418
30
0
11
2049.11160417726
21
-17.3527254265816
31
0
0
LINE
8
layer0
10
2049.11160417726
20
-17.3527254265816
30
0
11
2044.11160417726
21
-21.6828524455038
31
0
0
LINE
8
layer0
10
2044.11160417726
20
-21.6828524455038
30
0
11
1567.79763209582
21
115.817147554496
31
0
0
LINE
8
layer0
10
1567.79763209582
20
115.817147554496
30
0
11
1572.79763209582
21
120.147274573418
31
0
0
LINE
8
layer0
10
1567.79763209582
20
115.817147554496
30
0
11
1576.45788613367
21
113.317147554496
31
0
0
LINE
8
layer0
10
1576.45788613367
20
113.317147554496
30
0
11
1348.45788613367
21
-84.1366445083559
31
0
0
LINE
8
layer0
10
1348.45788613367
20
-84.1366445083559
30
0
11
1339.79763209582
21
-81.6366445083559
31
0
0
LINE
8
layer0
10
1339.79763209582
20
-81.6366445083559
30
0
11
1567.79763209582
21
115.817147554496
31
0
0
LINE
8
layer0
10
1807.45135013942
20
-216.636644508356
30
0
11
2035.45135013942
21
-19.1828524455038
31
0
0
LINE
8
layer0
10
2035.45135013942
20
-19.1828524455038
30
0
11
2044.11160417726
21
-21.6828524455038
31
0
0
LINE
8
layer0
10
2044.11160417726
20
-21.6828524455038
30
0
11
1816.11160417726
21
-219.136644508356
31
0
0
LINE
8
layer0
10
1816.11160417726
20
-219.136644508356
30
0
11
1807.45135013942
21
-216.636644508356
31
0
0
LINE
8
layer0
10
1348.45788613367
20
-84.1366445083559
30
0
11
1576.45788613367
21
113.317147554496
31
0
0
LINE
8
layer0
10
1576.45788613367
20
113.317147554496
30
0
11
2035.45135013942
21
-19.1828524455038
31
0
0
LINE
8
layer0
10
2035.45135013942
20
-19.1828524455038
30
0
11
1807.45135013942
21
-216.636644508356
31
0
0
LINE
8
layer0
10
1807.45135013942
20
-216.636644508356
30
0
11
1348.45788613367
21
-84.1366445083559
31
0
0
LINE
8
layer0
10
1576.45788613367
20
121.977401592341
30
0
11
2035.45135013942
21
-10.5225984076594
31
0
0
LINE
8
layer0
10
2035.45135013942
20
-10.5225984076594
30
0
11
2035.45135013942
21
67.4196879329401
31
0
0
LINE
8
layer0
10
2035.45135013942
20
67.4196879329401
30
0
11
1576.45788613367
21
199.91968793294
31
0
0
LINE
8
layer0
10
1576.45788613367
20
199.91968793294
30
0
11
1576.45788613367
21
121.977401592341
31
0
0
LINE
8
layer0
10
1576.45788613367
20
199.91968793294
30
0
11
1348.45788613367
21
2.46589587008805
31
0
0
LINE
8
layer0
10
1348.45788613367
20
2.46589587008805
30
0
11
1348.45788613367
21
-75.4763904705114
31
0
0
LINE
8
layer0
10
1348.45788613367
20
-75.4763904705114
30
0
11
1576.45788613367
21
121.977401592341
31
0
0
LINE
8
layer0
10
1576.45788613367
20
121.977401592341
30
0
11
1576.45788613367
21
199.91968793294
31
0
0
LINE
8
layer0
10
2035.45135013942
20
-10.5225984076594
30
0
11
1807.45135013942
21
-207.976390470511
31
0
0
LINE
8
layer0
10
1807.45135013942
20
-207.976390470511
30
0
11
1807.45135013942
21
-130.034104129912
31
0
0
LINE
8
layer0
10
1807.45135013942
20
-130.034104129912
30
0
11
2035.45135013942
21
67.4196879329401
31
0
0
LINE
8
layer0
10
2035.45135013942
20
67.4196879329401
30
0
11
2035.45135013942
21
-10.5225984076594
31
0
0
LINE
8
layer0
10
2035.45135013942
20
-10.5225984076594
30
0
11
1576.45788613367
21
121.977401592341
31
0
0
LINE
8
layer0
10
1576.45788613367
20
121.977401592341
30
0
11
1348.45788613367
21
-75.4763904705114
31
0
0
LINE
8
layer0
10
1348.45788613367
20
-75.4763904705114
30
0
11
1807.45135013942
21
-207.976390470511
31
0
0
LINE
8
layer0
10
1807.45135013942
20
-207.976390470511
30
0
11
2035.45135013942
21
-10.5225984076594
31
0
0
LINE
8
layer0
10
2049.11160417726
20
69.2498149518622
30
0
11
1572.79763209582
21
206.749814951862
31
0
0
LINE
8
layer0
10
1572.79763209582
20
206.749814951862
30
0
11
1567.79763209582
21
202.41968793294
31
0
0
LINE
8
layer0
10
1567.79763209582
20
202.41968793294
30
0
11
2044.11160417726
21
64.9196879329401
31
0
0
LINE
8
layer0
10
2044.11160417726
20
64.9196879329401
30
0
11
2049.11160417726
21
69.2498149518622
31
0
0
LINE
8
layer0
10
1348.45788613367
20
2.46589587008805
30
0
11
1576.45788613367
21
199.91968793294
31
0
0
LINE
8
layer0
10
1576.45788613367
20
199.91968793294
30
0
11
1567.79763209582
21
202.41968793294
31
0
0
LINE
8
layer0
10
1567.79763209582
20
202.41968793294
30
0
11
1339.79763209582
21
4.96589587008805
31
0
0
LINE
8
layer0
10
1339.79763209582
20
4.96589587008805
30
0
11
1348.45788613367
21
2.46589587008805
31
0
0
LINE
8
layer0
10
2044.11160417726
20
64.9196879329401
30
0
11
2035.45135013942
21
67.4196879329401
31
0
0
LINE
8
layer0
10
2035.45135013942
20
67.4196879329401
30
0
11
1807.45135013942
21
-130.034104129912
31
0
0
LINE
8
layer0
10
1807.45135013942
20
-130.034104129912
30
0
11
1816.11160417726
21
-132.534104129912
31
0
0
LINE
8
layer0
10
1816.11160417726
20
-132.534104129912
30
0
11
2044.11160417726
21
64.9196879329401
31
0
0
ENDBLK
0
BLOCK
8
layer0
2
PF_OBJECT36
70
0
10
0
20
0
30
0
0
LINE
8
layer0
10
1630.08928334181
20
-528.301270189222
30
0
11
1595.44826719043
21
-518.301270189222
31
0
0
LINE
8
layer0
10
1595.44826719043
20
-518.301270189222
30
0
11
1595.44826719043
21
-388.397459621556
31
0
0
LINE
8
layer0
10
1595.44826719043
20
-388.397459621556
30
0
11
1630.08928334181
21
-398.397459621556
31
0
0
LINE
8
layer0
10
1630.08928334181
20
-398.397459621556
30
0
11
1630.08928334181
21
-528.301270189222
31
0
0
LINE
8
layer0
10
1575.44826719043
20
-535.621778264911
30
0
11
1610.08928334181
21
-545.621778264911
31
0
0
LINE
8
layer0
10
1610.08928334181
20
-545.621778264911
30
0
11
1610.08928334181
21
-415.717967697245
31
0
0
LINE
8
layer0
10
1610.08928334181
20
-415.717967697245
30
0
11
1575.44826719043
21
-405.717967697245
31
0
0
LINE
8
layer0
10
1575.44826719043
20
-405.717967697245
30
0
11
1575.44826719043
21
-535.621778264911
31
0
0
LINE
8
layer0
10
1595.44826719043
20
-518.301270189222
30
0
11
1575.44826719043
21
-535.621778264911
31
0
0
LINE
8
layer0
10
1575.44826719043
20
-535.621778264911
30
0
11
1575.44826719043
21
-405.717967697245
31
0
0
LINE
8
layer0
10
1575.44826719043
20
-405.717967697245
30
0
11
1595.44826719043
21
-388.397459621556
31
0
0
LINE
8
layer0
10
1595.44826719043
20
-388.397459621556
30
0
11
1595.44826719043
21
-518.301270189222
31
0
0
LINE
8
layer0
10
1610.08928334181
20
-545.621778264911
30
0
11
1630.08928334181
21
-528.301270189222
31
0
0
LINE
8
layer0
10
1630.08928334181
20
-528.301270189222
30
0
11
1630.08928334181
21
-398.397459621556
31
0
0
LINE
8
layer0
10
1630.08928334181
20
-398.397459621556
30
0
11
1610.08928334181
21
-415.717967697245
31
0
0
LINE
8
layer0
10
1610.08928334181
20
-415.717967697245
30
0
11
1610.08928334181
21
-545.621778264911
31
0
0
LINE
8
layer0
10
1630.08928334181
20
-398.397459621556
30
0
11
1595.44826719043
21
-388.397459621556
31
0
0
LINE
8
layer0
10
1595.44826719043
20
-388.397459621556
30
0
11
1575.44826719043
21
-405.717967697245
31
0
0
LINE
8
layer0
10
1575.44826719043
20
-405.717967697245
30
0
11
1610.08928334181
21
-415.717967697245
31
0
0
LINE
8
layer0
10
1610.08928334181
20
-415.717967697245
30
0
11
1630.08928334181
21
-398.397459621556
31
0
0
LINE
8
layer0
10
1595.44826719043
20
-518.301270189222
30
0
11
1630.08928334181
21
-528.301270189222
31
0
0
LINE
8
layer0
10
1630.08928334181
20
-528.301270189222
30
0
11
1610.08928334181
21
-545.621778264911
31
0
0
LINE
8
layer0
10
1610.08928334181
20
-545.621778264911
30
0
11
1575.44826719043
21
-535.621778264911
31
0
0
LINE
8
layer0
10
1575.44826719043
20
-535.621778264911
30
0
11
1595.44826719043
21
-518.301270189222
31
0
0
ENDBLK
0
BLOCK
8
layer0
2
PF_OBJECT37
70
0
10
0
20
0
30
0
0
LINE
8
layer0
10
1472.08928334181
20
-665.133283987163
30
0
11
1437.44826719043
21
-655.133283987163
31
0
0
LINE
8
layer0
10
1437.44826719043
20
-655.133283987163
30
0
11
1437.44826719043
21
-525.229473419497
31
0
0
LINE
8
layer0
10
1437.44826719043
20
-525.229473419497
30
0
11
1472.08928334181
21
-535.229473419497
31
0
0
LINE
8
layer0
10
1472.08928334181
20
-535.229473419497
30
0
11
1472.08928334181
21
-665.133283987163
31
0
0
LINE
8
layer0
10
1417.44826719043
20
-672.453792062852
30
0
11
1452.08928334181
21
-682.453792062852
31
0
0
LINE
8
layer0
10
1452.08928334181
20
-682.453792062852
30
0
11
1452.08928334181
21
-552.549981495186
31
0
0
LINE
8
layer0
10
1452.08928334181
20
-552.549981495186
30
0
11
1417.44826719043
21
-542.549981495186
31
0
0
LINE
8
layer0
10
1417.44826719043
20
-542.549981495186
30
0
11
1417.44826719043
21
-672.453792062852
31
0
0
LINE
8
layer0
10
1437.44826719043
20
-655.133283987163
30
0
11
1417.44826719043
21
-672.453792062852
31
0
0
LINE
8
layer0
10
1417.44826719043
20
-672.453792062852
30
0
11
1417.44826719043
21
-542.549981495186
31
0
0
LINE
8
layer0
10
1417.44826719043
20
-542.549981495186
30
0
11
1437.44826719043
21
-525.229473419497
31
0
0
LINE
8
layer0
10
1437.44826719043
20
-525.229473419497
30
0
11
1437.44826719043
21
-655.133283987163
31
0
0
LINE
8
layer0
10
1452.08928334181
20
-682.453792062852
30
0
11
1472.08928334181
21
-665.133283987163
31
0
0
LINE
8
layer0
10
1472.08928334181
20
-665.133283987163
30
0
11
1472.08928334181
21
-535.229473419497
31
0
0
LINE
8
layer0
10
1472.08928334181
20
-535.229473419497
30
0
11
1452.08928334181
21
-552.549981495186
31
0
0
LINE
8
layer0
10
1452.08928334181
20
-552.549981495186
30
0
11
1452.08928334181
21
-682.453792062852
31
0
0
LINE
8
layer0
10
1472.08928334181
20
-535.229473419497
30
0
11
1437.44826719043
21
-525.229473419497
31
0
0
LINE
8
layer0
10
1437.44826719043
20
-525.229473419497
30
0
11
1417.44826719043
21
-542.549981495186
31
0
0
LINE
8
layer0
10
1417.44826719043
20
-542.549981495186
30
0
11
1452.08928334181
21
-552.549981495186
31
0
0
LINE
8
layer0
10
1452.08928334181
20
-552.549981495186
30
0
11
1472.08928334181
21
-535.229473419497
31
0
0
LINE
8
layer0
10
1437.44826719043
20
-655.133283987163
30
0
11
1472.08928334181
21
-665.133283987163
31
0
0
LINE
8
layer0
10
1472.08928334181
20
-665.133283987163
30
0
11
1452.08928334181
21
-682.453792062852
31
0
0
LINE
8
layer0
10
1452.08928334181
20
-682.453792062852
30
0
11
1417.44826719043
21
-672.453792062852
31
0
0
LINE
8
layer0
10
1417.44826719043
20
-672.453792062852
30
0
11
1437.44826719043
21
-655.133283987163
31
0
0
ENDBLK
0
BLOCK
8
layer0
2
PF_OBJECT38
70
0
10
0
20
0
30
0
0
LINE
8
layer0
10
2028.46096908265
20
-643.301270189222
30
0
11
1993.81995293128
21
-633.301270189222
31
0
0
LINE
8
layer0
10
1993.81995293128
20
-633.301270189222
30
0
11
1993.81995293128
21
-503.397459621556
31
0
0
LINE
8
layer0
10
1993.81995293128
20
-503.397459621556
30
0
11
2028.46096908265
21
-513.397459621556
31
0
0
LINE
8
layer0
10
2028.46096908265
20
-513.397459621556
30
0
11
2028.46096908265
21
-643.301270189222
31
0
0
LINE
8
layer0
10
1973.81995293128
20
-650.621778264911
30
0
11
2008.46096908265
21
-660.621778264911
31
0
0
LINE
8
layer0
10
2008.46096908265
20
-660.621778264911
30
0
11
2008.46096908265
21
-530.717967697245
31
0
0
LINE
8
layer0
10
2008.46096908265
20
-530.717967697245
30
0
11
1973.81995293128
21
-520.717967697245
31
0
0
LINE
8
layer0
10
1973.81995293128
20
-520.717967697245
30
0
11
1973.81995293128
21
-650.621778264911
31
0
0
LINE
8
layer0
10
1993.81995293128
20
-633.301270189222
30
0
11
1973.81995293128
21
-650.621778264911
31
0
0
LINE
8
layer0
10
1973.81995293128
20
-650.621778264911
30
0
11
1973.81995293128
21
-520.717967697245
31
0
0
LINE
8
layer0
10
1973.81995293128
20
-520.717967697245
30
0
11
1993.81995293128
21
-503.397459621556
31
0
0
LINE
8
layer0
10
1993.81995293128
20
-503.397459621556
30
0
11
1993.81995293128
21
-633.301270189222
31
0
0
LINE
8
layer0
10
2008.46096908265
20
-660.621778264911
30
0
11
2028.46096908265
21
-643.301270189222
31
0
0
LINE
8
layer0
10
2028.46096908265
20
-643.301270189222
30
0
11
2028.46096908265
21
-513.397459621556
31
0
0
LINE
8
layer0
10
2028.46096908265
20
-513.397459621556
30
0
11
2008.46096908265
21
-530.717967697245
31
0
0
LINE
8
layer0
10
2008.46096908265
20
-530.717967697245
30
0
11
2008.46096908265
21
-660.621778264911
31
0
0
LINE
8
layer0
10
2028.46096908265
20
-513.397459621556
30
0
11
1993.81995293128
21
-503.397459621556
31
0
0
LINE
8
layer0
10
1993.81995293128
20
-503.397459621556
30
0
11
1973.81995293128
21
-520.717967697245
31
0
0
LINE
8
layer0
10
1973.81995293128
20
-520.717967697245
30
0
11
2008.46096908265
21
-530.717967697245
31
0
0
LINE
8
layer0
10
2008.46096908265
20
-530.717967697245
30
0
11
2028.46096908265
21
-513.397459621556
31
0
0
LINE
8
layer0
10
1993.81995293128
20
-633.301270189222
30
0
11
2028.46096908265
21
-643.301270189222
31
0
0
LINE
8
layer0
10
2028.46096908265
20
-643.301270189222
30
0
11
2008.46096908265
21
-660.621778264911
31
0
0
LINE
8
layer0
10
2008.46096908265
20
-660.621778264911
30
0
11
1973.81995293128
21
-650.621778264911
31
0
0
LINE
8
layer0
10
1973.81995293128
20
-650.621778264911
30
0
11
1993.81995293128
21
-633.301270189222
31
0
0
ENDBLK
0
BLOCK
8
layer0
2
PF_OBJECT39
70
0
10
0
20
0
30
0
0
LINE
8
layer0
10
1870.46096908265
20
-780.133283987163
30
0
11
1835.81995293128
21
-770.133283987163
31
0
0
LINE
8
layer0
10
1835.81995293128
20
-770.133283987163
30
0
11
1835.81995293128
21
-640.229473419497
31
0
0
LINE
8
layer0
10
1835.81995293128
20
-640.229473419497
30
0
11
1870.46096908265
21
-650.229473419497
31
0
0
LINE
8
layer0
10
1870.46096908265
20
-650.229473419497
30
0
11
1870.46096908265
21
-780.133283987163
31
0
0
LINE
8
layer0
10
1815.81995293128
20
-787.453792062852
30
0
11
1850.46096908265
21
-797.453792062852
31
0
0
LINE
8
layer0
10
1850.46096908265
20
-797.453792062852
30
0
11
1850.46096908265
21
-667.549981495186
31
0
0
LINE
8
layer0
10
1850.46096908265
20
-667.549981495186
30
0
11
1815.81995293128
21
-657.549981495186
31
0
0
LINE
8
layer0
10
1815.81995293128
20
-657.549981495186
30
0
11
1815.81995293128
21
-787.453792062852
31
0
0
LINE
8
layer0
10
1835.81995293128
20
-770.133283987163
30
0
11
1815.81995293128
21
-787.453792062852
31
0
0
LINE
8
layer0
10
1815.81995293128
20
-787.453792062852
30
0
11
1815.81995293128
21
-657.549981495186
31
0
0
LINE
8
layer0
10
1815.81995293128
20
-657.549981495186
30
0
11
1835.81995293128
21
-640.229473419497
31
0
0
LINE
8
layer0
10
1835.81995293128
20
-640.229473419497
30
0
11
1835.81995293128
21
-770.133283987163
31
0
0
LINE
8
layer0
10
1850.46096908265
20
-797.453792062852
30
0
11
1870.46096908265
21
-780.133283987163
31
0
0
LINE
8
layer0
10
1870.46096908265
20
-780.133283987163
30
0
11
1870.46096908265
21
-650.229473419497
31
0
0
LINE
8
layer0
10
1870.46096908265
20
-650.229473419497
30
0
11
1850.46096908265
21
-667.549981495186
31
0
0
LINE
8
layer0
10
1850.46096908265
20
-667.549981495186
30
0
11
1850.46096908265
21
-797.453792062852
31
0
0
LINE
8
layer0
10
1870.46096908265
20
-650.229473419497
30
0
11
1835.81995293128
21
-640.229473419497
31
0
0
LINE
8
layer0
10
1835.81995293128
20
-640.229473419497
30
0
11
1815.81995293128
21
-657.549981495186
31
0
0
LINE
8
layer0
10
1815.81995293128
20
-657.549981495186
30
0
11
1850.46096908265
21
-667.549981495186
31
0
0
LINE
8
layer0
10
1850.46096908265
20
-667.549981495186
30
0
11
1870.46096908265
21
-650.229473419497
31
0
0
LINE
8
layer0
10
1835.81995293128
20
-770.133283987163
30
0
11
1870.46096908265
21
-780.133283987163
31
0
0
LINE
8
layer0
10
1870.46096908265
20
-780.133283987163
30
0
11
1850.46096908265
21
-797.453792062852
31
0
0
LINE
8
layer0
10
1850.46096908265
20
-797.453792062852
30
0
11
1815.81995293128
21
-787.453792062852
31
0
0
LINE
8
layer0
10
1815.81995293128
20
-787.453792062852
30
0
11
1835.81995293128
21
-770.133283987163
31
0
0
ENDBLK
0
BLOCK
8
layer0
70
0
10
0
20
0
30
0
2
PF_SKETCH40
0
LINE
8
layer0
10
1554.98033033454
20
250.094569747296
30
0
11
1507.81366366788
21
209.24703820213
31
0
0
ENDBLK
0
BLOCK
8
layer0
70
0
10
0
20
0
30
0
2
PF_SKETCH41
0
LINE
8
layer0
10
2074.59557260521
20
100.094569747296
30
0
11
2027.42890593854
21
59.2470382021297
31
0
0
ENDBLK
0
BLOCK
8
layer0
70
0
10
0
20
0
30
0
2
PF_SKETCH42
0
LINE
8
layer0
10
1460.64699700121
20
168.399506656964
30
0
11
1413.48033033454
21
127.551975111798
31
0
0
ENDBLK
0
BLOCK
8
layer0
70
0
10
0
20
0
30
0
2
PF_SKETCH43
0
LINE
8
layer0
10
1980.26223927187
20
18.3995066569636
30
0
11
1933.09557260521
21
-22.4480248882024
31
0
0
ENDBLK
0
BLOCK
8
layer0
70
0
10
0
20
0
30
0
2
PF_SKETCH44
0
LINE
8
layer0
10
1366.31366366788
20
86.7044435666316
30
0
11
1319.14699700121
21
45.8569120214656
31
0
0
ENDBLK
0
BLOCK
8
layer0
70
0
10
0
20
0
30
0
2
PF_SKETCH45
0
LINE
8
layer0
10
1885.92890593854
20
-63.2955564333684
30
0
11
1838.76223927187
21
-104.143087978534
31
0
0
ENDBLK
0
BLOCK
8
layer0
2
PF_OBJECT46
70
0
10
0
20
0
30
0
0
LINE
8
layer0
10
2123.92206815095
20
-611.391438084799
30
0
11
1830.92206815095
21
-865.13688139364
31
0
0
LINE
8
layer0
10
1830.92206815095
20
-865.13688139364
30
0
11
1830.92206815095
21
-111.694780101178
31
0
0
LINE
8
layer0
10
1830.92206815095
20
-111.694780101178
30
0
11
2123.92206815095
21
142.050663207662
31
0
0
LINE
8
layer0
10
2123.92206815095
20
142.050663207662
30
0
11
2123.92206815095
21
-611.391438084799
31
0
0
LINE
8
layer0
10
1844.11864573243
20
-868.946405203164
30
0
11
2137.11864573243
21
-615.200961894323
31
0
0
LINE
8
layer0
10
2137.11864573243
20
-615.200961894323
30
0
11
2137.11864573243
21
138.241139398138
31
0
0
LINE
8
layer0
10
2137.11864573243
20
138.241139398138
30
0
11
1844.11864573243
21
-115.504303910702
31
0
0
LINE
8
layer0
10
1844.11864573243
20
-115.504303910702
30
0
11
1844.11864573243
21
-868.946405203164
31
0
0
LINE
8
layer0
10
1830.92206815095
20
-865.13688139364
30
0
11
1844.11864573243
21
-868.946405203164
31
0
0
LINE
8
layer0
10
1844.11864573243
20
-868.946405203164
30
0
11
1844.11864573243
21
-115.504303910702
31
0
0
LINE
8
layer0
10
1844.11864573243
20
-115.504303910702
30
0
11
1830.92206815095
21
-111.694780101178
31
0
0
LINE
8
layer0
10
1830.92206815095
20
-111.694780101178
30
0
11
1830.92206815095
21
-865.13688139364
31
0
0
LINE
8
layer0
10
2137.11864573243
20
-615.200961894323
30
0
11
2123.92206815095
21
-611.391438084799
31
0
0
LINE
8
layer0
10
2123.92206815095
20
-611.391438084799
30
0
11
2123.92206815095
21
142.050663207662
31
0
0
LINE
8
layer0
10
2123.92206815095
20
142.050663207662
30
0
11
2137.11864573243
21
138.241139398138
31
0
0
LINE
8
layer0
10
2137.11864573243
20
138.241139398138
30
0
11
2137.11864573243
21
-615.200961894323
31
0
0
LINE
8
layer0
10
2123.92206815095
20
142.050663207662
30
0
11
1830.92206815095
21
-111.694780101178
31
0
0
LINE
8
layer0
10
1830.92206815095
20
-111.694780101178
30
0
11
1844.11864573243
21
-115.504303910702
31
0
0
LINE
8
layer0
10
1844.11864573243
20
-115.504303910702
30
0
11
2137.11864573243
21
138.241139398138
31
0
0
LINE
8
layer0
10
2137.11864573243
20
138.241139398138
30
0
11
2123.92206815095
21
142.050663207662
31
0
0
LINE
8
layer0
10
1830.92206815095
20
-865.13688139364
30
0
11
2123.92206815095
21
-611.391438084799
31
0
0
LINE
8
layer0
10
2123.92206815095
20
-611.391438084799
30
0
11
2137.11864573243
21
-615.200961894323
31
0
0
LINE
8
layer0
10
2137.11864573243
20
-615.200961894323
30
0
11
1844.11864573243
21
-868.946405203164
31
0
0
LINE
8
layer0
10
1844.11864573243
20
-868.946405203164
30
0
11
1830.92206815095
21
-865.13688139364
31
0
0
ENDBLK
0
BLOCK
8
layer0
2
PF_OBJECT47
70
0
10
0
20
0
30
0
0
LINE
8
layer0
10
576.772918920436
20
1071.91632741175
30
0
11
562.916512459885
21
1075.91632741175
31
0
0
LINE
8
layer0
10
562.916512459885
20
1075.91632741175
30
0
11
562.916512459885
21
1693.39244031005
31
0
0
LINE
8
layer0
10
562.916512459885
20
1693.39244031005
30
0
11
576.772918920436
21
1689.39244031005
31
0
0
LINE
8
layer0
10
576.772918920436
20
1689.39244031005
30
0
11
576.772918920436
21
1071.91632741175
31
0
0
LINE
8
layer0
10
402.416512459885
20
936.919250104345
30
0
11
416.272918920436
21
932.919250104345
31
0
0
LINE
8
layer0
10
416.272918920436
20
932.919250104345
30
0
11
416.272918920436
21
1550.39536300265
31
0
0
LINE
8
layer0
10
416.272918920436
20
1550.39536300265
30
0
11
402.416512459885
21
1554.39536300265
31
0
0
LINE
8
layer0
10
402.416512459885
20
1554.39536300265
30
0
11
402.416512459885
21
936.919250104345
31
0
0
LINE
8
layer0
10
562.916512459885
20
1075.91632741175
30
0
11
402.416512459885
21
936.919250104345
31
0
0
LINE
8
layer0
10
402.416512459885
20
936.919250104345
30
0
11
402.416512459885
21
1554.39536300265
31
0
0
LINE
8
layer0
10
402.416512459885
20
1554.39536300265
30
0
11
562.916512459885
21
1693.39244031005
31
0
0
LINE
8
layer0
10
562.916512459885
20
1693.39244031005
30
0
11
562.916512459885
21
1075.91632741175
31
0
0
LINE
8
layer0
10
416.272918920436
20
932.919250104345
30
0
11
576.772918920436
21
1071.91632741175
31
0
0
LINE
8
layer0
10
576.772918920436
20
1071.91632741175
30
0
11
576.772918920436
21
1689.39244031005
31
0
0
LINE
8
layer0
10
576.772918920436
20
1689.39244031005
30
0
11
416.272918920436
21
1550.39536300265
31
0
0
LINE
8
layer0
10
416.272918920436
20
1550.39536300265
30
0
11
416.272918920436
21
932.919250104345
31
0
0
LINE
8
layer0
10
576.772918920436
20
1689.39244031005
30
0
11
562.916512459885
21
1693.39244031005
31
0
0
LINE
8
layer0
10
562.916512459885
20
1693.39244031005
30
0
11
402.416512459885
21
1554.39536300265
31
0
0
LINE
8
layer0
10
402.416512459885
20
1554.39536300265
30
0
11
416.272918920436
21
1550.39536300265
31
0
0
LINE
8
layer0
10
416.272918920436
20
1550.39536300265
30
0
11
576.772918920436
21
1689.39244031005
31
0
0
LINE
8
layer0
10
562.916512459885
20
1075.91632741175
30
0
11
576.772918920436
21
1071.91632741175
31
0
0
LINE
8
layer0
10
576.772918920436
20
1071.91632741175
30
0
11
416.272918920436
21
932.919250104345
31
0
0
LINE
8
layer0
10
416.272918920436
20
932.919250104345
30
0
11
402.416512459885
21
936.919250104345
31
0
0
LINE
8
layer0
10
402.416512459885
20
936.919250104345
30
0
11
562.916512459885
21
1075.91632741175
31
0
0
ENDBLK
0
BLOCK
8
layer0
2
PF_OBJECT48
70
0
10
0
20
0
30
0
0
LINE
8
layer0
10
1082.53175473055
20
925.916327411747
30
0
11
1068.67534827
21
929.916327411747
31
0
0
LINE
8
layer0
10
1068.67534827
20
929.916327411747
30
0
11
1068.67534827
21
1547.39244031005
31
0
0
LINE
8
layer0
10
1068.67534827
20
1547.39244031005
30
0
11
1082.53175473055
21
1543.39244031005
31
0
0
LINE
8
layer0
10
1082.53175473055
20
1543.39244031005
30
0
11
1082.53175473055
21
925.916327411747
31
0
0
LINE
8
layer0
10
908.175348269997
20
790.919250104345
30
0
11
922.031754730548
21
786.919250104345
31
0
0
LINE
8
layer0
10
922.031754730548
20
786.919250104345
30
0
11
922.031754730548
21
1404.39536300265
31
0
0
LINE
8
layer0
10
922.031754730548
20
1404.39536300265
30
0
11
908.175348269997
21
1408.39536300265
31
0
0
LINE
8
layer0
10
908.175348269997
20
1408.39536300265
30
0
11
908.175348269997
21
790.919250104345
31
0
0
LINE
8
layer0
10
1068.67534827
20
929.916327411747
30
0
11
908.175348269997
21
790.919250104345
31
0
0
LINE
8
layer0
10
908.175348269997
20
790.919250104345
30
0
11
908.175348269997
21
1408.39536300265
31
0
0
LINE
8
layer0
10
908.175348269997
20
1408.39536300265
30
0
11
1068.67534827
21
1547.39244031005
31
0
0
LINE
8
layer0
10
1068.67534827
20
1547.39244031005
30
0
11
1068.67534827
21
929.916327411747
31
0
0
LINE
8
layer0
10
922.031754730548
20
786.919250104345
30
0
11
1082.53175473055
21
925.916327411747
31
0
0
LINE
8
layer0
10
1082.53175473055
20
925.916327411747
30
0
11
1082.53175473055
21
1543.39244031005
31
0
0
LINE
8
layer0
10
1082.53175473055
20
1543.39244031005
30
0
11
922.031754730548
21
1404.39536300265
31
0
0
LINE
8
layer0
10
922.031754730548
20
1404.39536300265
30
0
11
922.031754730548
21
786.919250104345
31
0
0
LINE
8
layer0
10
1082.53175473055
20
1543.39244031005
30
0
11
1068.67534827
21
1547.39244031005
31
0
0
LINE
8
layer0
10
1068.67534827
20
1547.39244031005
30
0
11
908.175348269997
21
1408.39536300265
31
0
0
LINE
8
layer0
10
908.175348269997
20
1408.39536300265
30
0
11
922.031754730548
21
1404.39536300265
31
0
0
LINE
8
layer0
10
922.031754730548
20
1404.39536300265
30
0
11
1082.53175473055
21
1543.39244031005
31
0
0
LINE
8
layer0
10
1068.67534827
20
929.916327411747
30
0
11
1082.53175473055
21
925.916327411747
31
0
0
LINE
8
layer0
10
1082.53175473055
20
925.916327411747
30
0
11
922.031754730548
21
786.919250104345
31
0
0
LINE
8
layer0
10
922.031754730548
20
786.919250104345
30
0
11
908.175348269997
21
790.919250104345
31
0
0
LINE
8
layer0
10
908.175348269997
20
790.919250104345
30
0
11
1068.67534827
21
929.916327411747
31
0
0
ENDBLK
0
BLOCK
8
layer0
2
PF_OBJECT49
70
0
10
0
20
0
30
0
0
LINE
8
layer0
10
1056.67534827
20
919.524022566334
30
0
11
564.772918920436
21
1061.52402256633
31
0
0
LINE
8
layer0
10
564.772918920436
20
1061.52402256633
30
0
11
564.772918920436
21
1075.38042902688
31
0
0
LINE
8
layer0
10
564.772918920436
20
1075.38042902688
30
0
11
1056.67534827
21
933.380429026885
31
0
0
LINE
8
layer0
10
1056.67534827
20
933.380429026885
30
0
11
1056.67534827
21
919.524022566334
31
0
0
LINE
8
layer0
10
416.772918920436
20
933.352262806237
30
0
11
908.675348269997
21
791.352262806237
31
0
0
LINE
8
layer0
10
908.675348269997
20
791.352262806237
30
0
11
908.675348269997
21
805.208669266788
31
0
0
LINE
8
layer0
10
908.675348269997
20
805.208669266788
30
0
11
416.772918920436
21
947.208669266788
31
0
0
LINE
8
layer0
10
416.772918920436
20
947.208669266788
30
0
11
416.772918920436
21
933.352262806237
31
0
0
LINE
8
layer0
10
564.772918920436
20
1061.52402256633
30
0
11
416.772918920436
21
933.352262806237
31
0
0
LINE
8
layer0
10
416.772918920436
20
933.352262806237
30
0
11
416.772918920436
21
947.208669266788
31
0
0
LINE
8
layer0
10
416.772918920436
20
947.208669266788
30
0
11
564.772918920436
21
1075.38042902688
31
0
0
LINE
8
layer0
10
564.772918920436
20
1075.38042902688
30
0
11
564.772918920436
21
1061.52402256633
31
0
0
LINE
8
layer0
10
908.675348269997
20
791.352262806237
30
0
11
1056.67534827
21
919.524022566334
31
0
0
LINE
8
layer0
10
1056.67534827
20
919.524022566334
30
0
11
1056.67534827
21
933.380429026885
31
0
0
LINE
8
layer0
10
1056.67534827
20
933.380429026885
30
0
11
908.675348269997
21
805.208669266788
31
0
0
LINE
8
layer0
10
908.675348269997
20
805.208669266788
30
0
11
908.675348269997
21
791.352262806237
31
0
0
LINE
8
layer0
10
1056.67534827
20
933.380429026885
30
0
11
564.772918920436
21
1075.38042902688
31
0
0
LINE
8
layer0
10
564.772918920436
20
1075.38042902688
30
0
11
416.772918920436
21
947.208669266788
31
0
0
LINE
8
layer0
10
416.772918920436
20
947.208669266788
30
0
11
908.675348269997
21
805.208669266788
31
0
0
LINE
8
layer0
10
908.675348269997
20
805.208669266788
30
0
11
1056.67534827
21
933.380429026885
31
0
0
LINE
8
layer0
10
564.772918920436
20
1061.52402256633
30
0
11
1056.67534827
21
919.524022566334
31
0
0
LINE
8
layer0
10
1056.67534827
20
919.524022566334
30
0
11
908.675348269997
21
791.352262806237
31
0
0
LINE
8
layer0
10
908.675348269997
20
791.352262806237
30
0
11
416.772918920436
21
933.352262806237
31
0
0
LINE
8
layer0
10
416.772918920436
20
933.352262806237
30
0
11
564.772918920436
21
1061.52402256633
31
0
0
ENDBLK
0
BLOCK
8
layer0
2
PF_OBJECT50
70
0
10
0
20
0
30
0
0
LINE
8
layer0
10
1058.67534827
20
921.256073373903
30
0
11
566.772918920436
21
1063.2560733739
31
0
0
LINE
8
layer0
10
566.772918920436
20
1063.2560733739
30
0
11
566.772918920436
21
1680.73218627221
31
0
0
LINE
8
layer0
10
566.772918920436
20
1680.73218627221
30
0
11
1058.67534827
21
1538.73218627221
31
0
0
LINE
8
layer0
10
1058.67534827
20
1538.73218627221
30
0
11
1058.67534827
21
921.256073373903
31
0
0
LINE
8
layer0
10
564.772918920436
20
1061.52402256633
30
0
11
1056.67534827
21
919.524022566334
31
0
0
LINE
8
layer0
10
1056.67534827
20
919.524022566334
30
0
11
1056.67534827
21
1537.00013546464
31
0
0
LINE
8
layer0
10
1056.67534827
20
1537.00013546464
30
0
11
564.772918920436
21
1679.00013546464
31
0
0
LINE
8
layer0
10
564.772918920436
20
1679.00013546464
30
0
11
564.772918920436
21
1061.52402256633
31
0
0
LINE
8
layer0
10
566.772918920436
20
1063.2560733739
30
0
11
564.772918920436
21
1061.52402256633
31
0
0
LINE
8
layer0
10
564.772918920436
20
1061.52402256633
30
0
11
564.772918920436
21
1679.00013546464
31
0
0
LINE
8
layer0
10
564.772918920436
20
1679.00013546464
30
0
11
566.772918920436
21
1680.73218627221
31
0
0
LINE
8
layer0
10
566.772918920436
20
1680.73218627221
30
0
11
566.772918920436
21
1063.2560733739
31
0
0
LINE
8
layer0
10
1056.67534827
20
919.524022566334
30
0
11
1058.67534827
21
921.256073373903
31
0
0
LINE
8
layer0
10
1058.67534827
20
921.256073373903
30
0
11
1058.67534827
21
1538.73218627221
31
0
0
LINE
8
layer0
10
1058.67534827
20
1538.73218627221
30
0
11
1056.67534827
21
1537.00013546464
31
0
0
LINE
8
layer0
10
1056.67534827
20
1537.00013546464
30
0
11
1056.67534827
21
919.524022566334
31
0
0
LINE
8
layer0
10
1058.67534827
20
1538.73218627221
30
0
11
566.772918920436
21
1680.73218627221
31
0
0
LINE
8
layer0
10
566.772918920436
20
1680.73218627221
30
0
11
564.772918920436
21
1679.00013546464
31
0
0
LINE
8
layer0
10
564.772918920436
20
1679.00013546464
30
0
11
1056.67534827
21
1537.00013546464
31
0
0
LINE
8
layer0
10
1056.67534827
20
1537.00013546464
30
0
11
1058.67534827
21
1538.73218627221
31
0
0
LINE
8
layer0
10
566.772918920436
20
1063.2560733739
30
0
11
1058.67534827
21
921.256073373903
31
0
0
LINE
8
layer0
10
1058.67534827
20
921.256073373903
30
0
11
1056.67534827
21
919.524022566334
31
0
0
LINE
8
layer0
10
1056.67534827
20
919.524022566334
30
0
11
564.772918920436
21
1061.52402256633
31
0
0
LINE
8
layer0
10
564.772918920436
20
1061.52402256633
30
0
11
566.772918920436
21
1063.2560733739
31
0
0
ENDBLK
0
BLOCK
8
layer0
2
PF_OBJECT51
70
0
10
0
20
0
30
0
0
LINE
8
layer0
10
1056.67534827
20
1523.14372900409
30
0
11
564.772918920436
21
1665.14372900409
31
0
0
LINE
8
layer0
10
564.772918920436
20
1665.14372900409
30
0
11
564.772918920436
21
1679.00013546464
31
0
0
LINE
8
layer0
10
564.772918920436
20
1679.00013546464
30
0
11
1056.67534827
21
1537.00013546464
31
0
0
LINE
8
layer0
10
1056.67534827
20
1537.00013546464
30
0
11
1056.67534827
21
1523.14372900409
31
0
0
LINE
8
layer0
10
416.772918920436
20
1536.97196924399
30
0
11
908.675348269997
21
1394.97196924399
31
0
0
LINE
8
layer0
10
908.675348269997
20
1394.97196924399
30
0
11
908.675348269997
21
1408.82837570454
31
0
0
LINE
8
layer0
10
908.675348269997
20
1408.82837570454
30
0
11
416.772918920436
21
1550.82837570454
31
0
0
LINE
8
layer0
10
416.772918920436
20
1550.82837570454
30
0
11
416.772918920436
21
1536.97196924399
31
0
0
LINE
8
layer0
10
564.772918920436
20
1665.14372900409
30
0
11
416.772918920436
21
1536.97196924399
31
0
0
LINE
8
layer0
10
416.772918920436
20
1536.97196924399
30
0
11
416.772918920436
21
1550.82837570454
31
0
0
LINE
8
layer0
10
416.772918920436
20
1550.82837570454
30
0
11
564.772918920436
21
1679.00013546464
31
0
0
LINE
8
layer0
10
564.772918920436
20
1679.00013546464
30
0
11
564.772918920436
21
1665.14372900409
31
0
0
LINE
8
layer0
10
908.675348269997
20
1394.97196924399
30
0
11
1056.67534827
21
1523.14372900409
31
0
0
LINE
8
layer0
10
1056.67534827
20
1523.14372900409
30
0
11
1056.67534827
21
1537.00013546464
31
0
0
LINE
8
layer0
10
1056.67534827
20
1537.00013546464
30
0
11
908.675348269997
21
1408.82837570454
31
0
0
LINE
8
layer0
10
908.675348269997
20
1408.82837570454
30
0
11
908.675348269997
21
1394.97196924399
31
0
0
LINE
8
layer0
10
1056.67534827
20
1537.00013546464
30
0
11
564.772918920436
21
1679.00013546464
31
0
0
LINE
8
layer0
10
564.772918920436
20
1679.00013546464
30
0
11
416.772918920436
21
1550.82837570454
31
0
0
LINE
8
layer0
10
416.772918920436
20
1550.82837570454
30
0
11
908.675348269997
21
1408.82837570454
31
0
0
LINE
8
layer0
10
908.675348269997
20
1408.82837570454
30
0
11
1056.67534827
21
1537.00013546464
31
0
0
LINE
8
layer0
10
564.772918920436
20
1665.14372900409
30
0
11
1056.67534827
21
1523.14372900409
31
0
0
LINE
8
layer0
10
1056.67534827
20
1523.14372900409
30
0
11
908.675348269997
21
1394.97196924399
31
0
0
LINE
8
layer0
10
908.675348269997
20
1394.97196924399
30
0
11
416.772918920436
21
1536.97196924399
31
0
0
LINE
8
layer0
10
416.772918920436
20
1536.97196924399
30
0
11
564.772918920436
21
1665.14372900409
31
0
0
ENDBLK
0
BLOCK
8
layer0
2
PF_OBJECT52
70
0
10
0
20
0
30
0
0
LINE
8
layer0
10
748.146999809885
20
857.229665764782
30
0
11
746.379232856918
21
856.966999515986
31
0
0
LINE
8
layer0
10
746.379232856918
20
856.966999515986
30
0
11
874.550992617015
21
819.966999515986
31
0
0
LINE
8
layer0
10
874.550992617015
20
819.966999515986
30
0
11
876.318759569982
21
820.229665764782
31
0
0
LINE
8
layer0
10
876.318759569982
20
820.229665764782
30
0
11
748.146999809885
21
857.229665764782
31
0
0
LINE
8
layer0
10
748.879232856918
20
854.801936006525
30
0
11
748.146999809885
21
857.229665764782
31
0
0
LINE
8
layer0
10
748.146999809885
20
857.229665764782
30
0
11
876.318759569982
21
820.229665764782
31
0
0
LINE
8
layer0
10
876.318759569982
20
820.229665764782
30
0
11
877.050992617015
21
817.801936006525
31
0
0
LINE
8
layer0
10
877.050992617015
20
817.801936006525
30
0
11
748.879232856918
21
854.801936006525
31
0
0
LINE
8
layer0
10
748.146999809885
20
851.105941407824
30
0
11
748.879232856918
21
854.801936006525
31
0
0
LINE
8
layer0
10
748.879232856918
20
854.801936006525
30
0
11
877.050992617015
21
817.801936006525
31
0
0
LINE
8
layer0
10
877.050992617015
20
817.801936006525
30
0
11
876.318759569982
21
814.105941407824
31
0
0
LINE
8
layer0
10
876.318759569982
20
814.105941407824
30
0
11
748.146999809885
21
851.105941407824
31
0
0
LINE
8
layer0
10
746.379232856918
20
848.306745478141
30
0
11
748.146999809885
21
851.105941407824
31
0
0
LINE
8
layer0
10
748.146999809885
20
851.105941407824
30
0
11
876.318759569982
21
814.105941407824
31
0
0
LINE
8
layer0
10
876.318759569982
20
814.105941407824
30
0
11
874.550992617015
21
811.306745478141
31
0
0
LINE
8
layer0
10
874.550992617015
20
811.306745478141
30
0
11
746.379232856918
21
848.306745478141
31
0
0
LINE
8
layer0
10
744.611465903952
20
848.044079229345
30
0
11
746.379232856918
21
848.306745478141
31
0
0
LINE
8
layer0
10
746.379232856918
20
848.306745478141
30
0
11
874.550992617015
21
811.306745478141
31
0
0
LINE
8
layer0
10
874.550992617015
20
811.306745478141
30
0
11
872.783225664049
21
811.044079229345
31
0
0
LINE
8
layer0
10
872.783225664049
20
811.044079229345
30
0
11
744.611465903952
21
848.044079229345
31
0
0
LINE
8
layer0
10
743.879232856918
20
850.471808987603
30
0
11
744.611465903952
21
848.044079229345
31
0
0
LINE
8
layer0
10
744.611465903952
20
848.044079229345
30
0
11
872.783225664049
21
811.044079229345
31
0
0
LINE
8
layer0
10
872.783225664049
20
811.044079229345
30
0
11
872.050992617015
21
813.471808987603
31
0
0
LINE
8
layer0
10
872.050992617015
20
813.471808987603
30
0
11
743.879232856918
21
850.471808987603
31
0
0
LINE
8
layer0
10
744.611465903952
20
854.167803586303
30
0
11
743.879232856918
21
850.471808987603
31
0
0
LINE
8
layer0
10
743.879232856918
20
850.471808987603
30
0
11
872.050992617015
21
813.471808987603
31
0
0
LINE
8
layer0
10
872.050992617015
20
813.471808987603
30
0
11
872.783225664049
21
817.167803586303
31
0
0
LINE
8
layer0
10
872.783225664049
20
817.167803586303
30
0
11
744.611465903952
21
854.167803586303
31
0
0
LINE
8
layer0
10
746.379232856918
20
856.966999515986
30
0
11
744.611465903952
21
854.167803586303
31
0
0
LINE
8
layer0
10
744.611465903952
20
854.167803586303
30
0
11
872.783225664049
21
817.167803586303
31
0
0
LINE
8
layer0
10
872.783225664049
20
817.167803586303
30
0
11
874.550992617015
21
819.966999515986
31
0
0
LINE
8
layer0
10
874.550992617015
20
819.966999515986
30
0
11
746.379232856918
21
856.966999515986
31
0
0
LINE
8
layer0
10
874.550992617015
20
819.966999515986
30
0
11
872.783225664049
21
817.167803586303
31
0
0
LINE
8
layer0
10
872.783225664049
20
817.167803586303
30
0
11
872.050992617015
21
813.471808987603
31
0
0
LINE
8
layer0
10
872.050992617015
20
813.471808987603
30
0
11
872.783225664049
21
811.044079229345
31
0
0
LINE
8
layer0
10
872.783225664049
20
811.044079229345
30
0
11
874.550992617015
21
811.306745478141
31
0
0
LINE
8
layer0
10
874.550992617015
20
811.306745478141
30
0
11
876.318759569982
21
814.105941407824
31
0
0
LINE
8
layer0
10
876.318759569982
20
814.105941407824
30
0
11
877.050992617015
21
817.801936006525
31
0
0
LINE
8
layer0
10
877.050992617015
20
817.801936006525
30
0
11
876.318759569982
21
820.229665764782
31
0
0
LINE
8
layer0
10
876.318759569982
20
820.229665764782
30
0
11
874.550992617015
21
819.966999515986
31
0
0
LINE
8
layer0
10
744.611465903952
20
854.167803586303
30
0
11
746.379232856918
21
856.966999515986
31
0
0
LINE
8
layer0
10
746.379232856918
20
856.966999515986
30
0
11
748.146999809885
21
857.229665764782
31
0
0
LINE
8
layer0
10
748.146999809885
20
857.229665764782
30
0
11
748.879232856918
21
854.801936006525
31
0
0
LINE
8
layer0
10
748.879232856918
20
854.801936006525
30
0
11
748.146999809885
21
851.105941407824
31
0
0
LINE
8
layer0
10
748.146999809885
20
851.105941407824
30
0
11
746.379232856918
21
848.306745478141
31
0
0
LINE
8
layer0
10
746.379232856918
20
848.306745478141
30
0
11
744.611465903952
21
848.044079229345
31
0
0
LINE
8
layer0
10
744.611465903952
20
848.044079229345
30
0
11
743.879232856918
21
850.471808987603
31
0
0
LINE
8
layer0
10
743.879232856918
20
850.471808987603
30
0
11
744.611465903952
21
854.167803586303
31
0
0
ENDBLK
0
BLOCK
8
layer0
2
PF_OBJECT53
70
0
10
0
20
0
30
0
0
LINE
8
layer0
10
773.699740932607
20
851.966999515986
30
0
11
756.379232856918
21
856.966999515986
31
0
0
LINE
8
layer0
10
756.379232856918
20
856.966999515986
30
0
11
756.379232856918
21
865.62725355383
31
0
0
LINE
8
layer0
10
756.379232856918
20
865.62725355383
30
0
11
773.699740932607
21
860.62725355383
31
0
0
LINE
8
layer0
10
773.699740932607
20
860.62725355383
30
0
11
773.699740932607
21
851.966999515986
31
0
0
LINE
8
layer0
10
746.379232856918
20
848.306745478141
30
0
11
763.699740932607
21
843.306745478141
31
0
0
LINE
8
layer0
10
763.699740932607
20
843.306745478141
30
0
11
763.699740932607
21
851.966999515986
31
0
0
LINE
8
layer0
10
763.699740932607
20
851.966999515986
30
0
11
746.379232856918
21
856.966999515986
31
0
0
LINE
8
layer0
10
746.379232856918
20
856.966999515986
30
0
11
746.379232856918
21
848.306745478141
31
0
0
LINE
8
layer0
10
756.379232856918
20
856.966999515986
30
0
11
746.379232856918
21
848.306745478141
31
0
0
LINE
8
layer0
10
746.379232856918
20
848.306745478141
30
0
11
746.379232856918
21
856.966999515986
31
0
0
LINE
8
layer0
10
746.379232856918
20
856.966999515986
30
0
11
756.379232856918
21
865.62725355383
31
0
0
LINE
8
layer0
10
756.379232856918
20
865.62725355383
30
0
11
756.379232856918
21
856.966999515986
31
0
0
LINE
8
layer0
10
763.699740932607
20
843.306745478141
30
0
11
773.699740932607
21
851.966999515986
31
0
0
LINE
8
layer0
10
773.699740932607
20
851.966999515986
30
0
11
773.699740932607
21
860.62725355383
31
0
0
LINE
8
layer0
10
773.699740932607
20
860.62725355383
30
0
11
763.699740932607
21
851.966999515986
31
0
0
LINE
8
layer0
10
763.699740932607
20
851.966999515986
30
0
11
763.699740932607
21
843.306745478141
31
0
0
LINE
8
layer0
10
773.699740932607
20
860.62725355383
30
0
11
756.379232856918
21
865.62725355383
31
0
0
LINE
8
layer0
10
756.379232856918
20
865.62725355383
30
0
11
746.379232856918
21
856.966999515986
31
0
0
LINE
8
layer0
10
746.379232856918
20
856.966999515986
30
0
11
763.699740932607
21
851.966999515986
31
0
0
LINE
8
layer0
10
763.699740932607
20
851.966999515986
30
0
11
773.699740932607
21
860.62725355383
31
0
0
LINE
8
layer0
10
756.379232856918
20
856.966999515986
30
0
11
773.699740932607
21
851.966999515986
31
0
0
LINE
8
layer0
10
773.699740932607
20
851.966999515986
30
0
11
763.699740932607
21
843.306745478141
31
0
0
LINE
8
layer0
10
763.699740932607
20
843.306745478141
30
0
11
746.379232856918
21
848.306745478141
31
0
0
LINE
8
layer0
10
746.379232856918
20
848.306745478141
30
0
11
756.379232856918
21
856.966999515986
31
0
0
ENDBLK
0
BLOCK
8
layer0
2
PF_OBJECT54
70
0
10
0
20
0
30
0
0
LINE
8
layer0
10
884.550992617015
20
819.966999515986
30
0
11
867.230484541327
21
824.966999515986
31
0
0
LINE
8
layer0
10
867.230484541327
20
824.966999515986
30
0
11
867.230484541327
21
833.62725355383
31
0
0
LINE
8
layer0
10
867.230484541327
20
833.62725355383
30
0
11
884.550992617015
21
828.62725355383
31
0
0
LINE
8
layer0
10
884.550992617015
20
828.62725355383
30
0
11
884.550992617015
21
819.966999515986
31
0
0
LINE
8
layer0
10
857.230484541327
20
816.306745478141
30
0
11
874.550992617015
21
811.306745478141
31
0
0
LINE
8
layer0
10
874.550992617015
20
811.306745478141
30
0
11
874.550992617015
21
819.966999515986
31
0
0
LINE
8
layer0
10
874.550992617015
20
819.966999515986
30
0
11
857.230484541327
21
824.966999515986
31
0
0
LINE
8
layer0
10
857.230484541327
20
824.966999515986
30
0
11
857.230484541327
21
816.306745478141
31
0
0
LINE
8
layer0
10
867.230484541327
20
824.966999515986
30
0
11
857.230484541327
21
816.306745478141
31
0
0
LINE
8
layer0
10
857.230484541327
20
816.306745478141
30
0
11
857.230484541327
21
824.966999515986
31
0
0
LINE
8
layer0
10
857.230484541327
20
824.966999515986
30
0
11
867.230484541327
21
833.62725355383
31
0
0
LINE
8
layer0
10
867.230484541327
20
833.62725355383
30
0
11
867.230484541327
21
824.966999515986
31
0
0
LINE
8
layer0
10
874.550992617015
20
811.306745478141
30
0
11
884.550992617015
21
819.966999515986
31
0
0
LINE
8
layer0
10
884.550992617015
20
819.966999515986
30
0
11
884.550992617015
21
828.62725355383
31
0
0
LINE
8
layer0
10
884.550992617015
20
828.62725355383
30
0
11
874.550992617015
21
819.966999515986
31
0
0
LINE
8
layer0
10
874.550992617015
20
819.966999515986
30
0
11
874.550992617015
21
811.306745478141
31
0
0
LINE
8
layer0
10
884.550992617015
20
828.62725355383
30
0
11
867.230484541327
21
833.62725355383
31
0
0
LINE
8
layer0
10
867.230484541327
20
833.62725355383
30
0
11
857.230484541327
21
824.966999515986
31
0
0
LINE
8
layer0
10
857.230484541327
20
824.966999515986
30
0
11
874.550992617015
21
819.966999515986
31
0
0
LINE
8
layer0
10
874.550992617015
20
819.966999515986
30
0
11
884.550992617015
21
828.62725355383
31
0
0
LINE
8
layer0
10
867.230484541327
20
824.966999515986
30
0
11
884.550992617015
21
819.966999515986
31
0
0
LINE
8
layer0
10
884.550992617015
20
819.966999515986
30
0
11
874.550992617015
21
811.306745478141
31
0
0
LINE
8
layer0
10
874.550992617015
20
811.306745478141
30
0
11
857.230484541327
21
816.306745478141
31
0
0
LINE
8
layer0
10
857.230484541327
20
816.306745478141
30
0
11
867.230484541327
21
824.966999515986
31
0
0
ENDBLK
0
BLOCK
8
layer0
2
PF_OBJECT55
70
0
10
0
20
0
30
0
0
LINE
8
layer0
10
917.933678519195
20
788.968288210022
30
0
11
403.514588671239
21
937.468288210021
31
0
0
LINE
8
layer0
10
403.514588671239
20
937.468288210021
30
0
11
403.514588671239
21
1549.74824868562
31
0
0
LINE
8
layer0
10
403.514588671239
20
1549.74824868562
30
0
11
917.933678519195
21
1401.24824868562
31
0
0
LINE
8
layer0
10
917.933678519195
20
1401.24824868562
30
0
11
917.933678519195
21
788.968288210022
31
0
0
LINE
8
layer0
10
393.514588671239
20
928.808034172177
30
0
11
907.933678519195
21
780.308034172177
31
0
0
LINE
8
layer0
10
907.933678519195
20
780.308034172177
30
0
11
907.933678519195
21
1392.58799464778
31
0
0
LINE
8
layer0
10
907.933678519195
20
1392.58799464778
30
0
11
393.514588671239
21
1541.08799464778
31
0
0
LINE
8
layer0
10
393.514588671239
20
1541.08799464778
30
0
11
393.514588671239
21
928.808034172177
31
0
0
LINE
8
layer0
10
403.514588671239
20
937.468288210021
30
0
11
393.514588671239
21
928.808034172177
31
0
0
LINE
8
layer0
10
393.514588671239
20
928.808034172177
30
0
11
393.514588671239
21
1541.08799464778
31
0
0
LINE
8
layer0
10
393.514588671239
20
1541.08799464778
30
0
11
403.514588671239
21
1549.74824868562
31
0
0
LINE
8
layer0
10
403.514588671239
20
1549.74824868562
30
0
11
403.514588671239
21
937.468288210021
31
0
0
LINE
8
layer0
10
907.933678519195
20
780.308034172177
30
0
11
917.933678519195
21
788.968288210022
31
0
0
LINE
8
layer0
10
917.933678519195
20
788.968288210022
30
0
11
917.933678519195
21
1401.24824868562
31
0
0
LINE
8
layer0
10
917.933678519195
20
1401.24824868562
30
0
11
907.933678519195
21
1392.58799464778
31
0
0
LINE
8
layer0
10
907.933678519195
20
1392.58799464778
30
0
11
907.933678519195
21
780.308034172177
31
0
0
LINE
8
layer0
10
917.933678519195
20
1401.24824868562
30
0
11
403.514588671239
21
1549.74824868562
31
0
0
LINE
8
layer0
10
403.514588671239
20
1549.74824868562
30
0
11
393.514588671239
21
1541.08799464778
31
0
0
LINE
8
layer0
10
393.514588671239
20
1541.08799464778
30
0
11
907.933678519195
21
1392.58799464778
31
0
0
LINE
8
layer0
10
907.933678519195
20
1392.58799464778
30
0
11
917.933678519195
21
1401.24824868562
31
0
0
LINE
8
layer0
10
403.514588671239
20
937.468288210021
30
0
11
917.933678519195
21
788.968288210022
31
0
0
LINE
8
layer0
10
917.933678519195
20
788.968288210022
30
0
11
907.933678519195
21
780.308034172177
31
0
0
LINE
8
layer0
10
907.933678519195
20
780.308034172177
30
0
11
393.514588671239
21
928.808034172177
31
0
0
LINE
8
layer0
10
393.514588671239
20
928.808034172177
30
0
11
403.514588671239
21
937.468288210021
31
0
0
ENDBLK
0
BLOCK
8
layer0
70
0
10
0
20
0
30
0
2
PF_SKETCH56
0
LINE
8
layer0
10
562.916512459885
20
1693.39244031005
30
0
11
922.031754730548
21
1404.39536300265
31
0
0
ENDBLK
0
BLOCK
8
layer0
70
0
10
0
20
0
30
0
2
PF_SKETCH57
0
LINE
8
layer0
10
402.416512459885
20
1554.39536300265
30
0
11
1082.53175473055
21
1543.39244031005
31
0
0
ENDBLK
0
BLOCK
8
layer0
2
PF_OBJECT58
70
0
10
0
20
0
30
0
0
LINE
8
layer0
10
1096.3881611911
20
921.916327411747
30
0
11
1082.53175473055
21
925.916327411747
31
0
0
LINE
8
layer0
10
1082.53175473055
20
925.916327411747
30
0
11
1082.53175473055
21
1543.39244031005
31
0
0
LINE
8
layer0
10
1082.53175473055
20
1543.39244031005
30
0
11
1096.3881611911
21
1539.39244031005
31
0
0
LINE
8
layer0
10
1096.3881611911
20
1539.39244031005
30
0
11
1096.3881611911
21
921.916327411747
31
0
0
LINE
8
layer0
10
922.031754730548
20
786.919250104345
30
0
11
935.888161191099
21
782.919250104345
31
0
0
LINE
8
layer0
10
935.888161191099
20
782.919250104345
30
0
11
935.888161191099
21
1400.39536300265
31
0
0
LINE
8
layer0
10
935.888161191099
20
1400.39536300265
30
0
11
922.031754730548
21
1404.39536300265
31
0
0
LINE
8
layer0
10
922.031754730548
20
1404.39536300265
30
0
11
922.031754730548
21
786.919250104345
31
0
0
LINE
8
layer0
10
1082.53175473055
20
925.916327411747
30
0
11
922.031754730548
21
786.919250104345
31
0
0
LINE
8
layer0
10
922.031754730548
20
786.919250104345
30
0
11
922.031754730548
21
1404.39536300265
31
0
0
LINE
8
layer0
10
922.031754730548
20
1404.39536300265
30
0
11
1082.53175473055
21
1543.39244031005
31
0
0
LINE
8
layer0
10
1082.53175473055
20
1543.39244031005
30
0
11
1082.53175473055
21
925.916327411747
31
0
0
LINE
8
layer0
10
935.888161191099
20
782.919250104345
30
0
11
1096.3881611911
21
921.916327411747
31
0
0
LINE
8
layer0
10
1096.3881611911
20
921.916327411747
30
0
11
1096.3881611911
21
1539.39244031005
31
0
0
LINE
8
layer0
10
1096.3881611911
20
1539.39244031005
30
0
11
935.888161191099
21
1400.39536300265
31
0
0
LINE
8
layer0
10
935.888161191099
20
1400.39536300265
30
0
11
935.888161191099
21
782.919250104345
31
0
0
LINE
8
layer0
10
1096.3881611911
20
1539.39244031005
30
0
11
1082.53175473055
21
1543.39244031005
31
0
0
LINE
8
layer0
10
1082.53175473055
20
1543.39244031005
30
0
11
922.031754730548
21
1404.39536300265
31
0
0
LINE
8
layer0
10
922.031754730548
20
1404.39536300265
30
0
11
935.888161191099
21
1400.39536300265
31
0
0
LINE
8
layer0
10
935.888161191099
20
1400.39536300265
30
0
11
1096.3881611911
21
1539.39244031005
31
0
0
LINE
8
layer0
10
1082.53175473055
20
925.916327411747
30
0
11
1096.3881611911
21
921.916327411747
31
0
0
LINE
8
layer0
10
1096.3881611911
20
921.916327411747
30
0
11
935.888161191099
21
782.919250104345
31
0
0
LINE
8
layer0
10
935.888161191099
20
782.919250104345
30
0
11
922.031754730548
21
786.919250104345
31
0
0
LINE
8
layer0
10
922.031754730548
20
786.919250104345
30
0
11
1082.53175473055
21
925.916327411747
31
0
0
ENDBLK
0
BLOCK
8
layer0
2
PF_OBJECT59
70
0
10
0
20
0
30
0
0
LINE
8
layer0
10
1602.14699700121
20
775.916327411747
30
0
11
1588.29059054066
21
779.916327411747
31
0
0
LINE
8
layer0
10
1588.29059054066
20
779.916327411747
30
0
11
1588.29059054066
21
1397.39244031005
31
0
0
LINE
8
layer0
10
1588.29059054066
20
1397.39244031005
30
0
11
1602.14699700121
21
1393.39244031005
31
0
0
LINE
8
layer0
10
1602.14699700121
20
1393.39244031005
30
0
11
1602.14699700121
21
775.916327411747
31
0
0
LINE
8
layer0
10
1427.79059054066
20
640.919250104345
30
0
11
1441.64699700121
21
636.919250104345
31
0
0
LINE
8
layer0
10
1441.64699700121
20
636.919250104345
30
0
11
1441.64699700121
21
1254.39536300265
31
0
0
LINE
8
layer0
10
1441.64699700121
20
1254.39536300265
30
0
11
1427.79059054066
21
1258.39536300265
31
0
0
LINE
8
layer0
10
1427.79059054066
20
1258.39536300265
30
0
11
1427.79059054066
21
640.919250104345
31
0
0
LINE
8
layer0
10
1588.29059054066
20
779.916327411747
30
0
11
1427.79059054066
21
640.919250104345
31
0
0
LINE
8
layer0
10
1427.79059054066
20
640.919250104345
30
0
11
1427.79059054066
21
1258.39536300265
31
0
0
LINE
8
layer0
10
1427.79059054066
20
1258.39536300265
30
0
11
1588.29059054066
21
1397.39244031005
31
0
0
LINE
8
layer0
10
1588.29059054066
20
1397.39244031005
30
0
11
1588.29059054066
21
779.916327411747
31
0
0
LINE
8
layer0
10
1441.64699700121
20
636.919250104345
30
0
11
1602.14699700121
21
775.916327411747
31
0
0
LINE
8
layer0
10
1602.14699700121
20
775.916327411747
30
0
11
1602.14699700121
21
1393.39244031005
31
0
0
LINE
8
layer0
10
1602.14699700121
20
1393.39244031005
30
0
11
1441.64699700121
21
1254.39536300265
31
0
0
LINE
8
layer0
10
1441.64699700121
20
1254.39536300265
30
0
11
1441.64699700121
21
636.919250104345
31
0
0
LINE
8
layer0
10
1602.14699700121
20
1393.39244031005
30
0
11
1588.29059054066
21
1397.39244031005
31
0
0
LINE
8
layer0
10
1588.29059054066
20
1397.39244031005
30
0
11
1427.79059054066
21
1258.39536300265
31
0
0
LINE
8
layer0
10
1427.79059054066
20
1258.39536300265
30
0
11
1441.64699700121
21
1254.39536300265
31
0
0
LINE
8
layer0
10
1441.64699700121
20
1254.39536300265
30
0
11
1602.14699700121
21
1393.39244031005
31
0
0
LINE
8
layer0
10
1588.29059054066
20
779.916327411747
30
0
11
1602.14699700121
21
775.916327411747
31
0
0
LINE
8
layer0
10
1602.14699700121
20
775.916327411747
30
0
11
1441.64699700121
21
636.919250104345
31
0
0
LINE
8
layer0
10
1441.64699700121
20
636.919250104345
30
0
11
1427.79059054066
21
640.919250104345
31
0
0
LINE
8
layer0
10
1427.79059054066
20
640.919250104345
30
0
11
1588.29059054066
21
779.916327411747
31
0
0
ENDBLK
0
BLOCK
8
layer0
2
PF_OBJECT60
70
0
10
0
20
0
30
0
0
LINE
8
layer0
10
1576.29059054066
20
769.524022566334
30
0
11
1084.3881611911
21
911.524022566334
31
0
0
LINE
8
layer0
10
1084.3881611911
20
911.524022566334
30
0
11
1084.3881611911
21
925.380429026885
31
0
0
LINE
8
layer0
10
1084.3881611911
20
925.380429026885
30
0
11
1576.29059054066
21
783.380429026885
31
0
0
LINE
8
layer0
10
1576.29059054066
20
783.380429026885
30
0
11
1576.29059054066
21
769.524022566334
31
0
0
LINE
8
layer0
10
936.388161191099
20
783.352262806237
30
0
11
1428.29059054066
21
641.352262806237
31
0
0
LINE
8
layer0
10
1428.29059054066
20
641.352262806237
30
0
11
1428.29059054066
21
655.208669266788
31
0
0
LINE
8
layer0
10
1428.29059054066
20
655.208669266788
30
0
11
936.388161191099
21
797.208669266788
31
0
0
LINE
8
layer0
10
936.388161191099
20
797.208669266788
30
0
11
936.388161191099
21
783.352262806237
31
0
0
LINE
8
layer0
10
1084.3881611911
20
911.524022566334
30
0
11
936.388161191099
21
783.352262806237
31
0
0
LINE
8
layer0
10
936.388161191099
20
783.352262806237
30
0
11
936.388161191099
21
797.208669266788
31
0
0
LINE
8
layer0
10
936.388161191099
20
797.208669266788
30
0
11
1084.3881611911
21
925.380429026885
31
0
0
LINE
8
layer0
10
1084.3881611911
20
925.380429026885
30
0
11
1084.3881611911
21
911.524022566334
31
0
0
LINE
8
layer0
10
1428.29059054066
20
641.352262806237
30
0
11
1576.29059054066
21
769.524022566334
31
0
0
LINE
8
layer0
10
1576.29059054066
20
769.524022566334
30
0
11
1576.29059054066
21
783.380429026885
31
0
0
LINE
8
layer0
10
1576.29059054066
20
783.380429026885
30
0
11
1428.29059054066
21
655.208669266788
31
0
0
LINE
8
layer0
10
1428.29059054066
20
655.208669266788
30
0
11
1428.29059054066
21
641.352262806237
31
0
0
LINE
8
layer0
10
1576.29059054066
20
783.380429026885
30
0
11
1084.3881611911
21
925.380429026885
31
0
0
LINE
8
layer0
10
1084.3881611911
20
925.380429026885
30
0
11
936.388161191099
21
797.208669266788
31
0
0
LINE
8
layer0
10
936.388161191099
20
797.208669266788
30
0
11
1428.29059054066
21
655.208669266788
31
0
0
LINE
8
layer0
10
1428.29059054066
20
655.208669266788
30
0
11
1576.29059054066
21
783.380429026885
31
0
0
LINE
8
layer0
10
1084.3881611911
20
911.524022566334
30
0
11
1576.29059054066
21
769.524022566334
31
0
0
LINE
8
layer0
10
1576.29059054066
20
769.524022566334
30
0
11
1428.29059054066
21
641.352262806237
31
0
0
LINE
8
layer0
10
1428.29059054066
20
641.352262806237
30
0
11
936.388161191099
21
783.352262806237
31
0
0
LINE
8
layer0
10
936.388161191099
20
783.352262806237
30
0
11
1084.3881611911
21
911.524022566334
31
0
0
ENDBLK
0
BLOCK
8
layer0
2
PF_OBJECT61
70
0
10
0
20
0
30
0
0
LINE
8
layer0
10
1578.29059054066
20
771.256073373903
30
0
11
1086.3881611911
21
913.256073373903
31
0
0
LINE
8
layer0
10
1086.3881611911
20
913.256073373903
30
0
11
1086.3881611911
21
1530.73218627221
31
0
0
LINE
8
layer0
10
1086.3881611911
20
1530.73218627221
30
0
11
1578.29059054066
21
1388.73218627221
31
0
0
LINE
8
layer0
10
1578.29059054066
20
1388.73218627221
30
0
11
1578.29059054066
21
771.256073373903
31
0
0
LINE
8
layer0
10
1084.3881611911
20
911.524022566334
30
0
11
1576.29059054066
21
769.524022566334
31
0
0
LINE
8
layer0
10
1576.29059054066
20
769.524022566334
30
0
11
1576.29059054066
21
1387.00013546464
31
0
0
LINE
8
layer0
10
1576.29059054066
20
1387.00013546464
30
0
11
1084.3881611911
21
1529.00013546464
31
0
0
LINE
8
layer0
10
1084.3881611911
20
1529.00013546464
30
0
11
1084.3881611911
21
911.524022566334
31
0
0
LINE
8
layer0
10
1086.3881611911
20
913.256073373903
30
0
11
1084.3881611911
21
911.524022566334
31
0
0
LINE
8
layer0
10
1084.3881611911
20
911.524022566334
30
0
11
1084.3881611911
21
1529.00013546464
31
0
0
LINE
8
layer0
10
1084.3881611911
20
1529.00013546464
30
0
11
1086.3881611911
21
1530.73218627221
31
0
0
LINE
8
layer0
10
1086.3881611911
20
1530.73218627221
30
0
11
1086.3881611911
21
913.256073373903
31
0
0
LINE
8
layer0
10
1576.29059054066
20
769.524022566334
30
0
11
1578.29059054066
21
771.256073373903
31
0
0
LINE
8
layer0
10
1578.29059054066
20
771.256073373903
30
0
11
1578.29059054066
21
1388.73218627221
31
0
0
LINE
8
layer0
10
1578.29059054066
20
1388.73218627221
30
0
11
1576.29059054066
21
1387.00013546464
31
0
0
LINE
8
layer0
10
1576.29059054066
20
1387.00013546464
30
0
11
1576.29059054066
21
769.524022566334
31
0
0
LINE
8
layer0
10
1578.29059054066
20
1388.73218627221
30
0
11
1086.3881611911
21
1530.73218627221
31
0
0
LINE
8
layer0
10
1086.3881611911
20
1530.73218627221
30
0
11
1084.3881611911
21
1529.00013546464
31
0
0
LINE
8
layer0
10
1084.3881611911
20
1529.00013546464
30
0
11
1576.29059054066
21
1387.00013546464
31
0
0
LINE
8
layer0
10
1576.29059054066
20
1387.00013546464
30
0
11
1578.29059054066
21
1388.73218627221
31
0
0
LINE
8
layer0
10
1086.3881611911
20
913.256073373903
30
0
11
1578.29059054066
21
771.256073373903
31
0
0
LINE
8
layer0
10
1578.29059054066
20
771.256073373903
30
0
11
1576.29059054066
21
769.524022566334
31
0
0
LINE
8
layer0
10
1576.29059054066
20
769.524022566334
30
0
11
1084.3881611911
21
911.524022566334
31
0
0
LINE
8
layer0
10
1084.3881611911
20
911.524022566334
30
0
11
1086.3881611911
21
913.256073373903
31
0
0
ENDBLK
0
BLOCK
8
layer0
2
PF_OBJECT62
70
0
10
0
20
0
30
0
0
LINE
8
layer0
10
1576.29059054066
20
1373.14372900409
30
0
11
1084.3881611911
21
1515.14372900409
31
0
0
LINE
8
layer0
10
1084.3881611911
20
1515.14372900409
30
0
11
1084.3881611911
21
1529.00013546464
31
0
0
LINE
8
layer0
10
1084.3881611911
20
1529.00013546464
30
0
11
1576.29059054066
21
1387.00013546464
31
0
0
LINE
8
layer0
10
1576.29059054066
20
1387.00013546464
30
0
11
1576.29059054066
21
1373.14372900409
31
0
0
LINE
8
layer0
10
936.388161191099
20
1386.97196924399
30
0
11
1428.29059054066
21
1244.97196924399
31
0
0
LINE
8
layer0
10
1428.29059054066
20
1244.97196924399
30
0
11
1428.29059054066
21
1258.82837570454
31
0
0
LINE
8
layer0
10
1428.29059054066
20
1258.82837570454
30
0
11
936.388161191099
21
1400.82837570454
31
0
0
LINE
8
layer0
10
936.388161191099
20
1400.82837570454
30
0
11
936.388161191099
21
1386.97196924399
31
0
0
LINE
8
layer0
10
1084.3881611911
20
1515.14372900409
30
0
11
936.388161191099
21
1386.97196924399
31
0
0
LINE
8
layer0
10
936.388161191099
20
1386.97196924399
30
0
11
936.388161191099
21
1400.82837570454
31
0
0
LINE
8
layer0
10
936.388161191099
20
1400.82837570454
30
0
11
1084.3881611911
21
1529.00013546464
31
0
0
LINE
8
layer0
10
1084.3881611911
20
1529.00013546464
30
0
11
1084.3881611911
21
1515.14372900409
31
0
0
LINE
8
layer0
10
1428.29059054066
20
1244.97196924399
30
0
11
1576.29059054066
21
1373.14372900409
31
0
0
LINE
8
layer0
10
1576.29059054066
20
1373.14372900409
30
0
11
1576.29059054066
21
1387.00013546464
31
0
0
LINE
8
layer0
10
1576.29059054066
20
1387.00013546464
30
0
11
1428.29059054066
21
1258.82837570454
31
0
0
LINE
8
layer0
10
1428.29059054066
20
1258.82837570454
30
0
11
1428.29059054066
21
1244.97196924399
31
0
0
LINE
8
layer0
10
1576.29059054066
20
1387.00013546464
30
0
11
1084.3881611911
21
1529.00013546464
31
0
0
LINE
8
layer0
10
1084.3881611911
20
1529.00013546464
30
0
11
936.388161191099
21
1400.82837570454
31
0
0
LINE
8
layer0
10
936.388161191099
20
1400.82837570454
30
0
11
1428.29059054066
21
1258.82837570454
31
0
0
LINE
8
layer0
10
1428.29059054066
20
1258.82837570454
30
0
11
1576.29059054066
21
1387.00013546464
31
0
0
LINE
8
layer0
10
1084.3881611911
20
1515.14372900409
30
0
11
1576.29059054066
21
1373.14372900409
31
0
0
LINE
8
layer0
10
1576.29059054066
20
1373.14372900409
30
0
11
1428.29059054066
21
1244.97196924399
31
0
0
LINE
8
layer0
10
1428.29059054066
20
1244.97196924399
30
0
11
936.388161191099
21
1386.97196924399
31
0
0
LINE
8
layer0
10
936.388161191099
20
1386.97196924399
30
0
11
1084.3881611911
21
1515.14372900409
31
0
0
ENDBLK
0
BLOCK
8
layer0
2
PF_OBJECT63
70
0
10
0
20
0
30
0
0
LINE
8
layer0
10
1267.76224208055
20
707.229665764782
30
0
11
1265.99447512758
21
706.966999515986
31
0
0
LINE
8
layer0
10
1265.99447512758
20
706.966999515986
30
0
11
1394.16623488768
21
669.966999515986
31
0
0
LINE
8
layer0
10
1394.16623488768
20
669.966999515986
30
0
11
1395.93400184064
21
670.229665764782
31
0
0
LINE
8
layer0
10
1395.93400184064
20
670.229665764782
30
0
11
1267.76224208055
21
707.229665764782
31
0
0
LINE
8
layer0
10
1268.49447512758
20
704.801936006525
30
0
11
1267.76224208055
21
707.229665764782
31
0
0
LINE
8
layer0
10
1267.76224208055
20
707.229665764782
30
0
11
1395.93400184064
21
670.229665764782
31
0
0
LINE
8
layer0
10
1395.93400184064
20
670.229665764782
30
0
11
1396.66623488768
21
667.801936006525
31
0
0
LINE
8
layer0
10
1396.66623488768
20
667.801936006525
30
0
11
1268.49447512758
21
704.801936006525
31
0
0
LINE
8
layer0
10
1267.76224208055
20
701.105941407824
30
0
11
1268.49447512758
21
704.801936006525
31
0
0
LINE
8
layer0
10
1268.49447512758
20
704.801936006525
30
0
11
1396.66623488768
21
667.801936006525
31
0
0
LINE
8
layer0
10
1396.66623488768
20
667.801936006525
30
0
11
1395.93400184064
21
664.105941407824
31
0
0
LINE
8
layer0
10
1395.93400184064
20
664.105941407824
30
0
11
1267.76224208055
21
701.105941407824
31
0
0
LINE
8
layer0
10
1265.99447512758
20
698.306745478141
30
0
11
1267.76224208055
21
701.105941407824
31
0
0
LINE
8
layer0
10
1267.76224208055
20
701.105941407824
30
0
11
1395.93400184064
21
664.105941407824
31
0
0
LINE
8
layer0
10
1395.93400184064
20
664.105941407824
30
0
11
1394.16623488768
21
661.306745478141
31
0
0
LINE
8
layer0
10
1394.16623488768
20
661.306745478141
30
0
11
1265.99447512758
21
698.306745478141
31
0
0
LINE
8
layer0
10
1264.22670817462
20
698.044079229345
30
0
11
1265.99447512758
21
698.306745478141
31
0
0
LINE
8
layer0
10
1265.99447512758
20
698.306745478141
30
0
11
1394.16623488768
21
661.306745478141
31
0
0
LINE
8
layer0
10
1394.16623488768
20
661.306745478141
30
0
11
1392.39846793471
21
661.044079229345
31
0
0
LINE
8
layer0
10
1392.39846793471
20
661.044079229345
30
0
11
1264.22670817462
21
698.044079229345
31
0
0
LINE
8
layer0
10
1263.49447512758
20
700.471808987603
30
0
11
1264.22670817462
21
698.044079229345
31
0
0
LINE
8
layer0
10
1264.22670817462
20
698.044079229345
30
0
11
1392.39846793471
21
661.044079229345
31
0
0
LINE
8
layer0
10
1392.39846793471
20
661.044079229345
30
0
11
1391.66623488768
21
663.471808987603
31
0
0
LINE
8
layer0
10
1391.66623488768
20
663.471808987603
30
0
11
1263.49447512758
21
700.471808987603
31
0
0
LINE
8
layer0
10
1264.22670817462
20
704.167803586303
30
0
11
1263.49447512758
21
700.471808987603
31
0
0
LINE
8
layer0
10
1263.49447512758
20
700.471808987603
30
0
11
1391.66623488768
21
663.471808987603
31
0
0
LINE
8
layer0
10
1391.66623488768
20
663.471808987603
30
0
11
1392.39846793471
21
667.167803586303
31
0
0
LINE
8
layer0
10
1392.39846793471
20
667.167803586303
30
0
11
1264.22670817462
21
704.167803586303
31
0
0
LINE
8
layer0
10
1265.99447512758
20
706.966999515986
30
0
11
1264.22670817462
21
704.167803586303
31
0
0
LINE
8
layer0
10
1264.22670817462
20
704.167803586303
30
0
11
1392.39846793471
21
667.167803586303
31
0
0
LINE
8
layer0
10
1392.39846793471
20
667.167803586303
30
0
11
1394.16623488768
21
669.966999515986
31
0
0
LINE
8
layer0
10
1394.16623488768
20
669.966999515986
30
0
11
1265.99447512758
21
706.966999515986
31
0
0
LINE
8
layer0
10
1394.16623488768
20
669.966999515986
30
0
11
1392.39846793471
21
667.167803586303
31
0
0
LINE
8
layer0
10
1392.39846793471
20
667.167803586303
30
0
11
1391.66623488768
21
663.471808987603
31
0
0
LINE
8
layer0
10
1391.66623488768
20
663.471808987603
30
0
11
1392.39846793471
21
661.044079229345
31
0
0
LINE
8
layer0
10
1392.39846793471
20
661.044079229345
30
0
11
1394.16623488768
21
661.306745478141
31
0
0
LINE
8
layer0
10
1394.16623488768
20
661.306745478141
30
0
11
1395.93400184064
21
664.105941407824
31
0
0
LINE
8
layer0
10
1395.93400184064
20
664.105941407824
30
0
11
1396.66623488768
21
667.801936006525
31
0
0
LINE
8
layer0
10
1396.66623488768
20
667.801936006525
30
0
11
1395.93400184064
21
670.229665764782
31
0
0
LINE
8
layer0
10
1395.93400184064
20
670.229665764782
30
0
11
1394.16623488768
21
669.966999515986
31
0
0
LINE
8
layer0
10
1264.22670817462
20
704.167803586303
30
0
11
1265.99447512758
21
706.966999515986
31
0
0
LINE
8
layer0
10
1265.99447512758
20
706.966999515986
30
0
11
1267.76224208055
21
707.229665764782
31
0
0
LINE
8
layer0
10
1267.76224208055
20
707.229665764782
30
0
11
1268.49447512758
21
704.801936006525
31
0
0
LINE
8
layer0
10
1268.49447512758
20
704.801936006525
30
0
11
1267.76224208055
21
701.105941407824
31
0
0
LINE
8
layer0
10
1267.76224208055
20
701.105941407824
30
0
11
1265.99447512758
21
698.306745478141
31
0
0
LINE
8
layer0
10
1265.99447512758
20
698.306745478141
30
0
11
1264.22670817462
21
698.044079229345
31
0
0
LINE
8
layer0
10
1264.22670817462
20
698.044079229345
30
0
11
1263.49447512758
21
700.471808987603
31
0
0
LINE
8
layer0
10
1263.49447512758
20
700.471808987603
30
0
11
1264.22670817462
21
704.167803586303
31
0
0
ENDBLK
0
BLOCK
8
layer0
2
PF_OBJECT64
70
0
10
0
20
0
30
0
0
LINE
8
layer0
10
1293.31498320327
20
701.966999515986
30
0
11
1275.99447512758
21
706.966999515986
31
0
0
LINE
8
layer0
10
1275.99447512758
20
706.966999515986
30
0
11
1275.99447512758
21
715.62725355383
31
0
0
LINE
8
layer0
10
1275.99447512758
20
715.62725355383
30
0
11
1293.31498320327
21
710.62725355383
31
0
0
LINE
8
layer0
10
1293.31498320327
20
710.62725355383
30
0
11
1293.31498320327
21
701.966999515986
31
0
0
LINE
8
layer0
10
1265.99447512758
20
698.306745478141
30
0
11
1283.31498320327
21
693.306745478141
31
0
0
LINE
8
layer0
10
1283.31498320327
20
693.306745478141
30
0
11
1283.31498320327
21
701.966999515986
31
0
0
LINE
8
layer0
10
1283.31498320327
20
701.966999515986
30
0
11
1265.99447512758
21
706.966999515986
31
0
0
LINE
8
layer0
10
1265.99447512758
20
706.966999515986
30
0
11
1265.99447512758
21
698.306745478141
31
0
0
LINE
8
layer0
10
1275.99447512758
20
706.966999515986
30
0
11
1265.99447512758
21
698.306745478141
31
0
0
LINE
8
layer0
10
1265.99447512758
20
698.306745478141
30
0
11
1265.99447512758
21
706.966999515986
31
0
0
LINE
8
layer0
10
1265.99447512758
20
706.966999515986
30
0
11
1275.99447512758
21
715.62725355383
31
0
0
LINE
8
layer0
10
1275.99447512758
20
715.62725355383
30
0
11
1275.99447512758
21
706.966999515986
31
0
0
LINE
8
layer0
10
1283.31498320327
20
693.306745478141
30
0
11
1293.31498320327
21
701.966999515986
31
0
0
LINE
8
layer0
10
1293.31498320327
20
701.966999515986
30
0
11
1293.31498320327
21
710.62725355383
31
0
0
LINE
8
layer0
10
1293.31498320327
20
710.62725355383
30
0
11
1283.31498320327
21
701.966999515986
31
0
0
LINE
8
layer0
10
1283.31498320327
20
701.966999515986
30
0
11
1283.31498320327
21
693.306745478141
31
0
0
LINE
8
layer0
10
1293.31498320327
20
710.62725355383
30
0
11
1275.99447512758
21
715.62725355383
31
0
0
LINE
8
layer0
10
1275.99447512758
20
715.62725355383
30
0
11
1265.99447512758
21
706.966999515986
31
0
0
LINE
8
layer0
10
1265.99447512758
20
706.966999515986
30
0
11
1283.31498320327
21
701.966999515986
31
0
0
LINE
8
layer0
10
1283.31498320327
20
701.966999515986
30
0
11
1293.31498320327
21
710.62725355383
31
0
0
LINE
8
layer0
10
1275.99447512758
20
706.966999515986
30
0
11
1293.31498320327
21
701.966999515986
31
0
0
LINE
8
layer0
10
1293.31498320327
20
701.966999515986
30
0
11
1283.31498320327
21
693.306745478141
31
0
0
LINE
8
layer0
10
1283.31498320327
20
693.306745478141
30
0
11
1265.99447512758
21
698.306745478141
31
0
0
LINE
8
layer0
10
1265.99447512758
20
698.306745478141
30
0
11
1275.99447512758
21
706.966999515986
31
0
0
ENDBLK
0
BLOCK
8
layer0
2
PF_OBJECT65
70
0
10
0
20
0
30
0
0
LINE
8
layer0
10
1404.16623488768
20
669.966999515986
30
0
11
1386.84572681199
21
674.966999515986
31
0
0
LINE
8
layer0
10
1386.84572681199
20
674.966999515986
30
0
11
1386.84572681199
21
683.62725355383
31
0
0
LINE
8
layer0
10
1386.84572681199
20
683.62725355383
30
0
11
1404.16623488768
21
678.62725355383
31
0
0
LINE
8
layer0
10
1404.16623488768
20
678.62725355383
30
0
11
1404.16623488768
21
669.966999515986
31
0
0
LINE
8
layer0
10
1376.84572681199
20
666.306745478141
30
0
11
1394.16623488768
21
661.306745478141
31
0
0
LINE
8
layer0
10
1394.16623488768
20
661.306745478141
30
0
11
1394.16623488768
21
669.966999515986
31
0
0
LINE
8
layer0
10
1394.16623488768
20
669.966999515986
30
0
11
1376.84572681199
21
674.966999515986
31
0
0
LINE
8
layer0
10
1376.84572681199
20
674.966999515986
30
0
11
1376.84572681199
21
666.306745478141
31
0
0
LINE
8
layer0
10
1386.84572681199
20
674.966999515986
30
0
11
1376.84572681199
21
666.306745478141
31
0
0
LINE
8
layer0
10
1376.84572681199
20
666.306745478141
30
0
11
1376.84572681199
21
674.966999515986
31
0
0
LINE
8
layer0
10
1376.84572681199
20
674.966999515986
30
0
11
1386.84572681199
21
683.62725355383
31
0
0
LINE
8
layer0
10
1386.84572681199
20
683.62725355383
30
0
11
1386.84572681199
21
674.966999515986
31
0
0
LINE
8
layer0
10
1394.16623488768
20
661.306745478141
30
0
11
1404.16623488768
21
669.966999515986
31
0
0
LINE
8
layer0
10
1404.16623488768
20
669.966999515986
30
0
11
1404.16623488768
21
678.62725355383
31
0
0
LINE
8
layer0
10
1404.16623488768
20
678.62725355383
30
0
11
1394.16623488768
21
669.966999515986
31
0
0
LINE
8
layer0
10
1394.16623488768
20
669.966999515986
30
0
11
1394.16623488768
21
661.306745478141
31
0
0
LINE
8
layer0
10
1404.16623488768
20
678.62725355383
30
0
11
1386.84572681199
21
683.62725355383
31
0
0
LINE
8
layer0
10
1386.84572681199
20
683.62725355383
30
0
11
1376.84572681199
21
674.966999515986
31
0
0
LINE
8
layer0
10
1376.84572681199
20
674.966999515986
30
0
11
1394.16623488768
21
669.966999515986
31
0
0
LINE
8
layer0
10
1394.16623488768
20
669.966999515986
30
0
11
1404.16623488768
21
678.62725355383
31
0
0
LINE
8
layer0
10
1386.84572681199
20
674.966999515986
30
0
11
1404.16623488768
21
669.966999515986
31
0
0
LINE
8
layer0
10
1404.16623488768
20
669.966999515986
30
0
11
1394.16623488768
21
661.306745478141
31
0
0
LINE
8
layer0
10
1394.16623488768
20
661.306745478141
30
0
11
1376.84572681199
21
666.306745478141
31
0
0
LINE
8
layer0
10
1376.84572681199
20
666.306745478141
30
0
11
1386.84572681199
21
674.966999515986
31
0
0
ENDBLK
0
BLOCK
8
layer0
2
PF_OBJECT66
70
0
10
0
20
0
30
0
0
LINE
8
layer0
10
1437.54892078986
20
638.968288210022
30
0
11
923.129830941902
21
787.468288210021
31
0
0
LINE
8
layer0
10
923.129830941902
20
787.468288210021
30
0
11
923.129830941902
21
1399.74824868562
31
0
0
LINE
8
layer0
10
923.129830941902
20
1399.74824868562
30
0
11
1437.54892078986
21
1251.24824868562
31
0
0
LINE
8
layer0
10
1437.54892078986
20
1251.24824868562
30
0
11
1437.54892078986
21
638.968288210022
31
0
0
LINE
8
layer0
10
913.129830941902
20
778.808034172177
30
0
11
1427.54892078986
21
630.308034172177
31
0
0
LINE
8
layer0
10
1427.54892078986
20
630.308034172177
30
0
11
1427.54892078986
21
1242.58799464778
31
0
0
LINE
8
layer0
10
1427.54892078986
20
1242.58799464778
30
0
11
913.129830941902
21
1391.08799464778
31
0
0
LINE
8
layer0
10
913.129830941902
20
1391.08799464778
30
0
11
913.129830941902
21
778.808034172177
31
0
0
LINE
8
layer0
10
923.129830941902
20
787.468288210021
30
0
11
913.129830941902
21
778.808034172177
31
0
0
LINE
8
layer0
10
913.129830941902
20
778.808034172177
30
0
11
913.129830941902
21
1391.08799464778
31
0
0
LINE
8
layer0
10
913.129830941902
20
1391.08799464778
30
0
11
923.129830941902
21
1399.74824868562
31
0
0
LINE
8
layer0
10
923.129830941902
20
1399.74824868562
30
0
11
923.129830941902
21
787.468288210021
31
0
0
LINE
8
layer0
10
1427.54892078986
20
630.308034172177
30
0
11
1437.54892078986
21
638.968288210022
31
0
0
LINE
8
layer0
10
1437.54892078986
20
638.968288210022
30
0
11
1437.54892078986
21
1251.24824868562
31
0
0
LINE
8
layer0
10
1437.54892078986
20
1251.24824868562
30
0
11
1427.54892078986
21
1242.58799464778
31
0
0
LINE
8
layer0
10
1427.54892078986
20
1242.58799464778
30
0
11
1427.54892078986
21
630.308034172177
31
0
0
LINE
8
layer0
10
1437.54892078986
20
1251.24824868562
30
0
11
923.129830941902
21
1399.74824868562
31
0
0
LINE
8
layer0
10
923.129830941902
20
1399.74824868562
30
0
11
913.129830941902
21
1391.08799464778
31
0
0
LINE
8
layer0
10
913.129830941902
20
1391.08799464778
30
0
11
1427.54892078986
21
1242.58799464778
31
0
0
LINE
8
layer0
10
1427.54892078986
20
1242.58799464778
30
0
11
1437.54892078986
21
1251.24824868562
31
0
0
LINE
8
layer0
10
923.129830941902
20
787.468288210021
30
0
11
1437.54892078986
21
638.968288210022
31
0
0
LINE
8
layer0
10
1437.54892078986
20
638.968288210022
30
0
11
1427.54892078986
21
630.308034172177
31
0
0
LINE
8
layer0
10
1427.54892078986
20
630.308034172177
30
0
11
913.129830941902
21
778.808034172177
31
0
0
LINE
8
layer0
10
913.129830941902
20
778.808034172177
30
0
11
923.129830941902
21
787.468288210021
31
0
0
ENDBLK
0
BLOCK
8
layer0
70
0
10
0
20
0
30
0
2
PF_SKETCH67
0
LINE
8
layer0
10
1082.53175473055
20
1543.39244031005
30
0
11
1441.64699700121
21
1254.39536300265
31
0
0
ENDBLK
0
BLOCK
8
layer0
70
0
10
0
20
0
30
0
2
PF_SKETCH68
0
LINE
8
layer0
10
922.031754730548
20
1404.39536300265
30
0
11
1602.14699700121
21
1393.39244031005
31
0
0
ENDBLK
0
BLOCK
8
layer0
2
PF_OBJECT69
70
0
10
0
20
0
30
0
0
LINE
8
layer0
10
1616.00340346176
20
771.916327411747
30
0
11
1602.14699700121
21
775.916327411747
31
0
0
LINE
8
layer0
10
1602.14699700121
20
775.916327411747
30
0
11
1602.14699700121
21
1393.39244031005
31
0
0
LINE
8
layer0
10
1602.14699700121
20
1393.39244031005
30
0
11
1616.00340346176
21
1389.39244031005
31
0
0
LINE
8
layer0
10
1616.00340346176
20
1389.39244031005
30
0
11
1616.00340346176
21
771.916327411747
31
0
0
LINE
8
layer0
10
1441.64699700121
20
636.919250104345
30
0
11
1455.50340346176
21
632.919250104345
31
0
0
LINE
8
layer0
10
1455.50340346176
20
632.919250104345
30
0
11
1455.50340346176
21
1250.39536300265
31
0
0
LINE
8
layer0
10
1455.50340346176
20
1250.39536300265
30
0
11
1441.64699700121
21
1254.39536300265
31
0
0
LINE
8
layer0
10
1441.64699700121
20
1254.39536300265
30
0
11
1441.64699700121
21
636.919250104345
31
0
0
LINE
8
layer0
10
1602.14699700121
20
775.916327411747
30
0
11
1441.64699700121
21
636.919250104345
31
0
0
LINE
8
layer0
10
1441.64699700121
20
636.919250104345
30
0
11
1441.64699700121
21
1254.39536300265
31
0
0
LINE
8
layer0
10
1441.64699700121
20
1254.39536300265
30
0
11
1602.14699700121
21
1393.39244031005
31
0
0
LINE
8
layer0
10
1602.14699700121
20
1393.39244031005
30
0
11
1602.14699700121
21
775.916327411747
31
0
0
LINE
8
layer0
10
1455.50340346176
20
632.919250104345
30
0
11
1616.00340346176
21
771.916327411747
31
0
0
LINE
8
layer0
10
1616.00340346176
20
771.916327411747
30
0
11
1616.00340346176
21
1389.39244031005
31
0
0
LINE
8
layer0
10
1616.00340346176
20
1389.39244031005
30
0
11
1455.50340346176
21
1250.39536300265
31
0
0
LINE
8
layer0
10
1455.50340346176
20
1250.39536300265
30
0
11
1455.50340346176
21
632.919250104345
31
0
0
LINE
8
layer0
10
1616.00340346176
20
1389.39244031005
30
0
11
1602.14699700121
21
1393.39244031005
31
0
0
LINE
8
layer0
10
1602.14699700121
20
1393.39244031005
30
0
11
1441.64699700121
21
1254.39536300265
31
0
0
LINE
8
layer0
10
1441.64699700121
20
1254.39536300265
30
0
11
1455.50340346176
21
1250.39536300265
31
0
0
LINE
8
layer0
10
1455.50340346176
20
1250.39536300265
30
0
11
1616.00340346176
21
1389.39244031005
31
0
0
LINE
8
layer0
10
1602.14699700121
20
775.916327411747
30
0
11
1616.00340346176
21
771.916327411747
31
0
0
LINE
8
layer0
10
1616.00340346176
20
771.916327411747
30
0
11
1455.50340346176
21
632.919250104345
31
0
0
LINE
8
layer0
10
1455.50340346176
20
632.919250104345
30
0
11
1441.64699700121
21
636.919250104345
31
0
0
LINE
8
layer0
10
1441.64699700121
20
636.919250104345
30
0
11
1602.14699700121
21
775.916327411747
31
0
0
ENDBLK
0
BLOCK
8
layer0
2
PF_OBJECT70
70
0
10
0
20
0
30
0
0
LINE
8
layer0
10
2121.76223927187
20
625.916327411747
30
0
11
2107.90583281132
21
629.916327411747
31
0
0
LINE
8
layer0
10
2107.90583281132
20
629.916327411747
30
0
11
2107.90583281132
21
1247.39244031005
31
0
0
LINE
8
layer0
10
2107.90583281132
20
1247.39244031005
30
0
11
2121.76223927187
21
1243.39244031005
31
0
0
LINE
8
layer0
10
2121.76223927187
20
1243.39244031005
30
0
11
2121.76223927187
21
625.916327411747
31
0
0
LINE
8
layer0
10
1947.40583281132
20
490.919250104345
30
0
11
1961.26223927187
21
486.919250104345
31
0
0
LINE
8
layer0
10
1961.26223927187
20
486.919250104345
30
0
11
1961.26223927187
21
1104.39536300265
31
0
0
LINE
8
layer0
10
1961.26223927187
20
1104.39536300265
30
0
11
1947.40583281132
21
1108.39536300265
31
0
0
LINE
8
layer0
10
1947.40583281132
20
1108.39536300265
30
0
11
1947.40583281132
21
490.919250104345
31
0
0
LINE
8
layer0
10
2107.90583281132
20
629.916327411747
30
0
11
1947.40583281132
21
490.919250104345
31
0
0
LINE
8
layer0
10
1947.40583281132
20
490.919250104345
30
0
11
1947.40583281132
21
1108.39536300265
31
0
0
LINE
8
layer0
10
1947.40583281132
20
1108.39536300265
30
0
11
2107.90583281132
21
1247.39244031005
31
0
0
LINE
8
layer0
10
2107.90583281132
20
1247.39244031005
30
0
11
2107.90583281132
21
629.916327411747
31
0
0
LINE
8
layer0
10
1961.26223927187
20
486.919250104345
30
0
11
2121.76223927187
21
625.916327411747
31
0
0
LINE
8
layer0
10
2121.76223927187
20
625.916327411747
30
0
11
2121.76223927187
21
1243.39244031005
31
0
0
LINE
8
layer0
10
2121.76223927187
20
1243.39244031005
30
0
11
1961.26223927187
21
1104.39536300265
31
0
0
LINE
8
layer0
10
1961.26223927187
20
1104.39536300265
30
0
11
1961.26223927187
21
486.919250104345
31
0
0
LINE
8
layer0
10
2121.76223927187
20
1243.39244031005
30
0
11
2107.90583281132
21
1247.39244031005
31
0
0
LINE
8
layer0
10
2107.90583281132
20
1247.39244031005
30
0
11
1947.40583281132
21
1108.39536300265
31
0
0
LINE
8
layer0
10
1947.40583281132
20
1108.39536300265
30
0
11
1961.26223927187
21
1104.39536300265
31
0
0
LINE
8
layer0
10
1961.26223927187
20
1104.39536300265
30
0
11
2121.76223927187
21
1243.39244031005
31
0
0
LINE
8
layer0
10
2107.90583281132
20
629.916327411747
30
0
11
2121.76223927187
21
625.916327411747
31
0
0
LINE
8
layer0
10
2121.76223927187
20
625.916327411747
30
0
11
1961.26223927187
21
486.919250104345
31
0
0
LINE
8
layer0
10
1961.26223927187
20
486.919250104345
30
0
11
1947.40583281132
21
490.919250104345
31
0
0
LINE
8
layer0
10
1947.40583281132
20
490.919250104345
30
0
11
2107.90583281132
21
629.916327411747
31
0
0
ENDBLK
0
BLOCK
8
layer0
2
PF_OBJECT71
70
0
10
0
20
0
30
0
0
LINE
8
layer0
10
2095.90583281132
20
619.524022566334
30
0
11
1604.00340346176
21
761.524022566334
31
0
0
LINE
8
layer0
10
1604.00340346176
20
761.524022566334
30
0
11
1604.00340346176
21
775.380429026885
31
0
0
LINE
8
layer0
10
1604.00340346176
20
775.380429026885
30
0
11
2095.90583281132
21
633.380429026885
31
0
0
LINE
8
layer0
10
2095.90583281132
20
633.380429026885
30
0
11
2095.90583281132
21
619.524022566334
31
0
0
LINE
8
layer0
10
1456.00340346176
20
633.352262806237
30
0
11
1947.90583281132
21
491.352262806237
31
0
0
LINE
8
layer0
10
1947.90583281132
20
491.352262806237
30
0
11
1947.90583281132
21
505.208669266788
31
0
0
LINE
8
layer0
10
1947.90583281132
20
505.208669266788
30
0
11
1456.00340346176
21
647.208669266788
31
0
0
LINE
8
layer0
10
1456.00340346176
20
647.208669266788
30
0
11
1456.00340346176
21
633.352262806237
31
0
0
LINE
8
layer0
10
1604.00340346176
20
761.524022566334
30
0
11
1456.00340346176
21
633.352262806237
31
0
0
LINE
8
layer0
10
1456.00340346176
20
633.352262806237
30
0
11
1456.00340346176
21
647.208669266788
31
0
0
LINE
8
layer0
10
1456.00340346176
20
647.208669266788
30
0
11
1604.00340346176
21
775.380429026885
31
0
0
LINE
8
layer0
10
1604.00340346176
20
775.380429026885
30
0
11
1604.00340346176
21
761.524022566334
31
0
0
LINE
8
layer0
10
1947.90583281132
20
491.352262806237
30
0
11
2095.90583281132
21
619.524022566334
31
0
0
LINE
8
layer0
10
2095.90583281132
20
619.524022566334
30
0
11
2095.90583281132
21
633.380429026885
31
0
0
LINE
8
layer0
10
2095.90583281132
20
633.380429026885
30
0
11
1947.90583281132
21
505.208669266788
31
0
0
LINE
8
layer0
10
1947.90583281132
20
505.208669266788
30
0
11
1947.90583281132
21
491.352262806237
31
0
0
LINE
8
layer0
10
2095.90583281132
20
633.380429026885
30
0
11
1604.00340346176
21
775.380429026885
31
0
0
LINE
8
layer0
10
1604.00340346176
20
775.380429026885
30
0
11
1456.00340346176
21
647.208669266788
31
0
0
LINE
8
layer0
10
1456.00340346176
20
647.208669266788
30
0
11
1947.90583281132
21
505.208669266788
31
0
0
LINE
8
layer0
10
1947.90583281132
20
505.208669266788
30
0
11
2095.90583281132
21
633.380429026885
31
0
0
LINE
8
layer0
10
1604.00340346176
20
761.524022566334
30
0
11
2095.90583281132
21
619.524022566334
31
0
0
LINE
8
layer0
10
2095.90583281132
20
619.524022566334
30
0
11
1947.90583281132
21
491.352262806237
31
0
0
LINE
8
layer0
10
1947.90583281132
20
491.352262806237
30
0
11
1456.00340346176
21
633.352262806237
31
0
0
LINE
8
layer0
10
1456.00340346176
20
633.352262806237
30
0
11
1604.00340346176
21
761.524022566334
31
0
0
ENDBLK
0
BLOCK
8
layer0
2
PF_OBJECT72
70
0
10
0
20
0
30
0
0
LINE
8
layer0
10
2097.90583281132
20
621.256073373903
30
0
11
1606.00340346176
21
763.256073373903
31
0
0
LINE
8
layer0
10
1606.00340346176
20
763.256073373903
30
0
11
1606.00340346176
21
1380.73218627221
31
0
0
LINE
8
layer0
10
1606.00340346176
20
1380.73218627221
30
0
11
2097.90583281132
21
1238.73218627221
31
0
0
LINE
8
layer0
10
2097.90583281132
20
1238.73218627221
30
0
11
2097.90583281132
21
621.256073373903
31
0
0
LINE
8
layer0
10
1604.00340346176
20
761.524022566334
30
0
11
2095.90583281132
21
619.524022566334
31
0
0
LINE
8
layer0
10
2095.90583281132
20
619.524022566334
30
0
11
2095.90583281132
21
1237.00013546464
31
0
0
LINE
8
layer0
10
2095.90583281132
20
1237.00013546464
30
0
11
1604.00340346176
21
1379.00013546464
31
0
0
LINE
8
layer0
10
1604.00340346176
20
1379.00013546464
30
0
11
1604.00340346176
21
761.524022566334
31
0
0
LINE
8
layer0
10
1606.00340346176
20
763.256073373903
30
0
11
1604.00340346176
21
761.524022566334
31
0
0
LINE
8
layer0
10
1604.00340346176
20
761.524022566334
30
0
11
1604.00340346176
21
1379.00013546464
31
0
0
LINE
8
layer0
10
1604.00340346176
20
1379.00013546464
30
0
11
1606.00340346176
21
1380.73218627221
31
0
0
LINE
8
layer0
10
1606.00340346176
20
1380.73218627221
30
0
11
1606.00340346176
21
763.256073373903
31
0
0
LINE
8
layer0
10
2095.90583281132
20
619.524022566334
30
0
11
2097.90583281132
21
621.256073373903
31
0
0
LINE
8
layer0
10
2097.90583281132
20
621.256073373903
30
0
11
2097.90583281132
21
1238.73218627221
31
0
0
LINE
8
layer0
10
2097.90583281132
20
1238.73218627221
30
0
11
2095.90583281132
21
1237.00013546464
31
0
0
LINE
8
layer0
10
2095.90583281132
20
1237.00013546464
30
0
11
2095.90583281132
21
619.524022566334
31
0
0
LINE
8
layer0
10
2097.90583281132
20
1238.73218627221
30
0
11
1606.00340346176
21
1380.73218627221
31
0
0
LINE
8
layer0
10
1606.00340346176
20
1380.73218627221
30
0
11
1604.00340346176
21
1379.00013546464
31
0
0
LINE
8
layer0
10
1604.00340346176
20
1379.00013546464
30
0
11
2095.90583281132
21
1237.00013546464
31
0
0
LINE
8
layer0
10
2095.90583281132
20
1237.00013546464
30
0
11
2097.90583281132
21
1238.73218627221
31
0
0
LINE
8
layer0
10
1606.00340346176
20
763.256073373903
30
0
11
2097.90583281132
21
621.256073373903
31
0
0
LINE
8
layer0
10
2097.90583281132
20
621.256073373903
30
0
11
2095.90583281132
21
619.524022566334
31
0
0
LINE
8
layer0
10
2095.90583281132
20
619.524022566334
30
0
11
1604.00340346176
21
761.524022566334
31
0
0
LINE
8
layer0
10
1604.00340346176
20
761.524022566334
30
0
11
1606.00340346176
21
763.256073373903
31
0
0
ENDBLK
0
BLOCK
8
layer0
2
PF_OBJECT73
70
0
10
0
20
0
30
0
0
LINE
8
layer0
10
2095.90583281132
20
1223.14372900409
30
0
11
1604.00340346176
21
1365.14372900409
31
0
0
LINE
8
layer0
10
1604.00340346176
20
1365.14372900409
30
0
11
1604.00340346176
21
1379.00013546464
31
0
0
LINE
8
layer0
10
1604.00340346176
20
1379.00013546464
30
0
11
2095.90583281132
21
1237.00013546464
31
0
0
LINE
8
layer0
10
2095.90583281132
20
1237.00013546464
30
0
11
2095.90583281132
21
1223.14372900409
31
0
0
LINE
8
layer0
10
1456.00340346176
20
1236.97196924399
30
0
11
1947.90583281132
21
1094.97196924399
31
0
0
LINE
8
layer0
10
1947.90583281132
20
1094.97196924399
30
0
11
1947.90583281132
21
1108.82837570454
31
0
0
LINE
8
layer0
10
1947.90583281132
20
1108.82837570454
30
0
11
1456.00340346176
21
1250.82837570454
31
0
0
LINE
8
layer0
10
1456.00340346176
20
1250.82837570454
30
0
11
1456.00340346176
21
1236.97196924399
31
0
0
LINE
8
layer0
10
1604.00340346176
20
1365.14372900409
30
0
11
1456.00340346176
21
1236.97196924399
31
0
0
LINE
8
layer0
10
1456.00340346176
20
1236.97196924399
30
0
11
1456.00340346176
21
1250.82837570454
31
0
0
LINE
8
layer0
10
1456.00340346176
20
1250.82837570454
30
0
11
1604.00340346176
21
1379.00013546464
31
0
0
LINE
8
layer0
10
1604.00340346176
20
1379.00013546464
30
0
11
1604.00340346176
21
1365.14372900409
31
0
0
LINE
8
layer0
10
1947.90583281132
20
1094.97196924399
30
0
11
2095.90583281132
21
1223.14372900409
31
0
0
LINE
8
layer0
10
2095.90583281132
20
1223.14372900409
30
0
11
2095.90583281132
21
1237.00013546464
31
0
0
LINE
8
layer0
10
2095.90583281132
20
1237.00013546464
30
0
11
1947.90583281132
21
1108.82837570454
31
0
0
LINE
8
layer0
10
1947.90583281132
20
1108.82837570454
30
0
11
1947.90583281132
21
1094.97196924399
31
0
0
LINE
8
layer0
10
2095.90583281132
20
1237.00013546464
30
0
11
1604.00340346176
21
1379.00013546464
31
0
0
LINE
8
layer0
10
1604.00340346176
20
1379.00013546464
30
0
11
1456.00340346176
21
1250.82837570454
31
0
0
LINE
8
layer0
10
1456.00340346176
20
1250.82837570454
30
0
11
1947.90583281132
21
1108.82837570454
31
0
0
LINE
8
layer0
10
1947.90583281132
20
1108.82837570454
30
0
11
2095.90583281132
21
1237.00013546464
31
0
0
LINE
8
layer0
10
1604.00340346176
20
1365.14372900409
30
0
11
2095.90583281132
21
1223.14372900409
31
0
0
LINE
8
layer0
10
2095.90583281132
20
1223.14372900409
30
0
11
1947.90583281132
21
1094.97196924399
31
0
0
LINE
8
layer0
10
1947.90583281132
20
1094.97196924399
30
0
11
1456.00340346176
21
1236.97196924399
31
0
0
LINE
8
layer0
10
1456.00340346176
20
1236.97196924399
30
0
11
1604.00340346176
21
1365.14372900409
31
0
0
ENDBLK
0
BLOCK
8
layer0
2
PF_OBJECT74
70
0
10
0
20
0
30
0
0
LINE
8
layer0
10
1447.89552606771
20
655.229665764782
30
0
11
1446.12775911474
21
654.966999515986
31
0
0
LINE
8
layer0
10
1446.12775911474
20
654.966999515986
30
0
11
1574.29951887484
21
617.966999515986
31
0
0
LINE
8
layer0
10
1574.29951887484
20
617.966999515986
30
0
11
1576.06728582781
21
618.229665764782
31
0
0
LINE
8
layer0
10
1576.06728582781
20
618.229665764782
30
0
11
1447.89552606771
21
655.229665764782
31
0
0
LINE
8
layer0
10
1448.62775911474
20
652.801936006525
30
0
11
1447.89552606771
21
655.229665764782
31
0
0
LINE
8
layer0
10
1447.89552606771
20
655.229665764782
30
0
11
1576.06728582781
21
618.229665764782
31
0
0
LINE
8
layer0
10
1576.06728582781
20
618.229665764782
30
0
11
1576.79951887484
21
615.801936006525
31
0
0
LINE
8
layer0
10
1576.79951887484
20
615.801936006525
30
0
11
1448.62775911474
21
652.801936006525
31
0
0
LINE
8
layer0
10
1447.89552606771
20
649.105941407824
30
0
11
1448.62775911474
21
652.801936006525
31
0
0
LINE
8
layer0
10
1448.62775911474
20
652.801936006525
30
0
11
1576.79951887484
21
615.801936006525
31
0
0
LINE
8
layer0
10
1576.79951887484
20
615.801936006525
30
0
11
1576.06728582781
21
612.105941407824
31
0
0
LINE
8
layer0
10
1576.06728582781
20
612.105941407824
30
0
11
1447.89552606771
21
649.105941407824
31
0
0
LINE
8
layer0
10
1446.12775911474
20
646.306745478141
30
0
11
1447.89552606771
21
649.105941407824
31
0
0
LINE
8
layer0
10
1447.89552606771
20
649.105941407824
30
0
11
1576.06728582781
21
612.105941407824
31
0
0
LINE
8
layer0
10
1576.06728582781
20
612.105941407824
30
0
11
1574.29951887484
21
609.306745478141
31
0
0
LINE
8
layer0
10
1574.29951887484
20
609.306745478141
30
0
11
1446.12775911474
21
646.306745478141
31
0
0
LINE
8
layer0
10
1444.35999216178
20
646.044079229345
30
0
11
1446.12775911474
21
646.306745478141
31
0
0
LINE
8
layer0
10
1446.12775911474
20
646.306745478141
30
0
11
1574.29951887484
21
609.306745478141
31
0
0
LINE
8
layer0
10
1574.29951887484
20
609.306745478141
30
0
11
1572.53175192188
21
609.044079229345
31
0
0
LINE
8
layer0
10
1572.53175192188
20
609.044079229345
30
0
11
1444.35999216178
21
646.044079229345
31
0
0
LINE
8
layer0
10
1443.62775911474
20
648.471808987603
30
0
11
1444.35999216178
21
646.044079229345
31
0
0
LINE
8
layer0
10
1444.35999216178
20
646.044079229345
30
0
11
1572.53175192188
21
609.044079229345
31
0
0
LINE
8
layer0
10
1572.53175192188
20
609.044079229345
30
0
11
1571.79951887484
21
611.471808987603
31
0
0
LINE
8
layer0
10
1571.79951887484
20
611.471808987603
30
0
11
1443.62775911474
21
648.471808987603
31
0
0
LINE
8
layer0
10
1444.35999216178
20
652.167803586303
30
0
11
1443.62775911474
21
648.471808987603
31
0
0
LINE
8
layer0
10
1443.62775911474
20
648.471808987603
30
0
11
1571.79951887484
21
611.471808987603
31
0
0
LINE
8
layer0
10
1571.79951887484
20
611.471808987603
30
0
11
1572.53175192188
21
615.167803586303
31
0
0
LINE
8
layer0
10
1572.53175192188
20
615.167803586303
30
0
11
1444.35999216178
21
652.167803586303
31
0
0
LINE
8
layer0
10
1446.12775911474
20
654.966999515986
30
0
11
1444.35999216178
21
652.167803586303
31
0
0
LINE
8
layer0
10
1444.35999216178
20
652.167803586303
30
0
11
1572.53175192188
21
615.167803586303
31
0
0
LINE
8
layer0
10
1572.53175192188
20
615.167803586303
30
0
11
1574.29951887484
21
617.966999515986
31
0
0
LINE
8
layer0
10
1574.29951887484
20
617.966999515986
30
0
11
1446.12775911474
21
654.966999515986
31
0
0
LINE
8
layer0
10
1574.29951887484
20
617.966999515986
30
0
11
1572.53175192188
21
615.167803586303
31
0
0
LINE
8
layer0
10
1572.53175192188
20
615.167803586303
30
0
11
1571.79951887484
21
611.471808987603
31
0
0
LINE
8
layer0
10
1571.79951887484
20
611.471808987603
30
0
11
1572.53175192188
21
609.044079229345
31
0
0
LINE
8
layer0
10
1572.53175192188
20
609.044079229345
30
0
11
1574.29951887484
21
609.306745478141
31
0
0
LINE
8
layer0
10
1574.29951887484
20
609.306745478141
30
0
11
1576.06728582781
21
612.105941407824
31
0
0
LINE
8
layer0
10
1576.06728582781
20
612.105941407824
30
0
11
1576.79951887484
21
615.801936006525
31
0
0
LINE
8
layer0
10
1576.79951887484
20
615.801936006525
30
0
11
1576.06728582781
21
618.229665764782
31
0
0
LINE
8
layer0
10
1576.06728582781
20
618.229665764782
30
0
11
1574.29951887484
21
617.966999515986
31
0
0
LINE
8
layer0
10
1444.35999216178
20
652.167803586303
30
0
11
1446.12775911474
21
654.966999515986
31
0
0
LINE
8
layer0
10
1446.12775911474
20
654.966999515986
30
0
11
1447.89552606771
21
655.229665764782
31
0
0
LINE
8
layer0
10
1447.89552606771
20
655.229665764782
30
0
11
1448.62775911474
21
652.801936006525
31
0
0
LINE
8
layer0
10
1448.62775911474
20
652.801936006525
30
0
11
1447.89552606771
21
649.105941407824
31
0
0
LINE
8
layer0
10
1447.89552606771
20
649.105941407824
30
0
11
1446.12775911474
21
646.306745478141
31
0
0
LINE
8
layer0
10
1446.12775911474
20
646.306745478141
30
0
11
1444.35999216178
21
646.044079229345
31
0
0
LINE
8
layer0
10
1444.35999216178
20
646.044079229345
30
0
11
1443.62775911474
21
648.471808987603
31
0
0
LINE
8
layer0
10
1443.62775911474
20
648.471808987603
30
0
11
1444.35999216178
21
652.167803586303
31
0
0
ENDBLK
0
BLOCK
8
layer0
2
PF_OBJECT75
70
0
10
0
20
0
30
0
0
LINE
8
layer0
10
1473.44826719043
20
649.966999515986
30
0
11
1456.12775911474
21
654.966999515986
31
0
0
LINE
8
layer0
10
1456.12775911474
20
654.966999515986
30
0
11
1456.12775911474
21
663.62725355383
31
0
0
LINE
8
layer0
10
1456.12775911474
20
663.62725355383
30
0
11
1473.44826719043
21
658.62725355383
31
0
0
LINE
8
layer0
10
1473.44826719043
20
658.62725355383
30
0
11
1473.44826719043
21
649.966999515986
31
0
0
LINE
8
layer0
10
1446.12775911474
20
646.306745478141
30
0
11
1463.44826719043
21
641.306745478141
31
0
0
LINE
8
layer0
10
1463.44826719043
20
641.306745478141
30
0
11
1463.44826719043
21
649.966999515986
31
0
0
LINE
8
layer0
10
1463.44826719043
20
649.966999515986
30
0
11
1446.12775911474
21
654.966999515986
31
0
0
LINE
8
layer0
10
1446.12775911474
20
654.966999515986
30
0
11
1446.12775911474
21
646.306745478141
31
0
0
LINE
8
layer0
10
1456.12775911474
20
654.966999515986
30
0
11
1446.12775911474
21
646.306745478141
31
0
0
LINE
8
layer0
10
1446.12775911474
20
646.306745478141
30
0
11
1446.12775911474
21
654.966999515986
31
0
0
LINE
8
layer0
10
1446.12775911474
20
654.966999515986
30
0
11
1456.12775911474
21
663.62725355383
31
0
0
LINE
8
layer0
10
1456.12775911474
20
663.62725355383
30
0
11
1456.12775911474
21
654.966999515986
31
0
0
LINE
8
layer0
10
1463.44826719043
20
641.306745478141
30
0
11
1473.44826719043
21
649.966999515986
31
0
0
LINE
8
layer0
10
1473.44826719043
20
649.966999515986
30
0
11
1473.44826719043
21
658.62725355383
31
0
0
LINE
8
layer0
10
1473.44826719043
20
658.62725355383
30
0
11
1463.44826719043
21
649.966999515986
31
0
0
LINE
8
layer0
10
1463.44826719043
20
649.966999515986
30
0
11
1463.44826719043
21
641.306745478141
31
0
0
LINE
8
layer0
10
1473.44826719043
20
658.62725355383
30
0
11
1456.12775911474
21
663.62725355383
31
0
0
LINE
8
layer0
10
1456.12775911474
20
663.62725355383
30
0
11
1446.12775911474
21
654.966999515986
31
0
0
LINE
8
layer0
10
1446.12775911474
20
654.966999515986
30
0
11
1463.44826719043
21
649.966999515986
31
0
0
LINE
8
layer0
10
1463.44826719043
20
649.966999515986
30
0
11
1473.44826719043
21
658.62725355383
31
0
0
LINE
8
layer0
10
1456.12775911474
20
654.966999515986
30
0
11
1473.44826719043
21
649.966999515986
31
0
0
LINE
8
layer0
10
1473.44826719043
20
649.966999515986
30
0
11
1463.44826719043
21
641.306745478141
31
0
0
LINE
8
layer0
10
1463.44826719043
20
641.306745478141
30
0
11
1446.12775911474
21
646.306745478141
31
0
0
LINE
8
layer0
10
1446.12775911474
20
646.306745478141
30
0
11
1456.12775911474
21
654.966999515986
31
0
0
ENDBLK
0
BLOCK
8
layer0
2
PF_OBJECT76
70
0
10
0
20
0
30
0
0
LINE
8
layer0
10
1584.29951887484
20
617.966999515986
30
0
11
1566.97901079915
21
622.966999515986
31
0
0
LINE
8
layer0
10
1566.97901079915
20
622.966999515986
30
0
11
1566.97901079915
21
631.62725355383
31
0
0
LINE
8
layer0
10
1566.97901079915
20
631.62725355383
30
0
11
1584.29951887484
21
626.62725355383
31
0
0
LINE
8
layer0
10
1584.29951887484
20
626.62725355383
30
0
11
1584.29951887484
21
617.966999515986
31
0
0
LINE
8
layer0
10
1556.97901079915
20
614.306745478141
30
0
11
1574.29951887484
21
609.306745478141
31
0
0
LINE
8
layer0
10
1574.29951887484
20
609.306745478141
30
0
11
1574.29951887484
21
617.966999515986
31
0
0
LINE
8
layer0
10
1574.29951887484
20
617.966999515986
30
0
11
1556.97901079915
21
622.966999515986
31
0
0
LINE
8
layer0
10
1556.97901079915
20
622.966999515986
30
0
11
1556.97901079915
21
614.306745478141
31
0
0
LINE
8
layer0
10
1566.97901079915
20
622.966999515986
30
0
11
1556.97901079915
21
614.306745478141
31
0
0
LINE
8
layer0
10
1556.97901079915
20
614.306745478141
30
0
11
1556.97901079915
21
622.966999515986
31
0
0
LINE
8
layer0
10
1556.97901079915
20
622.966999515986
30
0
11
1566.97901079915
21
631.62725355383
31
0
0
LINE
8
layer0
10
1566.97901079915
20
631.62725355383
30
0
11
1566.97901079915
21
622.966999515986
31
0
0
LINE
8
layer0
10
1574.29951887484
20
609.306745478141
30
0
11
1584.29951887484
21
617.966999515986
31
0
0
LINE
8
layer0
10
1584.29951887484
20
617.966999515986
30
0
11
1584.29951887484
21
626.62725355383
31
0
0
LINE
8
layer0
10
1584.29951887484
20
626.62725355383
30
0
11
1574.29951887484
21
617.966999515986
31
0
0
LINE
8
layer0
10
1574.29951887484
20
617.966999515986
30
0
11
1574.29951887484
21
609.306745478141
31
0
0
LINE
8
layer0
10
1584.29951887484
20
626.62725355383
30
0
11
1566.97901079915
21
631.62725355383
31
0
0
LINE
8
layer0
10
1566.97901079915
20
631.62725355383
30
0
11
1556.97901079915
21
622.966999515986
31
0
0
LINE
8
layer0
10
1556.97901079915
20
622.966999515986
30
0
11
1574.29951887484
21
617.966999515986
31
0
0
LINE
8
layer0
10
1574.29951887484
20
617.966999515986
30
0
11
1584.29951887484
21
626.62725355383
31
0
0
LINE
8
layer0
10
1566.97901079915
20
622.966999515986
30
0
11
1584.29951887484
21
617.966999515986
31
0
0
LINE
8
layer0
10
1584.29951887484
20
617.966999515986
30
0
11
1574.29951887484
21
609.306745478141
31
0
0
LINE
8
layer0
10
1574.29951887484
20
609.306745478141
30
0
11
1556.97901079915
21
614.306745478141
31
0
0
LINE
8
layer0
10
1556.97901079915
20
614.306745478141
30
0
11
1566.97901079915
21
622.966999515986
31
0
0
ENDBLK
0
BLOCK
8
layer0
2
PF_OBJECT77
70
0
10
0
20
0
30
0
0
LINE
8
layer0
10
1957.16416306052
20
488.968288210022
30
0
11
1442.74507321256
21
637.468288210021
31
0
0
LINE
8
layer0
10
1442.74507321256
20
637.468288210021
30
0
11
1442.74507321256
21
1249.74824868562
31
0
0
LINE
8
layer0
10
1442.74507321256
20
1249.74824868562
30
0
11
1957.16416306052
21
1101.24824868562
31
0
0
LINE
8
layer0
10
1957.16416306052
20
1101.24824868562
30
0
11
1957.16416306052
21
488.968288210022
31
0
0
LINE
8
layer0
10
1432.74507321256
20
628.808034172177
30
0
11
1947.16416306052
21
480.308034172177
31
0
0
LINE
8
layer0
10
1947.16416306052
20
480.308034172177
30
0
11
1947.16416306052
21
1092.58799464778
31
0
0
LINE
8
layer0
10
1947.16416306052
20
1092.58799464778
30
0
11
1432.74507321256
21
1241.08799464778
31
0
0
LINE
8
layer0
10
1432.74507321256
20
1241.08799464778
30
0
11
1432.74507321256
21
628.808034172177
31
0
0
LINE
8
layer0
10
1442.74507321256
20
637.468288210021
30
0
11
1432.74507321256
21
628.808034172177
31
0
0
LINE
8
layer0
10
1432.74507321256
20
628.808034172177
30
0
11
1432.74507321256
21
1241.08799464778
31
0
0
LINE
8
layer0
10
1432.74507321256
20
1241.08799464778
30
0
11
1442.74507321256
21
1249.74824868562
31
0
0
LINE
8
layer0
10
1442.74507321256
20
1249.74824868562
30
0
11
1442.74507321256
21
637.468288210021
31
0
0
LINE
8
layer0
10
1947.16416306052
20
480.308034172177
30
0
11
1957.16416306052
21
488.968288210022
31
0
0
LINE
8
layer0
10
1957.16416306052
20
488.968288210022
30
0
11
1957.16416306052
21
1101.24824868562
31
0
0
LINE
8
layer0
10
1957.16416306052
20
1101.24824868562
30
0
11
1947.16416306052
21
1092.58799464778
31
0
0
LINE
8
layer0
10
1947.16416306052
20
1092.58799464778
30
0
11
1947.16416306052
21
480.308034172177
31
0
0
LINE
8
layer0
10
1957.16416306052
20
1101.24824868562
30
0
11
1442.74507321256
21
1249.74824868562
31
0
0
LINE
8
layer0
10
1442.74507321256
20
1249.74824868562
30
0
11
1432.74507321256
21
1241.08799464778
31
0
0
LINE
8
layer0
10
1432.74507321256
20
1241.08799464778
30
0
11
1947.16416306052
21
1092.58799464778
31
0
0
LINE
8
layer0
10
1947.16416306052
20
1092.58799464778
30
0
11
1957.16416306052
21
1101.24824868562
31
0
0
LINE
8
layer0
10
1442.74507321256
20
637.468288210021
30
0
11
1957.16416306052
21
488.968288210022
31
0
0
LINE
8
layer0
10
1957.16416306052
20
488.968288210022
30
0
11
1947.16416306052
21
480.308034172177
31
0
0
LINE
8
layer0
10
1947.16416306052
20
480.308034172177
30
0
11
1432.74507321256
21
628.808034172177
31
0
0
LINE
8
layer0
10
1432.74507321256
20
628.808034172177
30
0
11
1442.74507321256
21
637.468288210021
31
0
0
ENDBLK
0
BLOCK
8
layer0
70
0
10
0
20
0
30
0
2
PF_SKETCH78
0
LINE
8
layer0
10
1602.14699700121
20
1393.39244031005
30
0
11
1961.26223927187
21
1104.39536300265
31
0
0
ENDBLK
0
BLOCK
8
layer0
70
0
10
0
20
0
30
0
2
PF_SKETCH79
0
LINE
8
layer0
10
1441.64699700121
20
1254.39536300265
30
0
11
2121.76223927187
21
1243.39244031005
31
0
0
ENDBLK
0
BLOCK
8
layer0
2
PF_OBJECT80
70
0
10
0
20
0
30
0
0
LINE
8
layer0
10
836.388161191099
20
-411.762794416288
30
0
11
836.388161191099
21
-541.666604983954
31
0
0
LINE
8
layer0
10
836.388161191099
20
-541.666604983954
30
0
11
1096.3881611911
21
-316.5
31
0
0
LINE
8
layer0
10
1096.3881611911
20
-316.5
30
0
11
1096.3881611911
21
-186.596189432334
31
0
0
LINE
8
layer0
10
1096.3881611911
20
-186.596189432334
30
0
11
836.388161191099
21
-411.762794416288
31
0
0
LINE
8
layer0
10
1082.54041498459
20
-312.5025
30
0
11
1096.3881611911
21
-316.5
31
0
0
LINE
8
layer0
10
1096.3881611911
20
-316.5
30
0
11
836.388161191099
21
-541.666604983954
31
0
0
LINE
8
layer0
10
836.388161191099
20
-541.666604983954
30
0
11
822.540414984586
21
-537.669104983954
31
0
0
LINE
8
layer0
10
822.540414984586
20
-537.669104983954
30
0
11
1082.54041498459
21
-312.5025
31
0
0
LINE
8
layer0
10
1082.54041498459
20
-182.598689432334
30
0
11
1096.3881611911
21
-186.596189432334
31
0
0
LINE
8
layer0
10
1096.3881611911
20
-186.596189432334
30
0
11
1096.3881611911
21
-316.5
31
0
0
LINE
8
layer0
10
1096.3881611911
20
-316.5
30
0
11
1082.54041498459
21
-312.5025
31
0
0
LINE
8
layer0
10
1082.54041498459
20
-312.5025
30
0
11
1082.54041498459
21
-182.598689432334
31
0
0
LINE
8
layer0
10
836.388161191099
20
-411.762794416288
30
0
11
822.540414984586
21
-407.765294416288
31
0
0
LINE
8
layer0
10
822.540414984586
20
-407.765294416288
30
0
11
822.540414984586
21
-537.669104983954
31
0
0
LINE
8
layer0
10
822.540414984586
20
-537.669104983954
30
0
11
836.388161191099
21
-541.666604983954
31
0
0
LINE
8
layer0
10
836.388161191099
20
-541.666604983954
30
0
11
836.388161191099
21
-411.762794416288
31
0
0
LINE
8
layer0
10
822.540414984586
20
-407.765294416288
30
0
11
836.388161191099
21
-411.762794416288
31
0
0
LINE
8
layer0
10
836.388161191099
20
-411.762794416288
30
0
11
1096.3881611911
21
-186.596189432334
31
0
0
LINE
8
layer0
10
1096.3881611911
20
-186.596189432334
30
0
11
1082.54041498459
21
-182.598689432334
31
0
0
LINE
8
layer0
10
1082.54041498459
20
-182.598689432334
30
0
11
822.540414984586
21
-407.765294416288
31
0
0
LINE
8
layer0
10
1082.54041498459
20
-182.598689432334
30
0
11
1082.54041498459
21
-312.5025
31
0
0
LINE
8
layer0
10
1082.54041498459
20
-312.5025
30
0
11
822.540414984586
21
-537.669104983954
31
0
0
LINE
8
layer0
10
822.540414984586
20
-537.669104983954
30
0
11
822.540414984586
21
-407.765294416288
31
0
0
LINE
8
layer0
10
822.540414984586
20
-407.765294416288
30
0
11
1082.54041498459
21
-182.598689432334
31
0
0
ENDBLK
0
BLOCK
8
layer0
2
PF_OBJECT81
70
0
10
0
20
0
30
0
0
LINE
8
layer0
10
1861.76223927187
20
-707.762794416288
30
0
11
1861.76223927187
21
-837.666604983954
31
0
0
LINE
8
layer0
10
1861.76223927187
20
-837.666604983954
30
0
11
822.531754730548
21
-537.666604983954
31
0
0
LINE
8
layer0
10
822.531754730548
20
-537.666604983954
30
0
11
822.531754730548
21
-407.762794416288
31
0
0
LINE
8
layer0
10
822.531754730548
20
-407.762794416288
30
0
11
1861.76223927187
21
-707.762794416288
31
0
0
LINE
8
layer0
10
814.536754730548
20
-544.590478087211
30
0
11
822.531754730548
21
-537.666604983954
31
0
0
LINE
8
layer0
10
822.531754730548
20
-537.666604983954
30
0
11
1861.76223927187
21
-837.666604983954
31
0
0
LINE
8
layer0
10
1861.76223927187
20
-837.666604983954
30
0
11
1853.76723927187
21
-844.590478087211
31
0
0
LINE
8
layer0
10
1853.76723927187
20
-844.590478087211
30
0
11
814.536754730548
21
-544.590478087211
31
0
0
LINE
8
layer0
10
814.536754730548
20
-414.686667519545
30
0
11
822.531754730548
21
-407.762794416288
31
0
0
LINE
8
layer0
10
822.531754730548
20
-407.762794416288
30
0
11
822.531754730548
21
-537.666604983954
31
0
0
LINE
8
layer0
10
822.531754730548
20
-537.666604983954
30
0
11
814.536754730548
21
-544.590478087211
31
0
0
LINE
8
layer0
10
814.536754730548
20
-544.590478087211
30
0
11
814.536754730548
21
-414.686667519545
31
0
0
LINE
8
layer0
10
1861.76223927187
20
-707.762794416288
30
0
11
1853.76723927187
21
-714.686667519545
31
0
0
LINE
8
layer0
10
1853.76723927187
20
-714.686667519545
30
0
11
1853.76723927187
21
-844.590478087211
31
0
0
LINE
8
layer0
10
1853.76723927187
20
-844.590478087211
30
0
11
1861.76223927187
21
-837.666604983954
31
0
0
LINE
8
layer0
10
1861.76223927187
20
-837.666604983954
30
0
11
1861.76223927187
21
-707.762794416288
31
0
0
LINE
8
layer0
10
1853.76723927187
20
-714.686667519545
30
0
11
1861.76223927187
21
-707.762794416288
31
0
0
LINE
8
layer0
10
1861.76223927187
20
-707.762794416288
30
0
11
822.531754730548
21
-407.762794416288
31
0
0
LINE
8
layer0
10
822.531754730548
20
-407.762794416288
30
0
11
814.536754730548
21
-414.686667519545
31
0
0
LINE
8
layer0
10
814.536754730548
20
-414.686667519545
30
0
11
1853.76723927187
21
-714.686667519545
31
0
0
LINE
8
layer0
10
814.536754730548
20
-414.686667519545
30
0
11
814.536754730548
21
-544.590478087211
31
0
0
LINE
8
layer0
10
814.536754730548
20
-544.590478087211
30
0
11
1853.76723927187
21
-844.590478087211
31
0
0
LINE
8
layer0
10
1853.76723927187
20
-844.590478087211
30
0
11
1853.76723927187
21
-714.686667519545
31
0
0
LINE
8
layer0
10
1853.76723927187
20
-714.686667519545
30
0
11
814.536754730548
21
-414.686667519545
31
0
0
ENDBLK
0
BLOCK
8
layer0
2
PF_OBJECT82
70
0
10
0
20
0
30
0
0
LINE
8
layer0
10
2144.27889977027
20
134.442101292462
30
0
11
1155.99442170331
21
419.735256016407
31
0
0
LINE
8
layer0
10
1155.99442170331
20
419.735256016407
30
0
11
1155.99442170331
21
447.448068937509
31
0
0
LINE
8
layer0
10
1155.99442170331
20
447.448068937509
30
0
11
2144.27889977027
21
162.154914213564
31
0
0
LINE
8
layer0
10
2144.27889977027
20
162.154914213564
30
0
11
2144.27889977027
21
134.442101292462
31
0
0
LINE
8
layer0
10
1082.81746207214
20
468.572437608274
30
0
11
1082.81746207214
21
440.859624687172
31
0
0
LINE
8
layer0
10
1082.81746207214
20
440.859624687172
30
0
11
540.39985196149
21
597.442101292462
31
0
0
LINE
8
layer0
10
540.39985196149
20
597.442101292462
30
0
11
540.39985196149
21
625.154914213564
31
0
0
LINE
8
layer0
10
540.39985196149
20
625.154914213564
30
0
11
1082.81746207214
21
468.572437608274
31
0
0
LINE
8
layer0
10
1155.99442170331
20
447.448068937509
30
0
11
1155.99442170331
21
419.735256016407
31
0
0
LINE
8
layer0
10
1155.99442170331
20
419.735256016407
30
0
11
1082.81746207214
21
440.859624687172
31
0
0
LINE
8
layer0
10
1082.81746207214
20
440.859624687172
30
0
11
1082.81746207214
21
468.572437608274
31
0
0
LINE
8
layer0
10
1082.81746207214
20
468.572437608274
30
0
11
1155.99442170331
21
447.448068937509
31
0
0
LINE
8
layer0
10
240.39985196149
20
337.63448015713
30
0
11
1844.27889977027
21
-125.36551984287
31
0
0
LINE
8
layer0
10
1844.27889977027
20
-125.36551984287
30
0
11
1844.27889977027
21
-97.6527069217678
31
0
0
LINE
8
layer0
10
1844.27889977027
20
-97.6527069217678
30
0
11
240.39985196149
21
365.347293078232
31
0
0
LINE
8
layer0
10
240.39985196149
20
365.347293078232
30
0
11
240.39985196149
21
337.63448015713
31
0
0
LINE
8
layer0
10
540.39985196149
20
597.442101292462
30
0
11
466.89985196149
21
533.789234114305
31
0
0
LINE
8
layer0
10
466.89985196149
20
533.789234114305
30
0
11
466.89985196149
21
561.502047035407
31
0
0
LINE
8
layer0
10
466.89985196149
20
561.502047035407
30
0
11
540.39985196149
21
625.154914213564
31
0
0
LINE
8
layer0
10
540.39985196149
20
625.154914213564
30
0
11
540.39985196149
21
597.442101292462
31
0
0
LINE
8
layer0
10
290.39985196149
20
408.648563267454
30
0
11
290.39985196149
21
380.935750346352
31
0
0
LINE
8
layer0
10
290.39985196149
20
380.935750346352
30
0
11
240.39985196149
21
337.63448015713
31
0
0
LINE
8
layer0
10
240.39985196149
20
337.63448015713
30
0
11
240.39985196149
21
365.347293078232
31
0
0
LINE
8
layer0
10
240.39985196149
20
365.347293078232
30
0
11
290.39985196149
21
408.648563267454
31
0
0
LINE
8
layer0
10
466.89985196149
20
561.502047035407
30
0
11
466.89985196149
21
533.789234114305
31
0
0
LINE
8
layer0
10
466.89985196149
20
533.789234114305
30
0
11
290.39985196149
21
380.935750346352
31
0
0
LINE
8
layer0
10
290.39985196149
20
380.935750346352
30
0
11
290.39985196149
21
408.648563267454
31
0
0
LINE
8
layer0
10
290.39985196149
20
408.648563267454
30
0
11
466.89985196149
21
561.502047035407
31
0
0
LINE
8
layer0
10
2070.77889977027
20
98.5020470354075
30
0
11
2070.77889977027
21
70.7892341143055
31
0
0
LINE
8
layer0
10
2070.77889977027
20
70.7892341143055
30
0
11
2144.27889977027
21
134.442101292462
31
0
0
LINE
8
layer0
10
2144.27889977027
20
134.442101292462
30
0
11
2144.27889977027
21
162.154914213564
31
0
0
LINE
8
layer0
10
2144.27889977027
20
162.154914213564
30
0
11
2070.77889977027
21
98.5020470354075
31
0
0
LINE
8
layer0
10
1844.27889977027
20
-125.36551984287
30
0
11
1894.27889977027
21
-82.0642496536479
31
0
0
LINE
8
layer0
10
1894.27889977027
20
-82.0642496536479
30
0
11
1894.27889977027
21
-54.3514367325459
31
0
0
LINE
8
layer0
10
1894.27889977027
20
-54.3514367325459
30
0
11
1844.27889977027
21
-97.6527069217678
31
0
0
LINE
8
layer0
10
1844.27889977027
20
-97.6527069217678
30
0
11
1844.27889977027
21
-125.36551984287
31
0
0
LINE
8
layer0
10
1894.27889977027
20
-54.3514367325459
30
0
11
1894.27889977027
21
-82.0642496536479
31
0
0
LINE
8
layer0
10
1894.27889977027
20
-82.0642496536479
30
0
11
2070.77889977027
21
70.7892341143055
31
0
0
LINE
8
layer0
10
2070.77889977027
20
70.7892341143055
30
0
11
2070.77889977027
21
98.5020470354075
31
0
0
LINE
8
layer0
10
2070.77889977027
20
98.5020470354075
30
0
11
1894.27889977027
21
-54.3514367325459
31
0
0
LINE
8
layer0
10
1389.83765215418
20
267.360040421039
30
0
11
1155.99442170331
21
419.735256016407
31
0
0
LINE
8
layer0
10
1155.99442170331
20
419.735256016407
30
0
11
2144.27889977027
21
134.442101292462
31
0
0
LINE
8
layer0
10
2144.27889977027
20
134.442101292462
30
0
11
2070.77889977027
21
70.7892341143055
31
0
0
LINE
8
layer0
10
2070.77889977027
20
70.7892341143055
30
0
11
1389.83765215418
21
267.360040421039
31
0
0
LINE
8
layer0
10
1286.99822894909
20
297.047224756422
30
0
11
1295.38667136539
21
328.905497747887
31
0
0
LINE
8
layer0
10
1295.38667136539
20
328.905497747887
30
0
11
1389.83765215418
21
267.360040421039
31
0
0
LINE
8
layer0
10
1389.83765215418
20
267.360040421039
30
0
11
1286.99822894909
21
297.047224756422
31
0
0
LINE
8
layer0
10
1253.27859899402
20
306.781243472189
30
0
11
1293.63841397156
21
322.26583110324
31
0
0
LINE
8
layer0
10
1293.63841397156
20
322.26583110324
30
0
11
1286.99822894909
21
297.047224756422
31
0
0
LINE
8
layer0
10
1286.99822894909
20
297.047224756422
30
0
11
1253.27859899402
21
306.781243472189
31
0
0
LINE
8
layer0
10
1193.30524628764
20
324.094059136807
30
0
11
1283.01230269462
21
318.18898012321
31
0
0
LINE
8
layer0
10
1283.01230269462
20
318.18898012321
30
0
11
1253.27859899402
21
306.781243472189
31
0
0
LINE
8
layer0
10
1253.27859899402
20
306.781243472189
30
0
11
1193.30524628764
21
324.094059136807
31
0
0
LINE
8
layer0
10
540.39985196149
20
597.442101292462
30
0
11
1082.81746207214
21
440.859624687172
31
0
0
LINE
8
layer0
10
1082.81746207214
20
440.859624687172
30
0
11
1269.73296940533
21
319.063108820126
31
0
0
LINE
8
layer0
10
1269.73296940533
20
319.063108820126
30
0
11
1193.30524628764
21
324.094059136807
31
0
0
LINE
8
layer0
10
1193.30524628764
20
324.094059136807
30
0
11
466.89985196149
21
533.789234114305
31
0
0
LINE
8
layer0
10
466.89985196149
20
533.789234114305
30
0
11
540.39985196149
21
597.442101292462
31
0
0
LINE
8
layer0
10
1267.54819154981
20
347.045404366383
30
0
11
1261.57926744527
21
324.376164458593
31
0
0
LINE
8
layer0
10
1261.57926744527
20
324.376164458593
30
0
11
1082.81746207214
21
440.859624687172
31
0
0
LINE
8
layer0
10
1082.81746207214
20
440.859624687172
30
0
11
1155.99442170331
21
419.735256016407
31
0
0
LINE
8
layer0
10
1155.99442170331
20
419.735256016407
30
0
11
1267.54819154981
21
347.045404366383
31
0
0
LINE
8
layer0
10
1281.4674314576
20
337.975451057135
30
0
11
1263.3275248391
21
331.01583110324
31
0
0
LINE
8
layer0
10
1263.3275248391
20
331.01583110324
30
0
11
1267.54819154981
21
347.045404366383
31
0
0
LINE
8
layer0
10
1267.54819154981
20
347.045404366383
30
0
11
1281.4674314576
21
337.975451057135
31
0
0
LINE
8
layer0
10
1287.23296940533
20
334.218553386354
30
0
11
1273.95363611603
21
335.092682083269
31
0
0
LINE
8
layer0
10
1273.95363611603
20
335.092682083269
30
0
11
1281.4674314576
21
337.975451057135
31
0
0
LINE
8
layer0
10
1281.4674314576
20
337.975451057135
30
0
11
1287.23296940533
21
334.218553386354
31
0
0
LINE
8
layer0
10
290.39985196149
20
380.935750346352
30
0
11
1894.27889977027
21
-82.0642496536479
31
0
0
LINE
8
layer0
10
1894.27889977027
20
-82.0642496536479
30
0
11
1844.27889977027
21
-125.36551984287
31
0
0
LINE
8
layer0
10
1844.27889977027
20
-125.36551984287
30
0
11
240.39985196149
21
337.63448015713
31
0
0
LINE
8
layer0
10
240.39985196149
20
337.63448015713
30
0
11
290.39985196149
21
380.935750346352
31
0
0
LINE
8
layer0
10
466.89985196149
20
533.789234114305
30
0
11
1080.04583784087
21
356.789234114305
31
0
0
LINE
8
layer0
10
1080.04583784087
20
356.789234114305
30
0
11
903.545837840872
21
203.935750346352
31
0
0
LINE
8
layer0
10
903.545837840872
20
203.935750346352
30
0
11
290.39985196149
21
380.935750346352
31
0
0
LINE
8
layer0
10
290.39985196149
20
380.935750346352
30
0
11
466.89985196149
21
533.789234114305
31
0
0
LINE
8
layer0
10
1254.28612637357
20
102.685750346352
30
0
11
1430.78612637357
21
255.539234114305
31
0
0
LINE
8
layer0
10
1430.78612637357
20
255.539234114305
30
0
11
2070.77889977027
21
70.7892341143055
31
0
0
LINE
8
layer0
10
2070.77889977027
20
70.7892341143055
30
0
11
1894.27889977027
21
-82.0642496536479
31
0
0
LINE
8
layer0
10
1894.27889977027
20
-82.0642496536479
30
0
11
1254.28612637357
21
102.685750346352
31
0
0
LINE
8
layer0
10
1287.23296940533
20
334.218553386354
30
0
11
1295.38667136539
21
328.905497747887
31
0
0
LINE
8
layer0
10
1295.38667136539
20
328.905497747887
30
0
11
1295.38667136539
21
356.618310668989
31
0
0
LINE
8
layer0
10
1295.38667136539
20
356.618310668989
30
0
11
1287.23296940533
21
361.931366307456
31
0
0
LINE
8
layer0
10
1287.23296940533
20
361.931366307456
30
0
11
1287.23296940533
21
334.218553386354
31
0
0
LINE
8
layer0
10
1295.38667136539
20
328.905497747887
30
0
11
1293.63841397156
21
322.26583110324
31
0
0
LINE
8
layer0
10
1293.63841397156
20
322.26583110324
30
0
11
1293.63841397156
21
349.978644024342
31
0
0
LINE
8
layer0
10
1293.63841397156
20
349.978644024342
30
0
11
1295.38667136539
21
356.618310668989
31
0
0
LINE
8
layer0
10
1295.38667136539
20
356.618310668989
30
0
11
1295.38667136539
21
328.905497747887
31
0
0
LINE
8
layer0
10
1293.63841397156
20
322.26583110324
30
0
11
1283.01230269462
21
318.18898012321
31
0
0
LINE
8
layer0
10
1283.01230269462
20
318.18898012321
30
0
11
1283.01230269462
21
345.901793044312
31
0
0
LINE
8
layer0
10
1283.01230269462
20
345.901793044312
30
0
11
1293.63841397156
21
349.978644024342
31
0
0
LINE
8
layer0
10
1293.63841397156
20
349.978644024342
30
0
11
1293.63841397156
21
322.26583110324
31
0
0
LINE
8
layer0
10
1283.01230269462
20
318.18898012321
30
0
11
1269.73296940533
21
319.063108820126
31
0
0
LINE
8
layer0
10
1269.73296940533
20
319.063108820126
30
0
11
1269.73296940533
21
346.775921741228
31
0
0
LINE
8
layer0
10
1269.73296940533
20
346.775921741228
30
0
11
1283.01230269462
21
345.901793044312
31
0
0
LINE
8
layer0
10
1283.01230269462
20
345.901793044312
30
0
11
1283.01230269462
21
318.18898012321
31
0
0
LINE
8
layer0
10
1273.95363611603
20
335.092682083269
30
0
11
1287.23296940533
21
334.218553386354
31
0
0
LINE
8
layer0
10
1287.23296940533
20
334.218553386354
30
0
11
1287.23296940533
21
361.931366307456
31
0
0
LINE
8
layer0
10
1287.23296940533
20
361.931366307456
30
0
11
1273.95363611603
21
362.805495004371
31
0
0
LINE
8
layer0
10
1273.95363611603
20
362.805495004371
30
0
11
1273.95363611603
21
335.092682083269
31
0
0
LINE
8
layer0
10
1263.3275248391
20
331.01583110324
30
0
11
1273.95363611603
21
335.092682083269
31
0
0
LINE
8
layer0
10
1273.95363611603
20
335.092682083269
30
0
11
1273.95363611603
21
362.805495004371
31
0
0
LINE
8
layer0
10
1273.95363611603
20
362.805495004371
30
0
11
1263.3275248391
21
358.728644024342
31
0
0
LINE
8
layer0
10
1263.3275248391
20
358.728644024342
30
0
11
1263.3275248391
21
331.01583110324
31
0
0
LINE
8
layer0
10
1261.57926744527
20
324.376164458593
30
0
11
1263.3275248391
21
331.01583110324
31
0
0
LINE
8
layer0
10
1263.3275248391
20
331.01583110324
30
0
11
1263.3275248391
21
358.728644024342
31
0
0
LINE
8
layer0
10
1263.3275248391
20
358.728644024342
30
0
11
1261.57926744527
21
352.088977379695
31
0
0
LINE
8
layer0
10
1261.57926744527
20
352.088977379695
30
0
11
1261.57926744527
21
324.376164458593
31
0
0
LINE
8
layer0
10
1269.73296940533
20
319.063108820126
30
0
11
1261.57926744527
21
324.376164458593
31
0
0
LINE
8
layer0
10
1261.57926744527
20
324.376164458593
30
0
11
1261.57926744527
21
352.088977379695
31
0
0
LINE
8
layer0
10
1261.57926744527
20
352.088977379695
30
0
11
1269.73296940533
21
346.775921741228
31
0
0
LINE
8
layer0
10
1269.73296940533
20
346.775921741228
30
0
11
1269.73296940533
21
319.063108820126
31
0
0
LINE
8
layer0
10
1389.83765215418
20
295.072853342141
30
0
11
1389.83765215418
21
267.360040421039
31
0
0
LINE
8
layer0
10
1389.83765215418
20
267.360040421039
30
0
11
1430.78612637357
21
255.539234114305
31
0
0
LINE
8
layer0
10
1430.78612637357
20
255.539234114305
30
0
11
1430.78612637357
21
283.252047035407
31
0
0
LINE
8
layer0
10
1430.78612637357
20
283.252047035407
30
0
11
1389.83765215418
21
295.072853342141
31
0
0
LINE
8
layer0
10
1286.99822894909
20
324.760037677524
30
0
11
1286.99822894909
21
297.047224756422
31
0
0
LINE
8
layer0
10
1286.99822894909
20
297.047224756422
30
0
11
1389.83765215418
21
267.360040421039
31
0
0
LINE
8
layer0
10
1389.83765215418
20
267.360040421039
30
0
11
1389.83765215418
21
295.072853342141
31
0
0
LINE
8
layer0
10
1389.83765215418
20
295.072853342141
30
0
11
1286.99822894909
21
324.760037677524
31
0
0
LINE
8
layer0
10
1253.27859899402
20
334.494056393291
30
0
11
1253.27859899402
21
306.781243472189
31
0
0
LINE
8
layer0
10
1253.27859899402
20
306.781243472189
30
0
11
1286.99822894909
21
297.047224756422
31
0
0
LINE
8
layer0
10
1286.99822894909
20
297.047224756422
30
0
11
1286.99822894909
21
324.760037677524
31
0
0
LINE
8
layer0
10
1286.99822894909
20
324.760037677524
30
0
11
1253.27859899402
21
334.494056393291
31
0
0
LINE
8
layer0
10
1193.30524628764
20
351.806872057909
30
0
11
1193.30524628764
21
324.094059136807
31
0
0
LINE
8
layer0
10
1193.30524628764
20
324.094059136807
30
0
11
1253.27859899402
21
306.781243472189
31
0
0
LINE
8
layer0
10
1253.27859899402
20
306.781243472189
30
0
11
1253.27859899402
21
334.494056393291
31
0
0
LINE
8
layer0
10
1253.27859899402
20
334.494056393291
30
0
11
1193.30524628764
21
351.806872057909
31
0
0
LINE
8
layer0
10
1080.04583784087
20
356.789234114305
30
0
11
1193.30524628764
21
324.094059136807
31
0
0
LINE
8
layer0
10
1193.30524628764
20
324.094059136807
30
0
11
1193.30524628764
21
351.806872057909
31
0
0
LINE
8
layer0
10
1193.30524628764
20
351.806872057909
30
0
11
1080.04583784087
21
384.502047035407
31
0
0
LINE
8
layer0
10
1080.04583784087
20
384.502047035407
30
0
11
1080.04583784087
21
356.789234114305
31
0
0
LINE
8
layer0
10
1254.28612637357
20
102.685750346352
30
0
11
903.545837840872
21
203.935750346352
31
0
0
LINE
8
layer0
10
903.545837840872
20
203.935750346352
30
0
11
903.545837840872
21
231.648563267454
31
0
0
LINE
8
layer0
10
903.545837840872
20
231.648563267454
30
0
11
1254.28612637357
21
130.398563267454
31
0
0
LINE
8
layer0
10
1254.28612637357
20
130.398563267454
30
0
11
1254.28612637357
21
102.685750346352
31
0
0
LINE
8
layer0
10
1430.78612637357
20
255.539234114305
30
0
11
1254.28612637357
21
102.685750346352
31
0
0
LINE
8
layer0
10
1254.28612637357
20
102.685750346352
30
0
11
1254.28612637357
21
130.398563267454
31
0
0
LINE
8
layer0
10
1254.28612637357
20
130.398563267454
30
0
11
1430.78612637357
21
283.252047035407
31
0
0
LINE
8
layer0
10
1430.78612637357
20
283.252047035407
30
0
11
1430.78612637357
21
255.539234114305
31
0
0
LINE
8
layer0
10
903.545837840872
20
203.935750346352
30
0
11
1080.04583784087
21
356.789234114305
31
0
0
LINE
8
layer0
10
1080.04583784087
20
356.789234114305
30
0
11
1080.04583784087
21
384.502047035407
31
0
0
LINE
8
layer0
10
1080.04583784087
20
384.502047035407
30
0
11
903.545837840872
21
231.648563267454
31
0
0
LINE
8
layer0
10
903.545837840872
20
231.648563267454
30
0
11
903.545837840872
21
203.935750346352
31
0
0
LINE
8
layer0
10
2144.27889977027
20
162.154914213564
30
0
11
1155.99442170331
21
447.448068937509
31
0
0
LINE
8
layer0
10
1155.99442170331
20
447.448068937509
30
0
11
1389.83765215418
21
295.072853342141
31
0
0
LINE
8
layer0
10
1389.83765215418
20
295.072853342141
30
0
11
2070.77889977027
21
98.5020470354075
31
0
0
LINE
8
layer0
10
2070.77889977027
20
98.5020470354075
30
0
11
2144.27889977027
21
162.154914213564
31
0
0
LINE
8
layer0
10
1389.83765215418
20
295.072853342141
30
0
11
1295.38667136539
21
356.618310668989
31
0
0
LINE
8
layer0
10
1295.38667136539
20
356.618310668989
30
0
11
1286.99822894909
21
324.760037677524
31
0
0
LINE
8
layer0
10
1286.99822894909
20
324.760037677524
30
0
11
1389.83765215418
21
295.072853342141
31
0
0
LINE
8
layer0
10
1286.99822894909
20
324.760037677524
30
0
11
1293.63841397156
21
349.978644024342
31
0
0
LINE
8
layer0
10
1293.63841397156
20
349.978644024342
30
0
11
1253.27859899402
21
334.494056393291
31
0
0
LINE
8
layer0
10
1253.27859899402
20
334.494056393291
30
0
11
1286.99822894909
21
324.760037677524
31
0
0
LINE
8
layer0
10
1253.27859899402
20
334.494056393291
30
0
11
1283.01230269462
21
345.901793044312
31
0
0
LINE
8
layer0
10
1283.01230269462
20
345.901793044312
30
0
11
1193.30524628764
21
351.806872057909
31
0
0
LINE
8
layer0
10
1193.30524628764
20
351.806872057909
30
0
11
1253.27859899402
21
334.494056393291
31
0
0
LINE
8
layer0
10
1193.30524628764
20
351.806872057909
30
0
11
1269.73296940533
21
346.775921741228
31
0
0
LINE
8
layer0
10
1269.73296940533
20
346.775921741228
30
0
11
1082.81746207214
21
468.572437608274
31
0
0
LINE
8
layer0
10
1082.81746207214
20
468.572437608274
30
0
11
540.39985196149
21
625.154914213564
31
0
0
LINE
8
layer0
10
540.39985196149
20
625.154914213564
30
0
11
466.89985196149
21
561.502047035407
31
0
0
LINE
8
layer0
10
466.89985196149
20
561.502047035407
30
0
11
1193.30524628764
21
351.806872057909
31
0
0
LINE
8
layer0
10
1082.81746207214
20
468.572437608274
30
0
11
1261.57926744527
21
352.088977379695
31
0
0
LINE
8
layer0
10
1261.57926744527
20
352.088977379695
30
0
11
1267.54819154981
21
374.758217287485
31
0
0
LINE
8
layer0
10
1267.54819154981
20
374.758217287485
30
0
11
1155.99442170331
21
447.448068937509
31
0
0
LINE
8
layer0
10
1155.99442170331
20
447.448068937509
30
0
11
1082.81746207214
21
468.572437608274
31
0
0
LINE
8
layer0
10
1267.54819154981
20
374.758217287485
30
0
11
1263.3275248391
21
358.728644024342
31
0
0
LINE
8
layer0
10
1263.3275248391
20
358.728644024342
30
0
11
1281.4674314576
21
365.688263978237
31
0
0
LINE
8
layer0
10
1281.4674314576
20
365.688263978237
30
0
11
1267.54819154981
21
374.758217287485
31
0
0
LINE
8
layer0
10
1281.4674314576
20
365.688263978237
30
0
11
1273.95363611603
21
362.805495004371
31
0
0
LINE
8
layer0
10
1273.95363611603
20
362.805495004371
30
0
11
1287.23296940533
21
361.931366307456
31
0
0
LINE
8
layer0
10
1287.23296940533
20
361.931366307456
30
0
11
1281.4674314576
21
365.688263978237
31
0
0
LINE
8
layer0
10
1894.27889977027
20
-54.3514367325459
30
0
11
290.39985196149
21
408.648563267454
31
0
0
LINE
8
layer0
10
290.39985196149
20
408.648563267454
30
0
11
240.39985196149
21
365.347293078232
31
0
0
LINE
8
layer0
10
240.39985196149
20
365.347293078232
30
0
11
1844.27889977027
21
-97.6527069217678
31
0
0
LINE
8
layer0
10
1844.27889977027
20
-97.6527069217678
30
0
11
1894.27889977027
21
-54.3514367325459
31
0
0
LINE
8
layer0
10
903.545837840872
20
231.648563267454
30
0
11
1080.04583784087
21
384.502047035407
31
0
0
LINE
8
layer0
10
1080.04583784087
20
384.502047035407
30
0
11
466.89985196149
21
561.502047035407
31
0
0
LINE
8
layer0
10
466.89985196149
20
561.502047035407
30
0
11
290.39985196149
21
408.648563267454
31
0
0
LINE
8
layer0
10
290.39985196149
20
408.648563267454
30
0
11
903.545837840872
21
231.648563267454
31
0
0
LINE
8
layer0
10
2070.77889977027
20
98.5020470354075
30
0
11
1430.78612637357
21
283.252047035407
31
0
0
LINE
8
layer0
10
1430.78612637357
20
283.252047035407
30
0
11
1254.28612637357
21
130.398563267454
31
0
0
LINE
8
layer0
10
1254.28612637357
20
130.398563267454
30
0
11
1894.27889977027
21
-54.3514367325459
31
0
0
LINE
8
layer0
10
1894.27889977027
20
-54.3514367325459
30
0
11
2070.77889977027
21
98.5020470354075
31
0
0
ENDBLK
0
BLOCK
8
layer0
2
PF_OBJECT83
70
0
10
0
20
0
30
0
0
LINE
8
layer0
10
1098.27307917682
20
390.787301073252
30
0
11
1431.69285963383
21
294.537301073252
31
0
0
LINE
8
layer0
10
1431.69285963383
20
294.537301073252
30
0
11
1438.98720439816
21
291.583879111868
31
0
0
LINE
8
layer0
10
1438.98720439816
20
291.583879111868
30
0
11
1444.09922336311
21
287.647969662622
31
0
0
LINE
8
layer0
10
1444.09922336311
20
287.647969662622
30
0
11
1446.52851649488
21
283.1148469655
31
0
0
LINE
8
layer0
10
1446.52851649488
20
283.1148469655
30
0
11
1446.03728765585
21
278.428244654219
31
0
0
LINE
8
layer0
10
1446.03728765585
20
278.428244654219
30
0
11
1442.67362174737
21
274.046920016485
31
0
0
LINE
8
layer0
10
1442.67362174737
20
274.046920016485
30
0
11
1442.67362174737
21
274.046920016485
31
0
0
LINE
8
layer0
10
1442.67362174737
20
274.046920016485
30
0
11
1057.29231706329
21
385.296920016485
31
0
0
LINE
8
layer0
10
1057.29231706329
20
385.296920016485
30
0
11
1063.19916098606
21
388.944092398646
31
0
0
LINE
8
layer0
10
1063.19916098606
20
388.944092398646
30
0
11
1071.07097988455
21
391.500101881124
31
0
0
LINE
8
layer0
10
1071.07097988455
20
391.500101881124
30
0
11
1080.1372252788
21
392.714748447009
31
0
0
LINE
8
layer0
10
1080.1372252788
20
392.714748447009
30
0
11
1089.51042990136
21
392.469134027492
31
0
0
LINE
8
layer0
10
1089.51042990136
20
392.469134027492
30
0
11
1098.27307917682
21
390.787301073252
31
0
0
LINE
8
layer0
10
1057.29231706329
20
385.296920016485
30
0
11
1109.25384129036
21
370.296920016485
31
0
0
LINE
8
layer0
10
1109.25384129036
20
370.296920016485
30
0
11
1052.54078385356
21
381.181971549928
31
0
0
LINE
8
layer0
10
1052.54078385356
20
381.181971549928
30
0
11
1057.29231706329
21
385.296920016485
31
0
0
LINE
8
layer0
10
1057.29231706329
20
385.296920016485
30
0
11
1057.29231706329
21
385.296920016485
31
0
0
LINE
8
layer0
10
1052.54078385356
20
381.181971549928
30
0
11
1100.49119201489
21
371.978752970726
31
0
0
LINE
8
layer0
10
1100.49119201489
20
371.978752970726
30
0
11
1043.63418166729
21
373.468627795221
31
0
0
LINE
8
layer0
10
1043.63418166729
20
373.468627795221
30
0
11
1052.54078385356
21
381.181971549928
31
0
0
LINE
8
layer0
10
1043.63418166729
20
373.468627795221
30
0
11
1091.11798739233
21
372.224367390243
31
0
0
LINE
8
layer0
10
1091.11798739233
20
372.224367390243
30
0
11
1033.2443507633
21
364.470770291343
31
0
0
LINE
8
layer0
10
1033.2443507633
20
364.470770291343
30
0
11
1043.63418166729
21
373.468627795221
31
0
0
LINE
8
layer0
10
1033.2443507633
20
364.470770291343
30
0
11
1082.05174199808
21
371.009720824358
31
0
0
LINE
8
layer0
10
1082.05174199808
20
371.009720824358
30
0
11
1016.04755946691
21
349.577912165089
31
0
0
LINE
8
layer0
10
1016.04755946691
20
349.577912165089
30
0
11
1033.2443507633
21
364.470770291343
31
0
0
LINE
8
layer0
10
1016.04755946691
20
349.577912165089
30
0
11
1074.17992309959
21
368.45371134188
31
0
0
LINE
8
layer0
10
1074.17992309959
20
368.45371134188
30
0
11
947.586044343166
21
290.288500886353
31
0
0
LINE
8
layer0
10
947.586044343166
20
290.288500886353
30
0
11
1016.04755946691
21
349.577912165089
31
0
0
LINE
8
layer0
10
947.586044343166
20
290.288500886353
30
0
11
1068.27307917682
21
364.806538959719
31
0
0
LINE
8
layer0
10
1068.27307917682
20
364.806538959719
30
0
11
901.773079176824
21
220.61330922961
31
0
0
LINE
8
layer0
10
901.773079176824
20
220.61330922961
30
0
11
894.478734412503
21
223.566731190993
31
0
0
LINE
8
layer0
10
894.478734412503
20
223.566731190993
30
0
11
889.366715447547
21
227.502640640239
31
0
0
LINE
8
layer0
10
889.366715447547
20
227.502640640239
30
0
11
886.937422315776
21
232.035763337361
31
0
0
LINE
8
layer0
10
886.937422315776
20
232.035763337361
30
0
11
887.42865115481
21
236.722365648643
31
0
0
LINE
8
layer0
10
887.42865115481
20
236.722365648643
30
0
11
890.792317063291
21
241.103690286376
31
0
0
LINE
8
layer0
10
890.792317063291
20
241.103690286376
30
0
11
947.586044343166
21
290.288500886353
31
0
0
LINE
8
layer0
10
901.773079176824
20
220.61330922961
30
0
11
931.773079176824
21
246.594071343143
31
0
0
LINE
8
layer0
10
931.773079176824
20
246.594071343143
30
0
11
910.002976109938
21
218.237542624742
31
0
0
LINE
8
layer0
10
910.002976109938
20
218.237542624742
30
0
11
901.773079176824
21
220.61330922961
31
0
0
LINE
8
layer0
10
901.773079176824
20
220.61330922961
30
0
11
901.773079176824
21
220.61330922961
31
0
0
LINE
8
layer0
10
910.002976109938
20
218.237542624742
30
0
11
928.409413268344
21
242.212746705409
31
0
0
LINE
8
layer0
10
928.409413268344
20
242.212746705409
30
0
11
925.429663619353
21
213.784241531609
31
0
0
LINE
8
layer0
10
925.429663619353
20
213.784241531609
30
0
11
910.002976109938
21
218.237542624742
31
0
0
LINE
8
layer0
10
925.429663619353
20
213.784241531609
30
0
11
927.918184429309
21
237.526144394128
31
0
0
LINE
8
layer0
10
927.918184429309
20
237.526144394128
30
0
11
943.425378627109
21
208.589326079615
31
0
0
LINE
8
layer0
10
943.425378627109
20
208.589326079615
30
0
11
925.429663619353
21
213.784241531609
31
0
0
LINE
8
layer0
10
943.425378627109
20
208.589326079615
30
0
11
930.34747756108
21
232.993021697006
31
0
0
LINE
8
layer0
10
930.34747756108
20
232.993021697006
30
0
11
973.211094879618
21
199.990930431419
31
0
0
LINE
8
layer0
10
973.211094879618
20
199.990930431419
30
0
11
943.425378627109
21
208.589326079615
31
0
0
LINE
8
layer0
10
973.211094879618
20
199.990930431419
30
0
11
935.459496526036
21
229.05711224776
31
0
0
LINE
8
layer0
10
935.459496526036
20
229.05711224776
30
0
11
1091.78991743709
21
165.760172869547
31
0
0
LINE
8
layer0
10
1091.78991743709
20
165.760172869547
30
0
11
973.211094879618
21
199.990930431419
31
0
0
LINE
8
layer0
10
1091.78991743709
20
165.760172869547
30
0
11
942.753841290358
21
226.103690286376
31
0
0
LINE
8
layer0
10
942.753841290358
20
226.103690286376
30
0
11
1276.17362174737
21
129.853690286376
31
0
0
LINE
8
layer0
10
1276.17362174737
20
129.853690286376
30
0
11
1270.2667778246
21
126.206517904215
31
0
0
LINE
8
layer0
10
1270.2667778246
20
126.206517904215
30
0
11
1262.39495892611
21
123.650508421737
31
0
0
LINE
8
layer0
10
1262.39495892611
20
123.650508421737
30
0
11
1253.32871353186
21
122.435861855852
31
0
0
LINE
8
layer0
10
1253.32871353186
20
122.435861855852
30
0
11
1243.9555089093
21
122.681476275369
31
0
0
LINE
8
layer0
10
1243.9555089093
20
122.681476275369
30
0
11
1235.19285963383
21
124.36330922961
31
0
0
LINE
8
layer0
10
1235.19285963383
20
124.36330922961
30
0
11
1091.78991743709
21
165.760172869547
31
0
0
LINE
8
layer0
10
1276.17362174737
20
129.853690286376
30
0
11
1224.2120975203
21
144.853690286376
31
0
0
LINE
8
layer0
10
1224.2120975203
20
144.853690286376
30
0
11
1280.9251549571
21
133.968638752933
31
0
0
LINE
8
layer0
10
1280.9251549571
20
133.968638752933
30
0
11
1276.17362174737
21
129.853690286376
31
0
0
LINE
8
layer0
10
1276.17362174737
20
129.853690286376
30
0
11
1276.17362174737
21
129.853690286376
31
0
0
LINE
8
layer0
10
1280.9251549571
20
133.968638752933
30
0
11
1232.97474679577
21
143.171857332136
31
0
0
LINE
8
layer0
10
1232.97474679577
20
143.171857332136
30
0
11
1289.83175714337
21
141.68198250764
31
0
0
LINE
8
layer0
10
1289.83175714337
20
141.68198250764
30
0
11
1280.9251549571
21
133.968638752933
31
0
0
LINE
8
layer0
10
1289.83175714337
20
141.68198250764
30
0
11
1242.34795141833
21
142.926242912619
31
0
0
LINE
8
layer0
10
1242.34795141833
20
142.926242912619
30
0
11
1300.22158804736
21
150.679840011519
31
0
0
LINE
8
layer0
10
1300.22158804736
20
150.679840011519
30
0
11
1289.83175714337
21
141.68198250764
31
0
0
LINE
8
layer0
10
1300.22158804736
20
150.679840011519
30
0
11
1251.41419681257
21
144.140889478504
31
0
0
LINE
8
layer0
10
1251.41419681257
20
144.140889478504
30
0
11
1317.41837934375
21
165.572698137773
31
0
0
LINE
8
layer0
10
1317.41837934375
20
165.572698137773
30
0
11
1300.22158804736
21
150.679840011519
31
0
0
LINE
8
layer0
10
1317.41837934375
20
165.572698137773
30
0
11
1259.28601571107
21
146.696898960982
31
0
0
LINE
8
layer0
10
1259.28601571107
20
146.696898960982
30
0
11
1385.87989446749
21
224.862109416509
31
0
0
LINE
8
layer0
10
1385.87989446749
20
224.862109416509
30
0
11
1317.41837934375
21
165.572698137773
31
0
0
LINE
8
layer0
10
1385.87989446749
20
224.862109416509
30
0
11
1265.19285963383
21
150.344071343143
31
0
0
LINE
8
layer0
10
1265.19285963383
20
150.344071343143
30
0
11
1416.69285963383
21
281.546920016485
31
0
0
LINE
8
layer0
10
1416.69285963383
20
281.546920016485
30
0
11
1442.67362174737
21
274.046920016485
31
0
0
LINE
8
layer0
10
1442.67362174737
20
274.046920016485
30
0
11
1385.87989446749
21
224.862109416509
31
0
0
LINE
8
layer0
10
1416.69285963383
20
281.546920016485
30
0
11
1401.69285963383
21
268.556538959719
31
0
0
LINE
8
layer0
10
1401.69285963383
20
268.556538959719
30
0
11
1412.57791116728
21
282.734803318919
31
0
0
LINE
8
layer0
10
1412.57791116728
20
282.734803318919
30
0
11
1416.69285963383
21
281.546920016485
31
0
0
LINE
8
layer0
10
1412.57791116728
20
282.734803318919
30
0
11
1405.05652554231
21
272.937863597452
31
0
0
LINE
8
layer0
10
1405.05652554231
20
272.937863597452
30
0
11
1406.27413468541
21
284.554546843277
31
0
0
LINE
8
layer0
10
1406.27413468541
20
284.554546843277
30
0
11
1412.57791116728
21
282.734803318919
31
0
0
LINE
8
layer0
10
1406.27413468541
20
284.554546843277
30
0
11
1405.54775438135
21
277.624465908734
31
0
0
LINE
8
layer0
10
1405.54775438135
20
277.624465908734
30
0
11
1401.02132229708
21
286.07090316648
31
0
0
LINE
8
layer0
10
1401.02132229708
20
286.07090316648
30
0
11
1406.27413468541
21
284.554546843277
31
0
0
LINE
8
layer0
10
1401.02132229708
20
286.07090316648
30
0
11
1403.11846124958
21
282.157588605856
31
0
0
LINE
8
layer0
10
1403.11846124958
20
282.157588605856
30
0
11
1396.24496059609
21
287.449720023387
31
0
0
LINE
8
layer0
10
1396.24496059609
20
287.449720023387
30
0
11
1401.02132229708
21
286.07090316648
31
0
0
LINE
8
layer0
10
1396.24496059609
20
287.449720023387
30
0
11
1398.00644228462
21
286.093498055102
31
0
0
LINE
8
layer0
10
1398.00644228462
20
286.093498055102
30
0
11
1390.7120975203
21
289.046920016485
31
0
0
LINE
8
layer0
10
1390.7120975203
20
289.046920016485
30
0
11
1396.24496059609
21
287.449720023387
31
0
0
LINE
8
layer0
10
1431.69285963383
20
298.00140268839
30
0
11
1431.69285963383
21
294.537301073252
31
0
0
LINE
8
layer0
10
1431.69285963383
20
294.537301073252
30
0
11
1098.27307917682
21
390.787301073252
31
0
0
LINE
8
layer0
10
1098.27307917682
20
390.787301073252
30
0
11
1098.27307917682
21
394.25140268839
31
0
0
LINE
8
layer0
10
1098.27307917682
20
394.25140268839
30
0
11
1431.69285963383
21
298.00140268839
31
0
0
LINE
8
layer0
10
1098.27307917682
20
394.25140268839
30
0
11
1098.27307917682
21
390.787301073252
31
0
0
LINE
8
layer0
10
1098.27307917682
20
390.787301073252
30
0
11
1089.51042990136
21
392.469134027492
31
0
0
LINE
8
layer0
10
1089.51042990136
20
392.469134027492
30
0
11
1089.51042990136
21
395.93323564263
31
0
0
LINE
8
layer0
10
1089.51042990136
20
395.93323564263
30
0
11
1098.27307917682
21
394.25140268839
31
0
0
LINE
8
layer0
10
1089.51042990136
20
395.93323564263
30
0
11
1089.51042990136
21
392.469134027492
31
0
0
LINE
8
layer0
10
1089.51042990136
20
392.469134027492
30
0
11
1080.1372252788
21
392.714748447009
31
0
0
LINE
8
layer0
10
1080.1372252788
20
392.714748447009
30
0
11
1080.1372252788
21
396.178850062147
31
0
0
LINE
8
layer0
10
1080.1372252788
20
396.178850062147
30
0
11
1089.51042990136
21
395.93323564263
31
0
0
LINE
8
layer0
10
1080.1372252788
20
396.178850062147
30
0
11
1080.1372252788
21
392.714748447009
31
0
0
LINE
8
layer0
10
1080.1372252788
20
392.714748447009
30
0
11
1071.07097988455
21
391.500101881124
31
0
0
LINE
8
layer0
10
1071.07097988455
20
391.500101881124
30
0
11
1071.07097988455
21
394.964203496262
31
0
0
LINE
8
layer0
10
1071.07097988455
20
394.964203496262
30
0
11
1080.1372252788
21
396.178850062147
31
0
0
LINE
8
layer0
10
1071.07097988455
20
394.964203496262
30
0
11
1071.07097988455
21
391.500101881124
31
0
0
LINE
8
layer0
10
1071.07097988455
20
391.500101881124
30
0
11
1063.19916098606
21
388.944092398646
31
0
0
LINE
8
layer0
10
1063.19916098606
20
388.944092398646
30
0
11
1063.19916098606
21
392.408194013784
31
0
0
LINE
8
layer0
10
1063.19916098606
20
392.408194013784
30
0
11
1071.07097988455
21
394.964203496262
31
0
0
LINE
8
layer0
10
1063.19916098606
20
392.408194013784
30
0
11
1063.19916098606
21
388.944092398646
31
0
0
LINE
8
layer0
10
1063.19916098606
20
388.944092398646
30
0
11
1057.29231706329
21
385.296920016485
31
0
0
LINE
8
layer0
10
1057.29231706329
20
385.296920016485
30
0
11
1057.29231706329
21
388.761021631623
31
0
0
LINE
8
layer0
10
1057.29231706329
20
388.761021631623
30
0
11
1063.19916098606
21
392.408194013784
31
0
0
LINE
8
layer0
10
1057.29231706329
20
388.761021631623
30
0
11
1057.29231706329
21
385.296920016485
31
0
0
LINE
8
layer0
10
1057.29231706329
20
385.296920016485
30
0
11
1052.54078385356
21
381.181971549928
31
0
0
LINE
8
layer0
10
1052.54078385356
20
381.181971549928
30
0
11
1052.54078385356
21
384.646073165066
31
0
0
LINE
8
layer0
10
1052.54078385356
20
384.646073165066
30
0
11
1057.29231706329
21
388.761021631623
31
0
0
LINE
8
layer0
10
1052.54078385356
20
384.646073165066
30
0
11
1052.54078385356
21
381.181971549928
31
0
0
LINE
8
layer0
10
1052.54078385356
20
381.181971549928
30
0
11
1043.63418166729
21
373.468627795221
31
0
0
LINE
8
layer0
10
1043.63418166729
20
373.468627795221
30
0
11
1043.63418166729
21
376.932729410359
31
0
0
LINE
8
layer0
10
1043.63418166729
20
376.932729410359
30
0
11
1052.54078385356
21
384.646073165066
31
0
0
LINE
8
layer0
10
1043.63418166729
20
376.932729410359
30
0
11
1043.63418166729
21
373.468627795221
31
0
0
LINE
8
layer0
10
1043.63418166729
20
373.468627795221
30
0
11
1033.2443507633
21
364.470770291343
31
0
0
LINE
8
layer0
10
1033.2443507633
20
364.470770291343
30
0
11
1033.2443507633
21
367.934871906481
31
0
0
LINE
8
layer0
10
1033.2443507633
20
367.934871906481
30
0
11
1043.63418166729
21
376.932729410359
31
0
0
LINE
8
layer0
10
1033.2443507633
20
367.934871906481
30
0
11
1033.2443507633
21
364.470770291343
31
0
0
LINE
8
layer0
10
1033.2443507633
20
364.470770291343
30
0
11
1016.04755946691
21
349.577912165089
31
0
0
LINE
8
layer0
10
1016.04755946691
20
349.577912165089
30
0
11
1016.04755946691
21
353.042013780226
31
0
0
LINE
8
layer0
10
1016.04755946691
20
353.042013780226
30
0
11
1033.2443507633
21
367.934871906481
31
0
0
LINE
8
layer0
10
1016.04755946691
20
353.042013780226
30
0
11
1016.04755946691
21
349.577912165089
31
0
0
LINE
8
layer0
10
1016.04755946691
20
349.577912165089
30
0
11
947.586044343166
21
290.288500886353
31
0
0
LINE
8
layer0
10
947.586044343166
20
290.288500886353
30
0
11
947.586044343166
21
293.75260250149
31
0
0
LINE
8
layer0
10
947.586044343166
20
293.75260250149
30
0
11
1016.04755946691
21
353.042013780226
31
0
0
LINE
8
layer0
10
947.586044343166
20
293.75260250149
30
0
11
947.586044343166
21
290.288500886353
31
0
0
LINE
8
layer0
10
947.586044343166
20
290.288500886353
30
0
11
890.792317063291
21
241.103690286376
31
0
0
LINE
8
layer0
10
890.792317063291
20
241.103690286376
30
0
11
890.792317063291
21
244.567791901514
31
0
0
LINE
8
layer0
10
890.792317063291
20
244.567791901514
30
0
11
947.586044343166
21
293.75260250149
31
0
0
LINE
8
layer0
10
890.792317063291
20
244.567791901514
30
0
11
890.792317063291
21
241.103690286376
31
0
0
LINE
8
layer0
10
890.792317063291
20
241.103690286376
30
0
11
887.42865115481
21
236.722365648643
31
0
0
LINE
8
layer0
10
887.42865115481
20
236.722365648643
30
0
11
887.42865115481
21
240.18646726378
31
0
0
LINE
8
layer0
10
887.42865115481
20
240.18646726378
30
0
11
890.792317063291
21
244.567791901514
31
0
0
LINE
8
layer0
10
887.42865115481
20
240.18646726378
30
0
11
887.42865115481
21
236.722365648643
31
0
0
LINE
8
layer0
10
887.42865115481
20
236.722365648643
30
0
11
886.937422315776
21
232.035763337361
31
0
0
LINE
8
layer0
10
886.937422315776
20
232.035763337361
30
0
11
886.937422315776
21
235.499864952499
31
0
0
LINE
8
layer0
10
886.937422315776
20
235.499864952499
30
0
11
887.42865115481
21
240.18646726378
31
0
0
LINE
8
layer0
10
886.937422315776
20
235.499864952499
30
0
11
886.937422315776
21
232.035763337361
31
0
0
LINE
8
layer0
10
886.937422315776
20
232.035763337361
30
0
11
889.366715447547
21
227.502640640239
31
0
0
LINE
8
layer0
10
889.366715447547
20
227.502640640239
30
0
11
889.366715447547
21
230.966742255377
31
0
0
LINE
8
layer0
10
889.366715447547
20
230.966742255377
30
0
11
886.937422315776
21
235.499864952499
31
0
0
LINE
8
layer0
10
889.366715447547
20
230.966742255377
30
0
11
889.366715447547
21
227.502640640239
31
0
0
LINE
8
layer0
10
889.366715447547
20
227.502640640239
30
0
11
894.478734412503
21
223.566731190993
31
0
0
LINE
8
layer0
10
894.478734412503
20
223.566731190993
30
0
11
894.478734412503
21
227.030832806131
31
0
0
LINE
8
layer0
10
894.478734412503
20
227.030832806131
30
0
11
889.366715447547
21
230.966742255377
31
0
0
LINE
8
layer0
10
894.478734412503
20
227.030832806131
30
0
11
894.478734412503
21
223.566731190993
31
0
0
LINE
8
layer0
10
894.478734412503
20
223.566731190993
30
0
11
901.773079176824
21
220.61330922961
31
0
0
LINE
8
layer0
10
901.773079176824
20
220.61330922961
30
0
11
901.773079176824
21
224.077410844747
31
0
0
LINE
8
layer0
10
901.773079176824
20
224.077410844747
30
0
11
894.478734412503
21
227.030832806131
31
0
0
LINE
8
layer0
10
901.773079176824
20
224.077410844747
30
0
11
901.773079176824
21
220.61330922961
31
0
0
LINE
8
layer0
10
901.773079176824
20
220.61330922961
30
0
11
910.002976109938
21
218.237542624742
31
0
0
LINE
8
layer0
10
910.002976109938
20
218.237542624742
30
0
11
910.002976109938
21
221.701644239879
31
0
0
LINE
8
layer0
10
910.002976109938
20
221.701644239879
30
0
11
901.773079176824
21
224.077410844747
31
0
0
LINE
8
layer0
10
910.002976109938
20
221.701644239879
30
0
11
910.002976109938
21
218.237542624742
31
0
0
LINE
8
layer0
10
910.002976109938
20
218.237542624742
30
0
11
925.429663619353
21
213.784241531609
31
0
0
LINE
8
layer0
10
925.429663619353
20
213.784241531609
30
0
11
925.429663619353
21
217.248343146747
31
0
0
LINE
8
layer0
10
925.429663619353
20
217.248343146747
30
0
11
910.002976109938
21
221.701644239879
31
0
0
LINE
8
layer0
10
925.429663619353
20
217.248343146747
30
0
11
925.429663619353
21
213.784241531609
31
0
0
LINE
8
layer0
10
925.429663619353
20
213.784241531609
30
0
11
943.425378627109
21
208.589326079615
31
0
0
LINE
8
layer0
10
943.425378627109
20
208.589326079615
30
0
11
943.425378627109
21
212.053427694753
31
0
0
LINE
8
layer0
10
943.425378627109
20
212.053427694753
30
0
11
925.429663619353
21
217.248343146747
31
0
0
LINE
8
layer0
10
943.425378627109
20
212.053427694753
30
0
11
943.425378627109
21
208.589326079615
31
0
0
LINE
8
layer0
10
943.425378627109
20
208.589326079615
30
0
11
973.211094879618
21
199.990930431419
31
0
0
LINE
8
layer0
10
973.211094879618
20
199.990930431419
30
0
11
973.211094879618
21
203.455032046557
31
0
0
LINE
8
layer0
10
973.211094879618
20
203.455032046557
30
0
11
943.425378627109
21
212.053427694753
31
0
0
LINE
8
layer0
10
973.211094879618
20
203.455032046557
30
0
11
973.211094879618
21
199.990930431419
31
0
0
LINE
8
layer0
10
973.211094879618
20
199.990930431419
30
0
11
1091.78991743709
21
165.760172869547
31
0
0
LINE
8
layer0
10
1091.78991743709
20
165.760172869547
30
0
11
1091.78991743709
21
169.224274484685
31
0
0
LINE
8
layer0
10
1091.78991743709
20
169.224274484685
30
0
11
973.211094879618
21
203.455032046557
31
0
0
LINE
8
layer0
10
1091.78991743709
20
169.224274484685
30
0
11
1091.78991743709
21
165.760172869547
31
0
0
LINE
8
layer0
10
1091.78991743709
20
165.760172869547
30
0
11
1235.19285963383
21
124.36330922961
31
0
0
LINE
8
layer0
10
1235.19285963383
20
124.36330922961
30
0
11
1235.19285963383
21
127.827410844747
31
0
0
LINE
8
layer0
10
1235.19285963383
20
127.827410844747
30
0
11
1091.78991743709
21
169.224274484685
31
0
0
LINE
8
layer0
10
1235.19285963383
20
127.827410844747
30
0
11
1235.19285963383
21
124.36330922961
31
0
0
LINE
8
layer0
10
1235.19285963383
20
124.36330922961
30
0
11
1243.9555089093
21
122.681476275369
31
0
0
LINE
8
layer0
10
1243.9555089093
20
122.681476275369
30
0
11
1243.9555089093
21
126.145577890507
31
0
0
LINE
8
layer0
10
1243.9555089093
20
126.145577890507
30
0
11
1235.19285963383
21
127.827410844747
31
0
0
LINE
8
layer0
10
1243.9555089093
20
126.145577890507
30
0
11
1243.9555089093
21
122.681476275369
31
0
0
LINE
8
layer0
10
1243.9555089093
20
122.681476275369
30
0
11
1253.32871353186
21
122.435861855852
31
0
0
LINE
8
layer0
10
1253.32871353186
20
122.435861855852
30
0
11
1253.32871353186
21
125.89996347099
31
0
0
LINE
8
layer0
10
1253.32871353186
20
125.89996347099
30
0
11
1243.9555089093
21
126.145577890507
31
0
0
LINE
8
layer0
10
1253.32871353186
20
125.89996347099
30
0
11
1253.32871353186
21
122.435861855852
31
0
0
LINE
8
layer0
10
1253.32871353186
20
122.435861855852
30
0
11
1262.39495892611
21
123.650508421737
31
0
0
LINE
8
layer0
10
1262.39495892611
20
123.650508421737
30
0
11
1262.39495892611
21
127.114610036875
31
0
0
LINE
8
layer0
10
1262.39495892611
20
127.114610036875
30
0
11
1253.32871353186
21
125.89996347099
31
0
0
LINE
8
layer0
10
1262.39495892611
20
127.114610036875
30
0
11
1262.39495892611
21
123.650508421737
31
0
0
LINE
8
layer0
10
1262.39495892611
20
123.650508421737
30
0
11
1270.2667778246
21
126.206517904215
31
0
0
LINE
8
layer0
10
1270.2667778246
20
126.206517904215
30
0
11
1270.2667778246
21
129.670619519353
31
0
0
LINE
8
layer0
10
1270.2667778246
20
129.670619519353
30
0
11
1262.39495892611
21
127.114610036875
31
0
0
LINE
8
layer0
10
1270.2667778246
20
129.670619519353
30
0
11
1270.2667778246
21
126.206517904215
31
0
0
LINE
8
layer0
10
1270.2667778246
20
126.206517904215
30
0
11
1276.17362174737
21
129.853690286376
31
0
0
LINE
8
layer0
10
1276.17362174737
20
129.853690286376
30
0
11
1276.17362174737
21
133.317791901514
31
0
0
LINE
8
layer0
10
1276.17362174737
20
133.317791901514
30
0
11
1270.2667778246
21
129.670619519353
31
0
0
LINE
8
layer0
10
1276.17362174737
20
133.317791901514
30
0
11
1276.17362174737
21
129.853690286376
31
0
0
LINE
8
layer0
10
1276.17362174737
20
129.853690286376
30
0
11
1280.9251549571
21
133.968638752933
31
0
0
LINE
8
layer0
10
1280.9251549571
20
133.968638752933
30
0
11
1280.9251549571
21
137.432740368071
31
0
0
LINE
8
layer0
10
1280.9251549571
20
137.432740368071
30
0
11
1276.17362174737
21
133.317791901514
31
0
0
LINE
8
layer0
10
1280.9251549571
20
137.432740368071
30
0
11
1280.9251549571
21
133.968638752933
31
0
0
LINE
8
layer0
10
1280.9251549571
20
133.968638752933
30
0
11
1289.83175714337
21
141.68198250764
31
0
0
LINE
8
layer0
10
1289.83175714337
20
141.68198250764
30
0
11
1289.83175714337
21
145.146084122778
31
0
0
LINE
8
layer0
10
1289.83175714337
20
145.146084122778
30
0
11
1280.9251549571
21
137.432740368071
31
0
0
LINE
8
layer0
10
1289.83175714337
20
145.146084122778
30
0
11
1289.83175714337
21
141.68198250764
31
0
0
LINE
8
layer0
10
1289.83175714337
20
141.68198250764
30
0
11
1300.22158804736
21
150.679840011519
31
0
0
LINE
8
layer0
10
1300.22158804736
20
150.679840011519
30
0
11
1300.22158804736
21
154.143941626656
31
0
0
LINE
8
layer0
10
1300.22158804736
20
154.143941626656
30
0
11
1289.83175714337
21
145.146084122778
31
0
0
LINE
8
layer0
10
1300.22158804736
20
154.143941626656
30
0
11
1300.22158804736
21
150.679840011519
31
0
0
LINE
8
layer0
10
1300.22158804736
20
150.679840011519
30
0
11
1317.41837934375
21
165.572698137773
31
0
0
LINE
8
layer0
10
1317.41837934375
20
165.572698137773
30
0
11
1317.41837934375
21
169.036799752911
31
0
0
LINE
8
layer0
10
1317.41837934375
20
169.036799752911
30
0
11
1300.22158804736
21
154.143941626656
31
0
0
LINE
8
layer0
10
1317.41837934375
20
169.036799752911
30
0
11
1317.41837934375
21
165.572698137773
31
0
0
LINE
8
layer0
10
1317.41837934375
20
165.572698137773
30
0
11
1385.87989446749
21
224.862109416509
31
0
0
LINE
8
layer0
10
1385.87989446749
20
224.862109416509
30
0
11
1385.87989446749
21
228.326211031647
31
0
0
LINE
8
layer0
10
1385.87989446749
20
228.326211031647
30
0
11
1317.41837934375
21
169.036799752911
31
0
0
LINE
8
layer0
10
1385.87989446749
20
228.326211031647
30
0
11
1385.87989446749
21
224.862109416509
31
0
0
LINE
8
layer0
10
1385.87989446749
20
224.862109416509
30
0
11
1442.67362174737
21
274.046920016485
31
0
0
LINE
8
layer0
10
1442.67362174737
20
274.046920016485
30
0
11
1442.67362174737
21
277.511021631623
31
0
0
LINE
8
layer0
10
1442.67362174737
20
277.511021631623
30
0
11
1385.87989446749
21
228.326211031647
31
0
0
LINE
8
layer0
10
1442.67362174737
20
277.511021631623
30
0
11
1442.67362174737
21
274.046920016485
31
0
0
LINE
8
layer0
10
1442.67362174737
20
274.046920016485
30
0
11
1446.03728765585
21
278.428244654219
31
0
0
LINE
8
layer0
10
1446.03728765585
20
278.428244654219
30
0
11
1446.03728765585
21
281.892346269357
31
0
0
LINE
8
layer0
10
1446.03728765585
20
281.892346269357
30
0
11
1442.67362174737
21
277.511021631623
31
0
0
LINE
8
layer0
10
1446.03728765585
20
281.892346269357
30
0
11
1446.03728765585
21
278.428244654219
31
0
0
LINE
8
layer0
10
1446.03728765585
20
278.428244654219
30
0
11
1446.52851649488
21
283.1148469655
31
0
0
LINE
8
layer0
10
1446.52851649488
20
283.1148469655
30
0
11
1446.52851649488
21
286.578948580638
31
0
0
LINE
8
layer0
10
1446.52851649488
20
286.578948580638
30
0
11
1446.03728765585
21
281.892346269357
31
0
0
LINE
8
layer0
10
1446.52851649488
20
286.578948580638
30
0
11
1446.52851649488
21
283.1148469655
31
0
0
LINE
8
layer0
10
1446.52851649488
20
283.1148469655
30
0
11
1444.09922336311
21
287.647969662622
31
0
0
LINE
8
layer0
10
1444.09922336311
20
287.647969662622
30
0
11
1444.09922336311
21
291.11207127776
31
0
0
LINE
8
layer0
10
1444.09922336311
20
291.11207127776
30
0
11
1446.52851649488
21
286.578948580638
31
0
0
LINE
8
layer0
10
1444.09922336311
20
291.11207127776
30
0
11
1444.09922336311
21
287.647969662622
31
0
0
LINE
8
layer0
10
1444.09922336311
20
287.647969662622
30
0
11
1438.98720439816
21
291.583879111868
31
0
0
LINE
8
layer0
10
1438.98720439816
20
291.583879111868
30
0
11
1438.98720439816
21
295.047980727006
31
0
0
LINE
8
layer0
10
1438.98720439816
20
295.047980727006
30
0
11
1444.09922336311
21
291.11207127776
31
0
0
LINE
8
layer0
10
1438.98720439816
20
295.047980727006
30
0
11
1438.98720439816
21
291.583879111868
31
0
0
LINE
8
layer0
10
1438.98720439816
20
291.583879111868
30
0
11
1431.69285963383
21
294.537301073252
31
0
0
LINE
8
layer0
10
1431.69285963383
20
294.537301073252
30
0
11
1431.69285963383
21
298.00140268839
31
0
0
LINE
8
layer0
10
1431.69285963383
20
298.00140268839
30
0
11
1438.98720439816
21
295.047980727006
31
0
0
LINE
8
layer0
10
1390.7120975203
20
289.046920016485
30
0
11
1390.7120975203
21
292.511021631623
31
0
0
LINE
8
layer0
10
1390.7120975203
20
292.511021631623
30
0
11
1109.25384129036
21
373.761021631623
31
0
0
LINE
8
layer0
10
1109.25384129036
20
373.761021631623
30
0
11
1109.25384129036
21
370.296920016485
31
0
0
LINE
8
layer0
10
1109.25384129036
20
370.296920016485
30
0
11
1390.7120975203
21
289.046920016485
31
0
0
LINE
8
layer0
10
1109.25384129036
20
370.296920016485
30
0
11
1109.25384129036
21
373.761021631623
31
0
0
LINE
8
layer0
10
1109.25384129036
20
373.761021631623
30
0
11
1100.49119201489
21
375.442854585864
31
0
0
LINE
8
layer0
10
1100.49119201489
20
375.442854585864
30
0
11
1100.49119201489
21
371.978752970726
31
0
0
LINE
8
layer0
10
1100.49119201489
20
371.978752970726
30
0
11
1109.25384129036
21
370.296920016485
31
0
0
LINE
8
layer0
10
1100.49119201489
20
371.978752970726
30
0
11
1100.49119201489
21
375.442854585864
31
0
0
LINE
8
layer0
10
1100.49119201489
20
375.442854585864
30
0
11
1091.11798739233
21
375.688469005381
31
0
0
LINE
8
layer0
10
1091.11798739233
20
375.688469005381
30
0
11
1091.11798739233
21
372.224367390243
31
0
0
LINE
8
layer0
10
1091.11798739233
20
372.224367390243
30
0
11
1100.49119201489
21
371.978752970726
31
0
0
LINE
8
layer0
10
1091.11798739233
20
372.224367390243
30
0
11
1091.11798739233
21
375.688469005381
31
0
0
LINE
8
layer0
10
1091.11798739233
20
375.688469005381
30
0
11
1082.05174199808
21
374.473822439495
31
0
0
LINE
8
layer0
10
1082.05174199808
20
374.473822439495
30
0
11
1082.05174199808
21
371.009720824358
31
0
0
LINE
8
layer0
10
1082.05174199808
20
371.009720824358
30
0
11
1091.11798739233
21
372.224367390243
31
0
0
LINE
8
layer0
10
1082.05174199808
20
371.009720824358
30
0
11
1082.05174199808
21
374.473822439495
31
0
0
LINE
8
layer0
10
1082.05174199808
20
374.473822439495
30
0
11
1074.17992309959
21
371.917812957017
31
0
0
LINE
8
layer0
10
1074.17992309959
20
371.917812957017
30
0
11
1074.17992309959
21
368.45371134188
31
0
0
LINE
8
layer0
10
1074.17992309959
20
368.45371134188
30
0
11
1082.05174199808
21
371.009720824358
31
0
0
LINE
8
layer0
10
1074.17992309959
20
368.45371134188
30
0
11
1074.17992309959
21
371.917812957017
31
0
0
LINE
8
layer0
10
1074.17992309959
20
371.917812957017
30
0
11
1068.27307917682
21
368.270640574856
31
0
0
LINE
8
layer0
10
1068.27307917682
20
368.270640574856
30
0
11
1068.27307917682
21
364.806538959719
31
0
0
LINE
8
layer0
10
1068.27307917682
20
364.806538959719
30
0
11
1074.17992309959
21
368.45371134188
31
0
0
LINE
8
layer0
10
1068.27307917682
20
364.806538959719
30
0
11
1068.27307917682
21
368.270640574856
31
0
0
LINE
8
layer0
10
1068.27307917682
20
368.270640574856
30
0
11
931.773079176824
21
250.058172958281
31
0
0
LINE
8
layer0
10
931.773079176824
20
250.058172958281
30
0
11
931.773079176824
21
246.594071343143
31
0
0
LINE
8
layer0
10
931.773079176824
20
246.594071343143
30
0
11
1068.27307917682
21
364.806538959719
31
0
0
LINE
8
layer0
10
931.773079176824
20
246.594071343143
30
0
11
931.773079176824
21
250.058172958281
31
0
0
LINE
8
layer0
10
931.773079176824
20
250.058172958281
30
0
11
928.409413268344
21
245.676848320547
31
0
0
LINE
8
layer0
10
928.409413268344
20
245.676848320547
30
0
11
928.409413268344
21
242.212746705409
31
0
0
LINE
8
layer0
10
928.409413268344
20
242.212746705409
30
0
11
931.773079176824
21
246.594071343143
31
0
0
LINE
8
layer0
10
928.409413268344
20
242.212746705409
30
0
11
928.409413268344
21
245.676848320547
31
0
0
LINE
8
layer0
10
928.409413268344
20
245.676848320547
30
0
11
927.918184429309
21
240.990246009266
31
0
0
LINE
8
layer0
10
927.918184429309
20
240.990246009266
30
0
11
927.918184429309
21
237.526144394128
31
0
0
LINE
8
layer0
10
927.918184429309
20
237.526144394128
30
0
11
928.409413268344
21
242.212746705409
31
0
0
LINE
8
layer0
10
927.918184429309
20
237.526144394128
30
0
11
927.918184429309
21
240.990246009266
31
0
0
LINE
8
layer0
10
927.918184429309
20
240.990246009266
30
0
11
930.34747756108
21
236.457123312144
31
0
0
LINE
8
layer0
10
930.34747756108
20
236.457123312144
30
0
11
930.34747756108
21
232.993021697006
31
0
0
LINE
8
layer0
10
930.34747756108
20
232.993021697006
30
0
11
927.918184429309
21
237.526144394128
31
0
0
LINE
8
layer0
10
930.34747756108
20
232.993021697006
30
0
11
930.34747756108
21
236.457123312144
31
0
0
LINE
8
layer0
10
930.34747756108
20
236.457123312144
30
0
11
935.459496526036
21
232.521213862898
31
0
0
LINE
8
layer0
10
935.459496526036
20
232.521213862898
30
0
11
935.459496526036
21
229.05711224776
31
0
0
LINE
8
layer0
10
935.459496526036
20
229.05711224776
30
0
11
930.34747756108
21
232.993021697006
31
0
0
LINE
8
layer0
10
935.459496526036
20
229.05711224776
30
0
11
935.459496526036
21
232.521213862898
31
0
0
LINE
8
layer0
10
935.459496526036
20
232.521213862898
30
0
11
942.753841290358
21
229.567791901514
31
0
0
LINE
8
layer0
10
942.753841290358
20
229.567791901514
30
0
11
942.753841290358
21
226.103690286376
31
0
0
LINE
8
layer0
10
942.753841290358
20
226.103690286376
30
0
11
935.459496526036
21
229.05711224776
31
0
0
LINE
8
layer0
10
942.753841290358
20
226.103690286376
30
0
11
942.753841290358
21
229.567791901514
31
0
0
LINE
8
layer0
10
942.753841290358
20
229.567791901514
30
0
11
1224.2120975203
21
148.317791901514
31
0
0
LINE
8
layer0
10
1224.2120975203
20
148.317791901514
30
0
11
1224.2120975203
21
144.853690286376
31
0
0
LINE
8
layer0
10
1224.2120975203
20
144.853690286376
30
0
11
942.753841290358
21
226.103690286376
31
0
0
LINE
8
layer0
10
1224.2120975203
20
144.853690286376
30
0
11
1224.2120975203
21
148.317791901514
31
0
0
LINE
8
layer0
10
1224.2120975203
20
148.317791901514
30
0
11
1232.97474679577
21
146.635958947273
31
0
0
LINE
8
layer0
10
1232.97474679577
20
146.635958947273
30
0
11
1232.97474679577
21
143.171857332136
31
0
0
LINE
8
layer0
10
1232.97474679577
20
143.171857332136
30
0
11
1224.2120975203
21
144.853690286376
31
0
0
LINE
8
layer0
10
1232.97474679577
20
143.171857332136
30
0
11
1232.97474679577
21
146.635958947273
31
0
0
LINE
8
layer0
10
1232.97474679577
20
146.635958947273
30
0
11
1242.34795141833
21
146.390344527757
31
0
0
LINE
8
layer0
10
1242.34795141833
20
146.390344527757
30
0
11
1242.34795141833
21
142.926242912619
31
0
0
LINE
8
layer0
10
1242.34795141833
20
142.926242912619
30
0
11
1232.97474679577
21
143.171857332136
31
0
0
LINE
8
layer0
10
1242.34795141833
20
142.926242912619
30
0
11
1242.34795141833
21
146.390344527757
31
0
0
LINE
8
layer0
10
1242.34795141833
20
146.390344527757
30
0
11
1251.41419681257
21
147.604991093642
31
0
0
LINE
8
layer0
10
1251.41419681257
20
147.604991093642
30
0
11
1251.41419681257
21
144.140889478504
31
0
0
LINE
8
layer0
10
1251.41419681257
20
144.140889478504
30
0
11
1242.34795141833
21
142.926242912619
31
0
0
LINE
8
layer0
10
1251.41419681257
20
144.140889478504
30
0
11
1251.41419681257
21
147.604991093642
31
0
0
LINE
8
layer0
10
1251.41419681257
20
147.604991093642
30
0
11
1259.28601571107
21
150.16100057612
31
0
0
LINE
8
layer0
10
1259.28601571107
20
150.16100057612
30
0
11
1259.28601571107
21
146.696898960982
31
0
0
LINE
8
layer0
10
1259.28601571107
20
146.696898960982
30
0
11
1251.41419681257
21
144.140889478504
31
0
0
LINE
8
layer0
10
1259.28601571107
20
146.696898960982
30
0
11
1259.28601571107
21
150.16100057612
31
0
0
LINE
8
layer0
10
1259.28601571107
20
150.16100057612
30
0
11
1265.19285963383
21
153.808172958281
31
0
0
LINE
8
layer0
10
1265.19285963383
20
153.808172958281
30
0
11
1265.19285963383
21
150.344071343143
31
0
0
LINE
8
layer0
10
1265.19285963383
20
150.344071343143
30
0
11
1259.28601571107
21
146.696898960982
31
0
0
LINE
8
layer0
10
1265.19285963383
20
150.344071343143
30
0
11
1265.19285963383
21
153.808172958281
31
0
0
LINE
8
layer0
10
1265.19285963383
20
153.808172958281
30
0
11
1401.69285963383
21
272.020640574856
31
0
0
LINE
8
layer0
10
1401.69285963383
20
272.020640574856
30
0
11
1401.69285963383
21
268.556538959719
31
0
0
LINE
8
layer0
10
1401.69285963383
20
268.556538959719
30
0
11
1265.19285963383
21
150.344071343143
31
0
0
LINE
8
layer0
10
1401.69285963383
20
268.556538959719
30
0
11
1401.69285963383
21
272.020640574856
31
0
0
LINE
8
layer0
10
1401.69285963383
20
272.020640574856
30
0
11
1405.05652554231
21
276.40196521259
31
0
0
LINE
8
layer0
10
1405.05652554231
20
276.40196521259
30
0
11
1405.05652554231
21
272.937863597452
31
0
0
LINE
8
layer0
10
1405.05652554231
20
272.937863597452
30
0
11
1401.69285963383
21
268.556538959719
31
0
0
LINE
8
layer0
10
1405.05652554231
20
272.937863597452
30
0
11
1405.05652554231
21
276.40196521259
31
0
0
LINE
8
layer0
10
1405.05652554231
20
276.40196521259
30
0
11
1405.54775438135
21
281.088567523871
31
0
0
LINE
8
layer0
10
1405.54775438135
20
281.088567523871
30
0
11
1405.54775438135
21
277.624465908734
31
0
0
LINE
8
layer0
10
1405.54775438135
20
277.624465908734
30
0
11
1405.05652554231
21
272.937863597452
31
0
0
LINE
8
layer0
10
1405.54775438135
20
277.624465908734
30
0
11
1405.54775438135
21
281.088567523871
31
0
0
LINE
8
layer0
10
1405.54775438135
20
281.088567523871
30
0
11
1403.11846124958
21
285.621690220993
31
0
0
LINE
8
layer0
10
1403.11846124958
20
285.621690220993
30
0
11
1403.11846124958
21
282.157588605856
31
0
0
LINE
8
layer0
10
1403.11846124958
20
282.157588605856
30
0
11
1405.54775438135
21
277.624465908734
31
0
0
LINE
8
layer0
10
1403.11846124958
20
282.157588605856
30
0
11
1403.11846124958
21
285.621690220993
31
0
0
LINE
8
layer0
10
1403.11846124958
20
285.621690220993
30
0
11
1398.00644228462
21
289.557599670239
31
0
0
LINE
8
layer0
10
1398.00644228462
20
289.557599670239
30
0
11
1398.00644228462
21
286.093498055102
31
0
0
LINE
8
layer0
10
1398.00644228462
20
286.093498055102
30
0
11
1403.11846124958
21
282.157588605856
31
0
0
LINE
8
layer0
10
1398.00644228462
20
286.093498055102
30
0
11
1398.00644228462
21
289.557599670239
31
0
0
LINE
8
layer0
10
1398.00644228462
20
289.557599670239
30
0
11
1390.7120975203
21
292.511021631623
31
0
0
LINE
8
layer0
10
1390.7120975203
20
292.511021631623
30
0
11
1390.7120975203
21
289.046920016485
31
0
0
LINE
8
layer0
10
1390.7120975203
20
289.046920016485
30
0
11
1398.00644228462
21
286.093498055102
31
0
0
LINE
8
layer0
10
1431.69285963383
20
298.00140268839
30
0
11
1098.27307917682
21
394.25140268839
31
0
0
LINE
8
layer0
10
1098.27307917682
20
394.25140268839
30
0
11
1089.51042990136
21
395.93323564263
31
0
0
LINE
8
layer0
10
1089.51042990136
20
395.93323564263
30
0
11
1080.1372252788
21
396.178850062147
31
0
0
LINE
8
layer0
10
1080.1372252788
20
396.178850062147
30
0
11
1071.07097988455
21
394.964203496262
31
0
0
LINE
8
layer0
10
1071.07097988455
20
394.964203496262
30
0
11
1063.19916098606
21
392.408194013784
31
0
0
LINE
8
layer0
10
1063.19916098606
20
392.408194013784
30
0
11
1057.29231706329
21
388.761021631623
31
0
0
LINE
8
layer0
10
1057.29231706329
20
388.761021631623
30
0
11
1057.29231706329
21
388.761021631623
31
0
0
LINE
8
layer0
10
1057.29231706329
20
388.761021631623
30
0
11
1442.67362174737
21
277.511021631623
31
0
0
LINE
8
layer0
10
1442.67362174737
20
277.511021631623
30
0
11
1446.03728765585
21
281.892346269357
31
0
0
LINE
8
layer0
10
1446.03728765585
20
281.892346269357
30
0
11
1446.52851649488
21
286.578948580638
31
0
0
LINE
8
layer0
10
1446.52851649488
20
286.578948580638
30
0
11
1444.09922336311
21
291.11207127776
31
0
0
LINE
8
layer0
10
1444.09922336311
20
291.11207127776
30
0
11
1438.98720439816
21
295.047980727006
31
0
0
LINE
8
layer0
10
1438.98720439816
20
295.047980727006
30
0
11
1431.69285963383
21
298.00140268839
31
0
0
LINE
8
layer0
10
1052.54078385356
20
384.646073165066
30
0
11
1109.25384129036
21
373.761021631623
31
0
0
LINE
8
layer0
10
1109.25384129036
20
373.761021631623
30
0
11
1057.29231706329
21
388.761021631623
31
0
0
LINE
8
layer0
10
1057.29231706329
20
388.761021631623
30
0
11
1052.54078385356
21
384.646073165066
31
0
0
LINE
8
layer0
10
1043.63418166729
20
376.932729410359
30
0
11
1100.49119201489
21
375.442854585864
31
0
0
LINE
8
layer0
10
1100.49119201489
20
375.442854585864
30
0
11
1052.54078385356
21
384.646073165066
31
0
0
LINE
8
layer0
10
1052.54078385356
20
384.646073165066
30
0
11
1043.63418166729
21
376.932729410359
31
0
0
LINE
8
layer0
10
1033.2443507633
20
367.934871906481
30
0
11
1091.11798739233
21
375.688469005381
31
0
0
LINE
8
layer0
10
1091.11798739233
20
375.688469005381
30
0
11
1043.63418166729
21
376.932729410359
31
0
0
LINE
8
layer0
10
1043.63418166729
20
376.932729410359
30
0
11
1033.2443507633
21
367.934871906481
31
0
0
LINE
8
layer0
10
1016.04755946691
20
353.042013780226
30
0
11
1082.05174199808
21
374.473822439495
31
0
0
LINE
8
layer0
10
1082.05174199808
20
374.473822439495
30
0
11
1033.2443507633
21
367.934871906481
31
0
0
LINE
8
layer0
10
1033.2443507633
20
367.934871906481
30
0
11
1016.04755946691
21
353.042013780226
31
0
0
LINE
8
layer0
10
947.586044343166
20
293.75260250149
30
0
11
1074.17992309959
21
371.917812957017
31
0
0
LINE
8
layer0
10
1074.17992309959
20
371.917812957017
30
0
11
1016.04755946691
21
353.042013780226
31
0
0
LINE
8
layer0
10
1016.04755946691
20
353.042013780226
30
0
11
947.586044343166
21
293.75260250149
31
0
0
LINE
8
layer0
10
901.773079176824
20
224.077410844747
30
0
11
1068.27307917682
21
368.270640574856
31
0
0
LINE
8
layer0
10
1068.27307917682
20
368.270640574856
30
0
11
947.586044343166
21
293.75260250149
31
0
0
LINE
8
layer0
10
947.586044343166
20
293.75260250149
30
0
11
890.792317063291
21
244.567791901514
31
0
0
LINE
8
layer0
10
890.792317063291
20
244.567791901514
30
0
11
887.42865115481
21
240.18646726378
31
0
0
LINE
8
layer0
10
887.42865115481
20
240.18646726378
30
0
11
886.937422315776
21
235.499864952499
31
0
0
LINE
8
layer0
10
886.937422315776
20
235.499864952499
30
0
11
889.366715447547
21
230.966742255377
31
0
0
LINE
8
layer0
10
889.366715447547
20
230.966742255377
30
0
11
894.478734412503
21
227.030832806131
31
0
0
LINE
8
layer0
10
894.478734412503
20
227.030832806131
30
0
11
901.773079176824
21
224.077410844747
31
0
0
LINE
8
layer0
10
901.773079176824
20
224.077410844747
30
0
11
901.773079176824
21
224.077410844747
31
0
0
LINE
8
layer0
10
910.002976109938
20
221.701644239879
30
0
11
931.773079176824
21
250.058172958281
31
0
0
LINE
8
layer0
10
931.773079176824
20
250.058172958281
30
0
11
901.773079176824
21
224.077410844747
31
0
0
LINE
8
layer0
10
901.773079176824
20
224.077410844747
30
0
11
910.002976109938
21
221.701644239879
31
0
0
LINE
8
layer0
10
925.429663619353
20
217.248343146747
30
0
11
928.409413268344
21
245.676848320547
31
0
0
LINE
8
layer0
10
928.409413268344
20
245.676848320547
30
0
11
910.002976109938
21
221.701644239879
31
0
0
LINE
8
layer0
10
910.002976109938
20
221.701644239879
30
0
11
925.429663619353
21
217.248343146747
31
0
0
LINE
8
layer0
10
943.425378627109
20
212.053427694753
30
0
11
927.918184429309
21
240.990246009266
31
0
0
LINE
8
layer0
10
927.918184429309
20
240.990246009266
30
0
11
925.429663619353
21
217.248343146747
31
0
0
LINE
8
layer0
10
925.429663619353
20
217.248343146747
30
0
11
943.425378627109
21
212.053427694753
31
0
0
LINE
8
layer0
10
973.211094879618
20
203.455032046557
30
0
11
930.34747756108
21
236.457123312144
31
0
0
LINE
8
layer0
10
930.34747756108
20
236.457123312144
30
0
11
943.425378627109
21
212.053427694753
31
0
0
LINE
8
layer0
10
943.425378627109
20
212.053427694753
30
0
11
973.211094879618
21
203.455032046557
31
0
0
LINE
8
layer0
10
1091.78991743709
20
169.224274484685
30
0
11
935.459496526036
21
232.521213862898
31
0
0
LINE
8
layer0
10
935.459496526036
20
232.521213862898
30
0
11
973.211094879618
21
203.455032046557
31
0
0
LINE
8
layer0
10
973.211094879618
20
203.455032046557
30
0
11
1091.78991743709
21
169.224274484685
31
0
0
LINE
8
layer0
10
1276.17362174737
20
133.317791901514
30
0
11
942.753841290358
21
229.567791901514
31
0
0
LINE
8
layer0
10
942.753841290358
20
229.567791901514
30
0
11
1091.78991743709
21
169.224274484685
31
0
0
LINE
8
layer0
10
1091.78991743709
20
169.224274484685
30
0
11
1235.19285963383
21
127.827410844747
31
0
0
LINE
8
layer0
10
1235.19285963383
20
127.827410844747
30
0
11
1243.9555089093
21
126.145577890507
31
0
0
LINE
8
layer0
10
1243.9555089093
20
126.145577890507
30
0
11
1253.32871353186
21
125.89996347099
31
0
0
LINE
8
layer0
10
1253.32871353186
20
125.89996347099
30
0
11
1262.39495892611
21
127.114610036875
31
0
0
LINE
8
layer0
10
1262.39495892611
20
127.114610036875
30
0
11
1270.2667778246
21
129.670619519353
31
0
0
LINE
8
layer0
10
1270.2667778246
20
129.670619519353
30
0
11
1276.17362174737
21
133.317791901514
31
0
0
LINE
8
layer0
10
1276.17362174737
20
133.317791901514
30
0
11
1276.17362174737
21
133.317791901514
31
0
0
LINE
8
layer0
10
1280.9251549571
20
137.432740368071
30
0
11
1224.2120975203
21
148.317791901514
31
0
0
LINE
8
layer0
10
1224.2120975203
20
148.317791901514
30
0
11
1276.17362174737
21
133.317791901514
31
0
0
LINE
8
layer0
10
1276.17362174737
20
133.317791901514
30
0
11
1280.9251549571
21
137.432740368071
31
0
0
LINE
8
layer0
10
1289.83175714337
20
145.146084122778
30
0
11
1232.97474679577
21
146.635958947273
31
0
0
LINE
8
layer0
10
1232.97474679577
20
146.635958947273
30
0
11
1280.9251549571
21
137.432740368071
31
0
0
LINE
8
layer0
10
1280.9251549571
20
137.432740368071
30
0
11
1289.83175714337
21
145.146084122778
31
0
0
LINE
8
layer0
10
1300.22158804736
20
154.143941626656
30
0
11
1242.34795141833
21
146.390344527757
31
0
0
LINE
8
layer0
10
1242.34795141833
20
146.390344527757
30
0
11
1289.83175714337
21
145.146084122778
31
0
0
LINE
8
layer0
10
1289.83175714337
20
145.146084122778
30
0
11
1300.22158804736
21
154.143941626656
31
0
0
LINE
8
layer0
10
1317.41837934375
20
169.036799752911
30
0
11
1251.41419681257
21
147.604991093642
31
0
0
LINE
8
layer0
10
1251.41419681257
20
147.604991093642
30
0
11
1300.22158804736
21
154.143941626656
31
0
0
LINE
8
layer0
10
1300.22158804736
20
154.143941626656
30
0
11
1317.41837934375
21
169.036799752911
31
0
0
LINE
8
layer0
10
1385.87989446749
20
228.326211031647
30
0
11
1259.28601571107
21
150.16100057612
31
0
0
LINE
8
layer0
10
1259.28601571107
20
150.16100057612
30
0
11
1317.41837934375
21
169.036799752911
31
0
0
LINE
8
layer0
10
1317.41837934375
20
169.036799752911
30
0
11
1385.87989446749
21
228.326211031647
31
0
0
LINE
8
layer0
10
1442.67362174737
20
277.511021631623
30
0
11
1416.69285963383
21
285.011021631623
31
0
0
LINE
8
layer0
10
1416.69285963383
20
285.011021631623
30
0
11
1265.19285963383
21
153.808172958281
31
0
0
LINE
8
layer0
10
1265.19285963383
20
153.808172958281
30
0
11
1385.87989446749
21
228.326211031647
31
0
0
LINE
8
layer0
10
1385.87989446749
20
228.326211031647
30
0
11
1442.67362174737
21
277.511021631623
31
0
0
LINE
8
layer0
10
1442.67362174737
20
277.511021631623
30
0
11
1442.67362174737
21
277.511021631623
31
0
0
LINE
8
layer0
10
1412.57791116728
20
286.198904934057
30
0
11
1401.69285963383
21
272.020640574856
31
0
0
LINE
8
layer0
10
1401.69285963383
20
272.020640574856
30
0
11
1416.69285963383
21
285.011021631623
31
0
0
LINE
8
layer0
10
1416.69285963383
20
285.011021631623
30
0
11
1412.57791116728
21
286.198904934057
31
0
0
LINE
8
layer0
10
1406.27413468541
20
288.018648458415
30
0
11
1405.05652554231
21
276.40196521259
31
0
0
LINE
8
layer0
10
1405.05652554231
20
276.40196521259
30
0
11
1412.57791116728
21
286.198904934057
31
0
0
LINE
8
layer0
10
1412.57791116728
20
286.198904934057
30
0
11
1406.27413468541
21
288.018648458415
31
0
0
LINE
8
layer0
10
1401.02132229708
20
289.535004781617
30
0
11
1405.54775438135
21
281.088567523871
31
0
0
LINE
8
layer0
10
1405.54775438135
20
281.088567523871
30
0
11
1406.27413468541
21
288.018648458415
31
0
0
LINE
8
layer0
10
1406.27413468541
20
288.018648458415
30
0
11
1401.02132229708
21
289.535004781617
31
0
0
LINE
8
layer0
10
1396.24496059609
20
290.913821638525
30
0
11
1403.11846124958
21
285.621690220993
31
0
0
LINE
8
layer0
10
1403.11846124958
20
285.621690220993
30
0
11
1401.02132229708
21
289.535004781617
31
0
0
LINE
8
layer0
10
1401.02132229708
20
289.535004781617
30
0
11
1396.24496059609
21
290.913821638525
31
0
0
LINE
8
layer0
10
1390.7120975203
20
292.511021631623
30
0
11
1398.00644228462
21
289.557599670239
31
0
0
LINE
8
layer0
10
1398.00644228462
20
289.557599670239
30
0
11
1396.24496059609
21
290.913821638525
31
0
0
LINE
8
layer0
10
1396.24496059609
20
290.913821638525
30
0
11
1390.7120975203
21
292.511021631623
31
0
0
ENDBLK
0
BLOCK
8
layer0
2
PF_OBJECT84
70
0
10
0
20
0
30
0
0
LINE
8
layer0
10
1108.3387777809
20
242.10064120355
30
0
11
1398.45728804868
21
158.35064120355
31
0
0
LINE
8
layer0
10
1398.45728804868
20
158.35064120355
30
0
11
1405.75163281301
21
155.397219242166
31
0
0
LINE
8
layer0
10
1405.75163281301
20
155.397219242166
30
0
11
1410.86365177796
21
151.46130979292
31
0
0
LINE
8
layer0
10
1410.86365177796
20
151.46130979292
30
0
11
1413.29294490973
21
146.928187095798
31
0
0
LINE
8
layer0
10
1413.29294490973
20
146.928187095798
30
0
11
1412.8017160707
21
142.241584784517
31
0
0
LINE
8
layer0
10
1412.8017160707
20
142.241584784517
30
0
11
1409.43805016222
21
137.860260146784
31
0
0
LINE
8
layer0
10
1409.43805016222
20
137.860260146784
30
0
11
1267.93805016222
21
15.3176655112854
31
0
0
LINE
8
layer0
10
1267.93805016222
20
15.3176655112854
30
0
11
1262.03120623945
21
11.6704931291245
31
0
0
LINE
8
layer0
10
1262.03120623945
20
11.6704931291245
30
0
11
1254.15938734096
21
9.11448364664636
31
0
0
LINE
8
layer0
10
1254.15938734096
20
9.11448364664636
30
0
11
1245.09314194671
21
7.89983708076136
31
0
0
LINE
8
layer0
10
1245.09314194671
20
7.89983708076136
30
0
11
1235.71993732415
21
8.14545150027823
31
0
0
LINE
8
layer0
10
1235.71993732415
20
8.14545150027823
30
0
11
1226.95728804868
21
9.8272844545188
31
0
0
LINE
8
layer0
10
1226.95728804868
20
9.8272844545188
30
0
11
936.838777780897
21
93.5772844545188
31
0
0
LINE
8
layer0
10
936.838777780897
20
93.5772844545188
30
0
11
929.544433016575
21
96.5307064159025
31
0
0
LINE
8
layer0
10
929.544433016575
20
96.5307064159025
30
0
11
924.432414051619
21
100.466615865148
31
0
0
LINE
8
layer0
10
924.432414051619
20
100.466615865148
30
0
11
922.003120919848
21
104.999738562271
31
0
0
LINE
8
layer0
10
922.003120919848
20
104.999738562271
30
0
11
922.494349758883
21
109.686340873552
31
0
0
LINE
8
layer0
10
922.494349758883
20
109.686340873552
30
0
11
925.858015667363
21
114.067665511285
31
0
0
LINE
8
layer0
10
925.858015667363
20
114.067665511285
30
0
11
1067.35801566736
21
236.610260146783
31
0
0
LINE
8
layer0
10
1067.35801566736
20
236.610260146783
30
0
11
1073.26485959013
21
240.257432528944
31
0
0
LINE
8
layer0
10
1073.26485959013
20
240.257432528944
30
0
11
1081.13667848862
21
242.813442011422
31
0
0
LINE
8
layer0
10
1081.13667848862
20
242.813442011422
30
0
11
1090.20292388287
21
244.028088577308
31
0
0
LINE
8
layer0
10
1090.20292388287
20
244.028088577308
30
0
11
1099.57612850543
21
243.78247415779
31
0
0
LINE
8
layer0
10
1099.57612850543
20
243.78247415779
30
0
11
1108.3387777809
21
242.10064120355
31
0
0
LINE
8
layer0
10
1108.3387777809
20
246.430768222472
30
0
11
1398.45728804868
21
162.680768222472
31
0
0
LINE
8
layer0
10
1398.45728804868
20
162.680768222472
30
0
11
1398.45728804868
21
158.35064120355
31
0
0
LINE
8
layer0
10
1398.45728804868
20
158.35064120355
30
0
11
1108.3387777809
21
242.10064120355
31
0
0
LINE
8
layer0
10
1108.3387777809
20
242.10064120355
30
0
11
1108.3387777809
21
246.430768222472
31
0
0
LINE
8
layer0
10
1398.45728804868
20
288.254451771216
30
0
11
1398.45728804868
21
162.680768222472
31
0
0
LINE
8
layer0
10
1398.45728804868
20
162.680768222472
30
0
11
1108.3387777809
21
246.430768222472
31
0
0
LINE
8
layer0
10
1108.3387777809
20
246.430768222472
30
0
11
1108.3387777809
21
372.004451771216
31
0
0
LINE
8
layer0
10
1108.3387777809
20
372.004451771216
30
0
11
1398.45728804868
21
288.254451771216
31
0
0
LINE
8
layer0
10
1099.57612850543
20
248.112601176713
30
0
11
1108.3387777809
21
246.430768222472
31
0
0
LINE
8
layer0
10
1108.3387777809
20
246.430768222472
30
0
11
1108.3387777809
21
242.10064120355
31
0
0
LINE
8
layer0
10
1108.3387777809
20
242.10064120355
30
0
11
1099.57612850543
21
243.78247415779
31
0
0
LINE
8
layer0
10
1099.57612850543
20
243.78247415779
30
0
11
1099.57612850543
21
248.112601176713
31
0
0
LINE
8
layer0
10
1108.3387777809
20
372.004451771216
30
0
11
1108.3387777809
21
246.430768222472
31
0
0
LINE
8
layer0
10
1108.3387777809
20
246.430768222472
30
0
11
1099.57612850543
21
248.112601176713
31
0
0
LINE
8
layer0
10
1099.57612850543
20
248.112601176713
30
0
11
1099.57612850543
21
373.686284725456
31
0
0
LINE
8
layer0
10
1099.57612850543
20
373.686284725456
30
0
11
1108.3387777809
21
372.004451771216
31
0
0
LINE
8
layer0
10
1090.20292388287
20
248.35821559623
30
0
11
1099.57612850543
21
248.112601176713
31
0
0
LINE
8
layer0
10
1099.57612850543
20
248.112601176713
30
0
11
1099.57612850543
21
243.78247415779
31
0
0
LINE
8
layer0
10
1099.57612850543
20
243.78247415779
30
0
11
1090.20292388287
21
244.028088577308
31
0
0
LINE
8
layer0
10
1090.20292388287
20
244.028088577308
30
0
11
1090.20292388287
21
248.35821559623
31
0
0
LINE
8
layer0
10
1099.57612850543
20
373.686284725456
30
0
11
1099.57612850543
21
248.112601176713
31
0
0
LINE
8
layer0
10
1099.57612850543
20
248.112601176713
30
0
11
1097.30673831635
21
248.172068026781
31
0
0
LINE
8
layer0
10
1097.30673831635
20
248.172068026781
30
0
11
1097.30673831635
21
373.745751575524
31
0
0
LINE
8
layer0
10
1097.30673831635
20
373.745751575524
30
0
11
1099.57612850543
21
373.686284725456
31
0
0
LINE
8
layer0
10
1097.30673831635
20
373.745751575524
30
0
11
1097.30673831635
21
248.172068026781
31
0
0
LINE
8
layer0
10
1097.30673831635
20
248.172068026781
30
0
11
1090.33266580037
21
248.354815853342
31
0
0
LINE
8
layer0
10
1090.33266580037
20
248.354815853342
30
0
11
1090.33266580037
21
373.928499402085
31
0
0
LINE
8
layer0
10
1090.33266580037
20
373.928499402085
30
0
11
1097.30673831635
21
373.745751575524
31
0
0
LINE
8
layer0
10
1090.33266580037
20
373.928499402085
30
0
11
1090.33266580037
21
248.354815853342
31
0
0
LINE
8
layer0
10
1090.33266580037
20
248.354815853342
30
0
11
1090.20292388287
21
248.35821559623
31
0
0
LINE
8
layer0
10
1090.20292388287
20
248.35821559623
30
0
11
1090.20292388287
21
373.931899144973
31
0
0
LINE
8
layer0
10
1090.20292388287
20
373.931899144973
30
0
11
1090.33266580037
21
373.928499402085
31
0
0
LINE
8
layer0
10
1081.13667848862
20
247.143569030345
30
0
11
1090.20292388287
21
248.35821559623
31
0
0
LINE
8
layer0
10
1090.20292388287
20
248.35821559623
30
0
11
1090.20292388287
21
244.028088577308
31
0
0
LINE
8
layer0
10
1090.20292388287
20
244.028088577308
30
0
11
1081.13667848862
21
242.813442011422
31
0
0
LINE
8
layer0
10
1081.13667848862
20
242.813442011422
30
0
11
1081.13667848862
21
247.143569030345
31
0
0
LINE
8
layer0
10
1090.20292388287
20
373.931899144973
30
0
11
1090.20292388287
21
248.35821559623
31
0
0
LINE
8
layer0
10
1090.20292388287
20
248.35821559623
30
0
11
1081.13667848862
21
247.143569030345
31
0
0
LINE
8
layer0
10
1081.13667848862
20
247.143569030345
30
0
11
1081.13667848862
21
372.717252579088
31
0
0
LINE
8
layer0
10
1081.13667848862
20
372.717252579088
30
0
11
1090.20292388287
21
373.931899144973
31
0
0
LINE
8
layer0
10
1073.26485959013
20
244.587559547867
30
0
11
1081.13667848862
21
247.143569030345
31
0
0
LINE
8
layer0
10
1081.13667848862
20
247.143569030345
30
0
11
1081.13667848862
21
242.813442011422
31
0
0
LINE
8
layer0
10
1081.13667848862
20
242.813442011422
30
0
11
1073.26485959013
21
240.257432528944
31
0
0
LINE
8
layer0
10
1073.26485959013
20
240.257432528944
30
0
11
1073.26485959013
21
244.587559547867
31
0
0
LINE
8
layer0
10
1081.13667848862
20
372.717252579088
30
0
11
1081.13667848862
21
247.143569030345
31
0
0
LINE
8
layer0
10
1081.13667848862
20
247.143569030345
30
0
11
1080.47742797652
21
246.929507886155
31
0
0
LINE
8
layer0
10
1080.47742797652
20
246.929507886155
30
0
11
1080.47742797652
21
372.503191434899
31
0
0
LINE
8
layer0
10
1080.47742797652
20
372.503191434899
30
0
11
1081.13667848862
21
372.717252579088
31
0
0
LINE
8
layer0
10
1080.47742797652
20
372.503191434899
30
0
11
1080.47742797652
21
246.929507886155
31
0
0
LINE
8
layer0
10
1080.47742797652
20
246.929507886155
30
0
11
1073.26485959013
21
244.587559547867
31
0
0
LINE
8
layer0
10
1073.26485959013
20
244.587559547867
30
0
11
1073.26485959013
21
370.16124309661
31
0
0
LINE
8
layer0
10
1073.26485959013
20
370.16124309661
30
0
11
1080.47742797652
21
372.503191434899
31
0
0
LINE
8
layer0
10
1067.35801566736
20
240.940387165706
30
0
11
1073.26485959013
21
244.587559547867
31
0
0
LINE
8
layer0
10
1073.26485959013
20
244.587559547867
30
0
11
1073.26485959013
21
240.257432528944
31
0
0
LINE
8
layer0
10
1073.26485959013
20
240.257432528944
30
0
11
1067.35801566736
21
236.610260146783
31
0
0
LINE
8
layer0
10
1067.35801566736
20
236.610260146783
30
0
11
1067.35801566736
21
240.940387165706
31
0
0
LINE
8
layer0
10
1073.26485959013
20
370.16124309661
30
0
11
1073.26485959013
21
244.587559547867
31
0
0
LINE
8
layer0
10
1073.26485959013
20
244.587559547867
30
0
11
1072.58490305254
21
244.167721350447
31
0
0
LINE
8
layer0
10
1072.58490305254
20
244.167721350447
30
0
11
1072.58490305254
21
369.741404899191
31
0
0
LINE
8
layer0
10
1072.58490305254
20
369.741404899191
30
0
11
1073.26485959013
21
370.16124309661
31
0
0
LINE
8
layer0
10
1072.58490305254
20
369.741404899191
30
0
11
1072.58490305254
21
244.167721350447
31
0
0
LINE
8
layer0
10
1072.58490305254
20
244.167721350447
30
0
11
1067.35801566736
21
240.940387165706
31
0
0
LINE
8
layer0
10
1067.35801566736
20
240.940387165706
30
0
11
1067.35801566736
21
366.514070714449
31
0
0
LINE
8
layer0
10
1067.35801566736
20
366.514070714449
30
0
11
1072.58490305254
21
369.741404899191
31
0
0
LINE
8
layer0
10
925.858015667363
20
118.397792530208
30
0
11
1067.35801566736
21
240.940387165706
31
0
0
LINE
8
layer0
10
1067.35801566736
20
240.940387165706
30
0
11
1067.35801566736
21
236.610260146783
31
0
0
LINE
8
layer0
10
1067.35801566736
20
236.610260146783
30
0
11
925.858015667363
21
114.067665511285
31
0
0
LINE
8
layer0
10
925.858015667363
20
114.067665511285
30
0
11
925.858015667363
21
118.397792530208
31
0
0
LINE
8
layer0
10
1067.35801566736
20
366.514070714449
30
0
11
1067.35801566736
21
240.940387165706
31
0
0
LINE
8
layer0
10
1067.35801566736
20
240.940387165706
30
0
11
1066.84915252168
21
240.499698754493
31
0
0
LINE
8
layer0
10
1066.84915252168
20
240.499698754493
30
0
11
1066.84915252168
21
366.073382303237
31
0
0
LINE
8
layer0
10
1066.84915252168
20
366.073382303237
30
0
11
1067.35801566736
21
366.514070714449
31
0
0
LINE
8
layer0
10
1066.84915252168
20
366.073382303237
30
0
11
1066.84915252168
21
240.499698754493
31
0
0
LINE
8
layer0
10
1066.84915252168
20
240.499698754493
30
0
11
1058.21582627402
21
233.023018904861
31
0
0
LINE
8
layer0
10
1058.21582627402
20
233.023018904861
30
0
11
1058.21582627402
21
358.596702453605
31
0
0
LINE
8
layer0
10
1058.21582627402
20
358.596702453605
30
0
11
1066.84915252168
21
366.073382303237
31
0
0
LINE
8
layer0
10
1058.21582627402
20
358.596702453605
30
0
11
1058.21582627402
21
233.023018904861
31
0
0
LINE
8
layer0
10
1058.21582627402
20
233.023018904861
30
0
11
925.858015667363
21
118.397792530208
31
0
0
LINE
8
layer0
10
925.858015667363
20
118.397792530208
30
0
11
925.858015667363
21
243.971476078951
31
0
0
LINE
8
layer0
10
925.858015667363
20
243.971476078951
30
0
11
1058.21582627402
21
358.596702453605
31
0
0
LINE
8
layer0
10
922.494349758883
20
114.016467892474
30
0
11
925.858015667363
21
118.397792530208
31
0
0
LINE
8
layer0
10
925.858015667363
20
118.397792530208
30
0
11
925.858015667363
21
114.067665511285
31
0
0
LINE
8
layer0
10
925.858015667363
20
114.067665511285
30
0
11
922.494349758883
21
109.686340873552
31
0
0
LINE
8
layer0
10
922.494349758883
20
109.686340873552
30
0
11
922.494349758883
21
114.016467892474
31
0
0
LINE
8
layer0
10
925.858015667363
20
243.971476078951
30
0
11
925.858015667363
21
118.397792530208
31
0
0
LINE
8
layer0
10
925.858015667363
20
118.397792530208
30
0
11
922.494349758883
21
114.016467892474
31
0
0
LINE
8
layer0
10
922.494349758883
20
114.016467892474
30
0
11
922.494349758883
21
239.590151441218
31
0
0
LINE
8
layer0
10
922.494349758883
20
239.590151441218
30
0
11
925.858015667363
21
243.971476078951
31
0
0
LINE
8
layer0
10
922.003120919848
20
109.329865581193
30
0
11
922.494349758883
21
114.016467892474
31
0
0
LINE
8
layer0
10
922.494349758883
20
114.016467892474
30
0
11
922.494349758883
21
109.686340873552
31
0
0
LINE
8
layer0
10
922.494349758883
20
109.686340873552
30
0
11
922.003120919848
21
104.999738562271
31
0
0
LINE
8
layer0
10
922.003120919848
20
104.999738562271
30
0
11
922.003120919848
21
109.329865581193
31
0
0
LINE
8
layer0
10
922.494349758883
20
239.590151441218
30
0
11
922.494349758883
21
114.016467892474
31
0
0
LINE
8
layer0
10
922.494349758883
20
114.016467892474
30
0
11
922.375416058746
21
112.881772797935
31
0
0
LINE
8
layer0
10
922.375416058746
20
112.881772797935
30
0
11
922.375416058746
21
238.455456346679
31
0
0
LINE
8
layer0
10
922.375416058746
20
238.455456346679
30
0
11
922.494349758883
21
239.590151441218
31
0
0
LINE
8
layer0
10
922.375416058746
20
238.455456346679
30
0
11
922.375416058746
21
112.881772797935
31
0
0
LINE
8
layer0
10
922.375416058746
20
112.881772797935
30
0
11
922.003120919848
21
109.329865581193
31
0
0
LINE
8
layer0
10
922.003120919848
20
109.329865581193
30
0
11
922.003120919848
21
234.903549129936
31
0
0
LINE
8
layer0
10
922.003120919848
20
234.903549129936
30
0
11
922.375416058746
21
238.455456346679
31
0
0
LINE
8
layer0
10
924.432414051619
20
104.796742884071
30
0
11
922.003120919848
21
109.329865581193
31
0
0
LINE
8
layer0
10
922.003120919848
20
109.329865581193
30
0
11
922.003120919848
21
104.999738562271
31
0
0
LINE
8
layer0
10
922.003120919848
20
104.999738562271
30
0
11
924.432414051619
21
100.466615865148
31
0
0
LINE
8
layer0
10
924.432414051619
20
100.466615865148
30
0
11
924.432414051619
21
104.796742884071
31
0
0
LINE
8
layer0
10
922.003120919848
20
234.903549129936
30
0
11
922.003120919848
21
109.329865581193
31
0
0
LINE
8
layer0
10
922.003120919848
20
109.329865581193
30
0
11
922.329856171569
21
108.720169301171
31
0
0
LINE
8
layer0
10
922.329856171569
20
108.720169301171
30
0
11
922.329856171569
21
234.293852849914
31
0
0
LINE
8
layer0
10
922.329856171569
20
234.293852849914
30
0
11
922.003120919848
21
234.903549129936
31
0
0
LINE
8
layer0
10
922.329856171569
20
234.293852849914
30
0
11
922.329856171569
21
108.720169301171
31
0
0
LINE
8
layer0
10
922.329856171569
20
108.720169301171
30
0
11
924.432414051619
21
104.796742884071
31
0
0
LINE
8
layer0
10
924.432414051619
20
104.796742884071
30
0
11
924.432414051619
21
230.370426432814
31
0
0
LINE
8
layer0
10
924.432414051619
20
230.370426432814
30
0
11
922.329856171569
21
234.293852849914
31
0
0
LINE
8
layer0
10
929.544433016575
20
100.860833434825
30
0
11
924.432414051619
21
104.796742884071
31
0
0
LINE
8
layer0
10
924.432414051619
20
104.796742884071
30
0
11
924.432414051619
21
100.466615865148
31
0
0
LINE
8
layer0
10
924.432414051619
20
100.466615865148
30
0
11
929.544433016575
21
96.5307064159025
31
0
0
LINE
8
layer0
10
929.544433016575
20
96.5307064159025
30
0
11
929.544433016575
21
100.860833434825
31
0
0
LINE
8
layer0
10
924.432414051619
20
230.370426432814
30
0
11
924.432414051619
21
104.796742884071
31
0
0
LINE
8
layer0
10
924.432414051619
20
104.796742884071
30
0
11
926.963863590212
21
102.847697657998
31
0
0
LINE
8
layer0
10
926.963863590212
20
102.847697657998
30
0
11
926.963863590212
21
228.421381206742
31
0
0
LINE
8
layer0
10
926.963863590212
20
228.421381206742
30
0
11
924.432414051619
21
230.370426432814
31
0
0
LINE
8
layer0
10
926.963863590212
20
228.421381206742
30
0
11
926.963863590212
21
102.847697657998
31
0
0
LINE
8
layer0
10
926.963863590212
20
102.847697657998
30
0
11
929.544433016575
21
100.860833434825
31
0
0
LINE
8
layer0
10
929.544433016575
20
100.860833434825
30
0
11
929.544433016575
21
226.434516983568
31
0
0
LINE
8
layer0
10
929.544433016575
20
226.434516983568
30
0
11
926.963863590212
21
228.421381206742
31
0
0
LINE
8
layer0
10
936.838777780897
20
97.907411473441
30
0
11
929.544433016575
21
100.860833434825
31
0
0
LINE
8
layer0
10
929.544433016575
20
100.860833434825
30
0
11
929.544433016575
21
96.5307064159025
31
0
0
LINE
8
layer0
10
929.544433016575
20
96.5307064159025
30
0
11
936.838777780897
21
93.5772844545188
31
0
0
LINE
8
layer0
10
936.838777780897
20
93.5772844545188
30
0
11
936.838777780897
21
97.907411473441
31
0
0
LINE
8
layer0
10
929.544433016575
20
226.434516983568
30
0
11
929.544433016575
21
100.860833434825
31
0
0
LINE
8
layer0
10
929.544433016575
20
100.860833434825
30
0
11
935.05864979138
21
98.628171084918
31
0
0
LINE
8
layer0
10
935.05864979138
20
98.628171084918
30
0
11
935.05864979138
21
224.201854633662
31
0
0
LINE
8
layer0
10
935.05864979138
20
224.201854633662
30
0
11
929.544433016575
21
226.434516983568
31
0
0
LINE
8
layer0
10
935.05864979138
20
224.201854633662
30
0
11
935.05864979138
21
98.628171084918
31
0
0
LINE
8
layer0
10
935.05864979138
20
98.628171084918
30
0
11
936.838777780897
21
97.907411473441
31
0
0
LINE
8
layer0
10
936.838777780897
20
97.907411473441
30
0
11
936.838777780897
21
223.481095022185
31
0
0
LINE
8
layer0
10
936.838777780897
20
223.481095022185
30
0
11
935.05864979138
21
224.201854633662
31
0
0
LINE
8
layer0
10
1226.95728804868
20
14.157411473441
30
0
11
936.838777780897
21
97.907411473441
31
0
0
LINE
8
layer0
10
936.838777780897
20
97.907411473441
30
0
11
936.838777780897
21
93.5772844545188
31
0
0
LINE
8
layer0
10
936.838777780897
20
93.5772844545188
30
0
11
1226.95728804868
21
9.8272844545188
31
0
0
LINE
8
layer0
10
1226.95728804868
20
9.8272844545188
30
0
11
1226.95728804868
21
14.157411473441
31
0
0
LINE
8
layer0
10
936.838777780897
20
223.481095022185
30
0
11
936.838777780897
21
97.907411473441
31
0
0
LINE
8
layer0
10
936.838777780897
20
97.907411473441
30
0
11
946.21850738083
21
95.1997167687173
31
0
0
LINE
8
layer0
10
946.21850738083
20
95.1997167687173
30
0
11
946.21850738083
21
220.773400317461
31
0
0
LINE
8
layer0
10
946.21850738083
20
220.773400317461
30
0
11
936.838777780897
21
223.481095022185
31
0
0
LINE
8
layer0
10
946.21850738083
20
220.773400317461
30
0
11
946.21850738083
21
95.1997167687173
31
0
0
LINE
8
layer0
10
946.21850738083
20
95.1997167687173
30
0
11
980.01286032704
21
85.4441273834254
31
0
0
LINE
8
layer0
10
980.01286032704
20
85.4441273834254
30
0
11
980.01286032704
21
211.017810932169
31
0
0
LINE
8
layer0
10
980.01286032704
20
211.017810932169
30
0
11
946.21850738083
21
220.773400317461
31
0
0
LINE
8
layer0
10
980.01286032704
20
211.017810932169
30
0
11
980.01286032704
21
85.4441273834254
31
0
0
LINE
8
layer0
10
980.01286032704
20
85.4441273834254
30
0
11
1226.95728804868
21
14.157411473441
31
0
0
LINE
8
layer0
10
1226.95728804868
20
14.157411473441
30
0
11
1226.95728804868
21
139.731095022185
31
0
0
LINE
8
layer0
10
1226.95728804868
20
139.731095022185
30
0
11
980.01286032704
21
211.017810932169
31
0
0
LINE
8
layer0
10
1235.71993732415
20
12.4755785192004
30
0
11
1226.95728804868
21
14.157411473441
31
0
0
LINE
8
layer0
10
1226.95728804868
20
14.157411473441
30
0
11
1226.95728804868
21
9.8272844545188
31
0
0
LINE
8
layer0
10
1226.95728804868
20
9.8272844545188
30
0
11
1235.71993732415
21
8.14545150027823
31
0
0
LINE
8
layer0
10
1235.71993732415
20
8.14545150027823
30
0
11
1235.71993732415
21
12.4755785192004
31
0
0
LINE
8
layer0
10
1226.95728804868
20
139.731095022185
30
0
11
1226.95728804868
21
14.157411473441
31
0
0
LINE
8
layer0
10
1226.95728804868
20
14.157411473441
30
0
11
1235.71993732415
21
12.4755785192004
31
0
0
LINE
8
layer0
10
1235.71993732415
20
12.4755785192004
30
0
11
1235.71993732415
21
138.049262067944
31
0
0
LINE
8
layer0
10
1235.71993732415
20
138.049262067944
30
0
11
1226.95728804868
21
139.731095022185
31
0
0
LINE
8
layer0
10
1245.09314194671
20
12.2299640996836
30
0
11
1235.71993732415
21
12.4755785192004
31
0
0
LINE
8
layer0
10
1235.71993732415
20
12.4755785192004
30
0
11
1235.71993732415
21
8.14545150027823
31
0
0
LINE
8
layer0
10
1235.71993732415
20
8.14545150027823
30
0
11
1245.09314194671
21
7.89983708076136
31
0
0
LINE
8
layer0
10
1245.09314194671
20
7.89983708076136
30
0
11
1245.09314194671
21
12.2299640996836
31
0
0
LINE
8
layer0
10
1235.71993732415
20
138.049262067944
30
0
11
1235.71993732415
21
12.4755785192004
31
0
0
LINE
8
layer0
10
1235.71993732415
20
12.4755785192004
30
0
11
1245.09314194671
21
12.2299640996836
31
0
0
LINE
8
layer0
10
1245.09314194671
20
12.2299640996836
30
0
11
1245.09314194671
21
137.803647648427
31
0
0
LINE
8
layer0
10
1245.09314194671
20
137.803647648427
30
0
11
1235.71993732415
21
138.049262067944
31
0
0
LINE
8
layer0
10
1254.15938734096
20
13.4446106655686
30
0
11
1245.09314194671
21
12.2299640996836
31
0
0
LINE
8
layer0
10
1245.09314194671
20
12.2299640996836
30
0
11
1245.09314194671
21
7.89983708076136
31
0
0
LINE
8
layer0
10
1245.09314194671
20
7.89983708076136
30
0
11
1254.15938734096
21
9.11448364664636
31
0
0
LINE
8
layer0
10
1254.15938734096
20
9.11448364664636
30
0
11
1254.15938734096
21
13.4446106655686
31
0
0
LINE
8
layer0
10
1245.09314194671
20
137.803647648427
30
0
11
1245.09314194671
21
12.2299640996836
31
0
0
LINE
8
layer0
10
1245.09314194671
20
12.2299640996836
30
0
11
1247.51170335385
21
12.553989887627
31
0
0
LINE
8
layer0
10
1247.51170335385
20
12.553989887627
30
0
11
1247.51170335385
21
138.127673436371
31
0
0
LINE
8
layer0
10
1247.51170335385
20
138.127673436371
30
0
11
1245.09314194671
21
137.803647648427
31
0
0
LINE
8
layer0
10
1247.51170335385
20
138.127673436371
30
0
11
1247.51170335385
21
12.553989887627
31
0
0
LINE
8
layer0
10
1247.51170335385
20
12.553989887627
30
0
11
1254.15938734096
21
13.4446106655686
31
0
0
LINE
8
layer0
10
1254.15938734096
20
13.4446106655686
30
0
11
1254.15938734096
21
139.018294214312
31
0
0
LINE
8
layer0
10
1254.15938734096
20
139.018294214312
30
0
11
1247.51170335385
21
138.127673436371
31
0
0
LINE
8
layer0
10
1262.03120623945
20
16.0006201480467
30
0
11
1254.15938734096
21
13.4446106655686
31
0
0
LINE
8
layer0
10
1254.15938734096
20
13.4446106655686
30
0
11
1254.15938734096
21
9.11448364664636
31
0
0
LINE
8
layer0
10
1254.15938734096
20
9.11448364664636
30
0
11
1262.03120623945
21
11.6704931291245
31
0
0
LINE
8
layer0
10
1262.03120623945
20
11.6704931291245
30
0
11
1262.03120623945
21
16.0006201480467
31
0
0
LINE
8
layer0
10
1254.15938734096
20
139.018294214312
30
0
11
1254.15938734096
21
13.4446106655686
31
0
0
LINE
8
layer0
10
1254.15938734096
20
13.4446106655686
30
0
11
1254.32885355914
21
13.4996369900089
31
0
0
LINE
8
layer0
10
1254.32885355914
20
13.4996369900089
30
0
11
1254.32885355914
21
139.073320538752
31
0
0
LINE
8
layer0
10
1254.32885355914
20
139.073320538752
30
0
11
1254.15938734096
21
139.018294214312
31
0
0
LINE
8
layer0
10
1254.32885355914
20
139.073320538752
30
0
11
1254.32885355914
21
13.4996369900089
31
0
0
LINE
8
layer0
10
1254.32885355914
20
13.4996369900089
30
0
11
1262.03120623945
21
16.0006201480467
31
0
0
LINE
8
layer0
10
1262.03120623945
20
16.0006201480467
30
0
11
1262.03120623945
21
141.57430369679
31
0
0
LINE
8
layer0
10
1262.03120623945
20
141.57430369679
30
0
11
1254.32885355914
21
139.073320538752
31
0
0
LINE
8
layer0
10
1267.93805016222
20
19.6477925302077
30
0
11
1262.03120623945
21
16.0006201480467
31
0
0
LINE
8
layer0
10
1262.03120623945
20
16.0006201480467
30
0
11
1262.03120623945
21
11.6704931291245
31
0
0
LINE
8
layer0
10
1262.03120623945
20
11.6704931291245
30
0
11
1267.93805016222
21
15.3176655112854
31
0
0
LINE
8
layer0
10
1267.93805016222
20
15.3176655112854
30
0
11
1267.93805016222
21
19.6477925302077
31
0
0
LINE
8
layer0
10
1262.03120623945
20
141.57430369679
30
0
11
1262.03120623945
21
16.0006201480467
31
0
0
LINE
8
layer0
10
1262.03120623945
20
16.0006201480467
30
0
11
1263.3302945214
21
16.8027403607817
31
0
0
LINE
8
layer0
10
1263.3302945214
20
16.8027403607817
30
0
11
1263.3302945214
21
142.376423909525
31
0
0
LINE
8
layer0
10
1263.3302945214
20
142.376423909525
30
0
11
1262.03120623945
21
141.57430369679
31
0
0
LINE
8
layer0
10
1263.3302945214
20
142.376423909525
30
0
11
1263.3302945214
21
16.8027403607817
31
0
0
LINE
8
layer0
10
1263.3302945214
20
16.8027403607817
30
0
11
1267.93805016222
21
19.6477925302077
31
0
0
LINE
8
layer0
10
1267.93805016222
20
19.6477925302077
30
0
11
1267.93805016222
21
145.221476078951
31
0
0
LINE
8
layer0
10
1267.93805016222
20
145.221476078951
30
0
11
1263.3302945214
21
142.376423909525
31
0
0
LINE
8
layer0
10
1409.43805016222
20
142.190387165706
30
0
11
1267.93805016222
21
19.6477925302077
31
0
0
LINE
8
layer0
10
1267.93805016222
20
19.6477925302077
30
0
11
1267.93805016222
21
15.3176655112854
31
0
0
LINE
8
layer0
10
1267.93805016222
20
15.3176655112854
30
0
11
1409.43805016222
21
137.860260146784
31
0
0
LINE
8
layer0
10
1409.43805016222
20
137.860260146784
30
0
11
1409.43805016222
21
142.190387165706
31
0
0
LINE
8
layer0
10
1267.93805016222
20
145.221476078951
30
0
11
1267.93805016222
21
19.6477925302077
31
0
0
LINE
8
layer0
10
1267.93805016222
20
19.6477925302077
30
0
11
1269.48601646221
21
20.9883706702
31
0
0
LINE
8
layer0
10
1269.48601646221
20
20.9883706702
30
0
11
1269.48601646221
21
146.562054218944
31
0
0
LINE
8
layer0
10
1269.48601646221
20
146.562054218944
30
0
11
1267.93805016222
21
145.221476078951
31
0
0
LINE
8
layer0
10
1269.48601646221
20
146.562054218944
30
0
11
1269.48601646221
21
20.9883706702
31
0
0
LINE
8
layer0
10
1269.48601646221
20
20.9883706702
30
0
11
1275.85343957166
21
26.5027208396355
31
0
0
LINE
8
layer0
10
1275.85343957166
20
26.5027208396355
30
0
11
1275.85343957166
21
152.076404388379
31
0
0
LINE
8
layer0
10
1275.85343957166
20
152.076404388379
30
0
11
1269.48601646221
21
146.562054218944
31
0
0
LINE
8
layer0
10
1275.85343957166
20
152.076404388379
30
0
11
1275.85343957166
21
26.5027208396355
31
0
0
LINE
8
layer0
10
1275.85343957166
20
26.5027208396355
30
0
11
1295.36461834225
21
43.3998973127408
31
0
0
LINE
8
layer0
10
1295.36461834225
20
43.3998973127408
30
0
11
1295.36461834225
21
168.973580861484
31
0
0
LINE
8
layer0
10
1295.36461834225
20
168.973580861484
30
0
11
1275.85343957166
21
152.076404388379
31
0
0
LINE
8
layer0
10
1295.36461834225
20
168.973580861484
30
0
11
1295.36461834225
21
43.3998973127408
31
0
0
LINE
8
layer0
10
1295.36461834225
20
43.3998973127408
30
0
11
1409.43805016222
21
142.190387165706
31
0
0
LINE
8
layer0
10
1409.43805016222
20
142.190387165706
30
0
11
1409.43805016222
21
267.764070714449
31
0
0
LINE
8
layer0
10
1409.43805016222
20
267.764070714449
30
0
11
1295.36461834225
21
168.973580861484
31
0
0
LINE
8
layer0
10
1412.8017160707
20
146.571711803439
30
0
11
1409.43805016222
21
142.190387165706
31
0
0
LINE
8
layer0
10
1409.43805016222
20
142.190387165706
30
0
11
1409.43805016222
21
137.860260146784
31
0
0
LINE
8
layer0
10
1409.43805016222
20
137.860260146784
30
0
11
1412.8017160707
21
142.241584784517
31
0
0
LINE
8
layer0
10
1412.8017160707
20
142.241584784517
30
0
11
1412.8017160707
21
146.571711803439
31
0
0
LINE
8
layer0
10
1409.43805016222
20
267.764070714449
30
0
11
1409.43805016222
21
142.190387165706
31
0
0
LINE
8
layer0
10
1409.43805016222
20
142.190387165706
30
0
11
1412.8017160707
21
146.571711803439
31
0
0
LINE
8
layer0
10
1412.8017160707
20
146.571711803439
30
0
11
1412.8017160707
21
272.145395352183
31
0
0
LINE
8
layer0
10
1412.8017160707
20
272.145395352183
30
0
11
1409.43805016222
21
267.764070714449
31
0
0
LINE
8
layer0
10
1413.29294490973
20
151.25831411472
30
0
11
1412.8017160707
21
146.571711803439
31
0
0
LINE
8
layer0
10
1412.8017160707
20
146.571711803439
30
0
11
1412.8017160707
21
142.241584784517
31
0
0
LINE
8
layer0
10
1412.8017160707
20
142.241584784517
30
0
11
1413.29294490973
21
146.928187095798
31
0
0
LINE
8
layer0
10
1413.29294490973
20
146.928187095798
30
0
11
1413.29294490973
21
151.25831411472
31
0
0
LINE
8
layer0
10
1412.8017160707
20
272.145395352183
30
0
11
1412.8017160707
21
146.571711803439
31
0
0
LINE
8
layer0
10
1412.8017160707
20
146.571711803439
30
0
11
1413.29294490973
21
151.25831411472
31
0
0
LINE
8
layer0
10
1413.29294490973
20
151.25831411472
30
0
11
1413.29294490973
21
276.831997663464
31
0
0
LINE
8
layer0
10
1413.29294490973
20
276.831997663464
30
0
11
1412.8017160707
21
272.145395352183
31
0
0
LINE
8
layer0
10
1410.86365177796
20
155.791436811843
30
0
11
1413.29294490973
21
151.25831411472
31
0
0
LINE
8
layer0
10
1413.29294490973
20
151.25831411472
30
0
11
1413.29294490973
21
146.928187095798
31
0
0
LINE
8
layer0
10
1413.29294490973
20
146.928187095798
30
0
11
1410.86365177796
21
151.46130979292
31
0
0
LINE
8
layer0
10
1410.86365177796
20
151.46130979292
30
0
11
1410.86365177796
21
155.791436811843
31
0
0
LINE
8
layer0
10
1413.29294490973
20
276.831997663464
30
0
11
1413.29294490973
21
151.25831411472
31
0
0
LINE
8
layer0
10
1413.29294490973
20
151.25831411472
30
0
11
1412.64489333384
21
152.467594818288
31
0
0
LINE
8
layer0
10
1412.64489333384
20
152.467594818288
30
0
11
1412.64489333384
21
278.041278367032
31
0
0
LINE
8
layer0
10
1412.64489333384
20
278.041278367032
30
0
11
1413.29294490973
21
276.831997663464
31
0
0
LINE
8
layer0
10
1412.64489333384
20
278.041278367032
30
0
11
1412.64489333384
21
152.467594818288
31
0
0
LINE
8
layer0
10
1412.64489333384
20
152.467594818288
30
0
11
1411.13608263909
21
155.283073904204
31
0
0
LINE
8
layer0
10
1411.13608263909
20
155.283073904204
30
0
11
1411.13608263909
21
280.856757452947
31
0
0
LINE
8
layer0
10
1411.13608263909
20
280.856757452947
30
0
11
1412.64489333384
21
278.041278367032
31
0
0
LINE
8
layer0
10
1411.13608263909
20
280.856757452947
30
0
11
1411.13608263909
21
155.283073904204
31
0
0
LINE
8
layer0
10
1411.13608263909
20
155.283073904204
30
0
11
1410.86365177796
21
155.791436811843
31
0
0
LINE
8
layer0
10
1410.86365177796
20
155.791436811843
30
0
11
1410.86365177796
21
281.365120360586
31
0
0
LINE
8
layer0
10
1410.86365177796
20
281.365120360586
30
0
11
1411.13608263909
21
280.856757452947
31
0
0
LINE
8
layer0
10
1405.75163281301
20
159.727346261088
30
0
11
1410.86365177796
21
155.791436811843
31
0
0
LINE
8
layer0
10
1410.86365177796
20
155.791436811843
30
0
11
1410.86365177796
21
151.46130979292
31
0
0
LINE
8
layer0
10
1410.86365177796
20
151.46130979292
30
0
11
1405.75163281301
21
155.397219242166
31
0
0
LINE
8
layer0
10
1405.75163281301
20
155.397219242166
30
0
11
1405.75163281301
21
159.727346261088
31
0
0
LINE
8
layer0
10
1406.98932751323
20
284.348088457446
30
0
11
1406.98932751323
21
158.774404908702
31
0
0
LINE
8
layer0
10
1406.98932751323
20
158.774404908702
30
0
11
1405.75163281301
21
159.727346261088
31
0
0
LINE
8
layer0
10
1405.75163281301
20
159.727346261088
30
0
11
1405.75163281301
21
285.301029809832
31
0
0
LINE
8
layer0
10
1405.75163281301
20
285.301029809832
30
0
11
1406.98932751323
21
284.348088457446
31
0
0
LINE
8
layer0
10
1410.86365177796
20
281.365120360586
30
0
11
1410.86365177796
21
155.791436811843
31
0
0
LINE
8
layer0
10
1410.86365177796
20
155.791436811843
30
0
11
1406.98932751323
21
158.774404908702
31
0
0
LINE
8
layer0
10
1406.98932751323
20
158.774404908702
30
0
11
1406.98932751323
21
284.348088457446
31
0
0
LINE
8
layer0
10
1406.98932751323
20
284.348088457446
30
0
11
1410.86365177796
21
281.365120360586
31
0
0
LINE
8
layer0
10
1398.45728804868
20
162.680768222472
30
0
11
1405.75163281301
21
159.727346261088
31
0
0
LINE
8
layer0
10
1405.75163281301
20
159.727346261088
30
0
11
1405.75163281301
21
155.397219242166
31
0
0
LINE
8
layer0
10
1405.75163281301
20
155.397219242166
30
0
11
1398.45728804868
21
158.35064120355
31
0
0
LINE
8
layer0
10
1398.45728804868
20
158.35064120355
30
0
11
1398.45728804868
21
162.680768222472
31
0
0
LINE
8
layer0
10
1405.75163281301
20
285.301029809832
30
0
11
1405.75163281301
21
159.727346261088
31
0
0
LINE
8
layer0
10
1405.75163281301
20
159.727346261088
30
0
11
1398.45728804868
21
162.680768222472
31
0
0
LINE
8
layer0
10
1398.45728804868
20
162.680768222472
30
0
11
1398.45728804868
21
288.254451771216
31
0
0
LINE
8
layer0
10
1398.45728804868
20
288.254451771216
30
0
11
1405.75163281301
21
285.301029809832
31
0
0
LINE
8
layer0
10
1390.7120975203
20
163.473236467742
30
0
11
1109.25384129036
21
244.723236467742
31
0
0
LINE
8
layer0
10
1109.25384129036
20
244.723236467742
30
0
11
1100.49119201489
21
246.405069421982
31
0
0
LINE
8
layer0
10
1100.49119201489
20
246.405069421982
30
0
11
1091.11798739233
21
246.650683841499
31
0
0
LINE
8
layer0
10
1091.11798739233
20
246.650683841499
30
0
11
1082.05174199808
21
245.436037275614
31
0
0
LINE
8
layer0
10
1082.05174199808
20
245.436037275614
30
0
11
1074.17992309959
21
242.880027793136
31
0
0
LINE
8
layer0
10
1074.17992309959
20
242.880027793136
30
0
11
1068.27307917682
21
239.232855410975
31
0
0
LINE
8
layer0
10
1068.27307917682
20
239.232855410975
30
0
11
931.773079176824
21
121.020387794399
31
0
0
LINE
8
layer0
10
931.773079176824
20
121.020387794399
30
0
11
928.409413268344
21
116.639063156666
31
0
0
LINE
8
layer0
10
928.409413268344
20
116.639063156666
30
0
11
927.918184429309
21
111.952460845384
31
0
0
LINE
8
layer0
10
927.918184429309
20
111.952460845384
30
0
11
930.34747756108
21
107.419338148262
31
0
0
LINE
8
layer0
10
930.34747756108
20
107.419338148262
30
0
11
935.459496526036
21
103.483428699016
31
0
0
LINE
8
layer0
10
935.459496526036
20
103.483428699016
30
0
11
942.753841290358
21
100.530006737633
31
0
0
LINE
8
layer0
10
942.753841290358
20
100.530006737633
30
0
11
1224.2120975203
21
19.2800067376327
31
0
0
LINE
8
layer0
10
1224.2120975203
20
19.2800067376327
30
0
11
1232.97474679577
21
17.5981737833921
31
0
0
LINE
8
layer0
10
1232.97474679577
20
17.5981737833921
30
0
11
1242.34795141833
21
17.3525593638751
31
0
0
LINE
8
layer0
10
1242.34795141833
20
17.3525593638751
30
0
11
1251.41419681257
21
18.5672059297602
31
0
0
LINE
8
layer0
10
1251.41419681257
20
18.5672059297602
30
0
11
1259.28601571107
21
21.1232154122383
31
0
0
LINE
8
layer0
10
1259.28601571107
20
21.1232154122383
30
0
11
1265.19285963383
21
24.7703877943992
31
0
0
LINE
8
layer0
10
1265.19285963383
20
24.7703877943992
30
0
11
1401.69285963383
21
142.982855410975
31
0
0
LINE
8
layer0
10
1401.69285963383
20
142.982855410975
30
0
11
1405.05652554231
21
147.364180048709
31
0
0
LINE
8
layer0
10
1405.05652554231
20
147.364180048709
30
0
11
1405.54775438135
21
152.05078235999
31
0
0
LINE
8
layer0
10
1405.54775438135
20
152.05078235999
30
0
11
1403.11846124958
21
156.583905057112
31
0
0
LINE
8
layer0
10
1403.11846124958
20
156.583905057112
30
0
11
1398.00644228462
21
160.519814506358
31
0
0
LINE
8
layer0
10
1398.00644228462
20
160.519814506358
30
0
11
1390.7120975203
21
163.473236467742
31
0
0
LINE
8
layer0
10
1390.7120975203
20
163.473236467742
30
0
11
1390.7120975203
21
289.046920016485
31
0
0
LINE
8
layer0
10
1390.7120975203
20
289.046920016485
30
0
11
1109.25384129036
21
370.296920016485
31
0
0
LINE
8
layer0
10
1109.25384129036
20
370.296920016485
30
0
11
1109.25384129036
21
244.723236467742
31
0
0
LINE
8
layer0
10
1109.25384129036
20
244.723236467742
30
0
11
1390.7120975203
21
163.473236467742
31
0
0
LINE
8
layer0
10
1109.25384129036
20
244.723236467742
30
0
11
1109.25384129036
21
370.296920016485
31
0
0
LINE
8
layer0
10
1109.25384129036
20
370.296920016485
30
0
11
1100.49119201489
21
371.978752970726
31
0
0
LINE
8
layer0
10
1100.49119201489
20
371.978752970726
30
0
11
1100.49119201489
21
246.405069421982
31
0
0
LINE
8
layer0
10
1100.49119201489
20
246.405069421982
30
0
11
1109.25384129036
21
244.723236467742
31
0
0
LINE
8
layer0
10
1100.49119201489
20
246.405069421982
30
0
11
1100.49119201489
21
371.978752970726
31
0
0
LINE
8
layer0
10
1100.49119201489
20
371.978752970726
30
0
11
1091.11798739233
21
372.224367390243
31
0
0
LINE
8
layer0
10
1091.11798739233
20
372.224367390243
30
0
11
1091.11798739233
21
246.650683841499
31
0
0
LINE
8
layer0
10
1091.11798739233
20
246.650683841499
30
0
11
1100.49119201489
21
246.405069421982
31
0
0
LINE
8
layer0
10
1091.11798739233
20
246.650683841499
30
0
11
1091.11798739233
21
372.224367390243
31
0
0
LINE
8
layer0
10
1091.11798739233
20
372.224367390243
30
0
11
1082.05174199808
21
371.009720824358
31
0
0
LINE
8
layer0
10
1082.05174199808
20
371.009720824358
30
0
11
1082.05174199808
21
245.436037275614
31
0
0
LINE
8
layer0
10
1082.05174199808
20
245.436037275614
30
0
11
1091.11798739233
21
246.650683841499
31
0
0
LINE
8
layer0
10
1082.05174199808
20
245.436037275614
30
0
11
1082.05174199808
21
371.009720824358
31
0
0
LINE
8
layer0
10
1082.05174199808
20
371.009720824358
30
0
11
1074.17992309959
21
368.45371134188
31
0
0
LINE
8
layer0
10
1074.17992309959
20
368.45371134188
30
0
11
1074.17992309959
21
242.880027793136
31
0
0
LINE
8
layer0
10
1074.17992309959
20
242.880027793136
30
0
11
1082.05174199808
21
245.436037275614
31
0
0
LINE
8
layer0
10
1074.17992309959
20
242.880027793136
30
0
11
1074.17992309959
21
368.45371134188
31
0
0
LINE
8
layer0
10
1074.17992309959
20
368.45371134188
30
0
11
1068.27307917682
21
364.806538959719
31
0
0
LINE
8
layer0
10
1068.27307917682
20
364.806538959719
30
0
11
1068.27307917682
21
239.232855410975
31
0
0
LINE
8
layer0
10
1068.27307917682
20
239.232855410975
30
0
11
1074.17992309959
21
242.880027793136
31
0
0
LINE
8
layer0
10
1068.27307917682
20
239.232855410975
30
0
11
1068.27307917682
21
364.806538959719
31
0
0
LINE
8
layer0
10
1068.27307917682
20
364.806538959719
30
0
11
931.773079176824
21
246.594071343143
31
0
0
LINE
8
layer0
10
931.773079176824
20
246.594071343143
30
0
11
931.773079176824
21
121.020387794399
31
0
0
LINE
8
layer0
10
931.773079176824
20
121.020387794399
30
0
11
1068.27307917682
21
239.232855410975
31
0
0
LINE
8
layer0
10
931.773079176824
20
121.020387794399
30
0
11
931.773079176824
21
246.594071343143
31
0
0
LINE
8
layer0
10
931.773079176824
20
246.594071343143
30
0
11
928.409413268344
21
242.212746705409
31
0
0
LINE
8
layer0
10
928.409413268344
20
242.212746705409
30
0
11
928.409413268344
21
116.639063156666
31
0
0
LINE
8
layer0
10
928.409413268344
20
116.639063156666
30
0
11
931.773079176824
21
121.020387794399
31
0
0
LINE
8
layer0
10
928.409413268344
20
116.639063156666
30
0
11
928.409413268344
21
242.212746705409
31
0
0
LINE
8
layer0
10
928.409413268344
20
242.212746705409
30
0
11
927.918184429309
21
237.526144394128
31
0
0
LINE
8
layer0
10
927.918184429309
20
237.526144394128
30
0
11
927.918184429309
21
111.952460845384
31
0
0
LINE
8
layer0
10
927.918184429309
20
111.952460845384
30
0
11
928.409413268344
21
116.639063156666
31
0
0
LINE
8
layer0
10
927.918184429309
20
111.952460845384
30
0
11
927.918184429309
21
237.526144394128
31
0
0
LINE
8
layer0
10
927.918184429309
20
237.526144394128
30
0
11
930.34747756108
21
232.993021697006
31
0
0
LINE
8
layer0
10
930.34747756108
20
232.993021697006
30
0
11
930.34747756108
21
107.419338148262
31
0
0
LINE
8
layer0
10
930.34747756108
20
107.419338148262
30
0
11
927.918184429309
21
111.952460845384
31
0
0
LINE
8
layer0
10
930.34747756108
20
107.419338148262
30
0
11
930.34747756108
21
232.993021697006
31
0
0
LINE
8
layer0
10
930.34747756108
20
232.993021697006
30
0
11
935.459496526036
21
229.05711224776
31
0
0
LINE
8
layer0
10
935.459496526036
20
229.05711224776
30
0
11
935.459496526036
21
103.483428699016
31
0
0
LINE
8
layer0
10
935.459496526036
20
103.483428699016
30
0
11
930.34747756108
21
107.419338148262
31
0
0
LINE
8
layer0
10
935.459496526036
20
103.483428699016
30
0
11
935.459496526036
21
229.05711224776
31
0
0
LINE
8
layer0
10
935.459496526036
20
229.05711224776
30
0
11
942.753841290358
21
226.103690286376
31
0
0
LINE
8
layer0
10
942.753841290358
20
226.103690286376
30
0
11
942.753841290358
21
100.530006737633
31
0
0
LINE
8
layer0
10
942.753841290358
20
100.530006737633
30
0
11
935.459496526036
21
103.483428699016
31
0
0
LINE
8
layer0
10
942.753841290358
20
100.530006737633
30
0
11
942.753841290358
21
226.103690286376
31
0
0
LINE
8
layer0
10
942.753841290358
20
226.103690286376
30
0
11
1224.2120975203
21
144.853690286376
31
0
0
LINE
8
layer0
10
1224.2120975203
20
144.853690286376
30
0
11
1224.2120975203
21
19.2800067376327
31
0
0
LINE
8
layer0
10
1224.2120975203
20
19.2800067376327
30
0
11
942.753841290358
21
100.530006737633
31
0
0
LINE
8
layer0
10
1224.2120975203
20
19.2800067376327
30
0
11
1224.2120975203
21
144.853690286376
31
0
0
LINE
8
layer0
10
1224.2120975203
20
144.853690286376
30
0
11
1232.97474679577
21
143.171857332136
31
0
0
LINE
8
layer0
10
1232.97474679577
20
143.171857332136
30
0
11
1232.97474679577
21
17.5981737833921
31
0
0
LINE
8
layer0
10
1232.97474679577
20
17.5981737833921
30
0
11
1224.2120975203
21
19.2800067376327
31
0
0
LINE
8
layer0
10
1232.97474679577
20
17.5981737833921
30
0
11
1232.97474679577
21
143.171857332136
31
0
0
LINE
8
layer0
10
1232.97474679577
20
143.171857332136
30
0
11
1242.34795141833
21
142.926242912619
31
0
0
LINE
8
layer0
10
1242.34795141833
20
142.926242912619
30
0
11
1242.34795141833
21
17.3525593638751
31
0
0
LINE
8
layer0
10
1242.34795141833
20
17.3525593638751
30
0
11
1232.97474679577
21
17.5981737833921
31
0
0
LINE
8
layer0
10
1242.34795141833
20
17.3525593638751
30
0
11
1242.34795141833
21
142.926242912619
31
0
0
LINE
8
layer0
10
1242.34795141833
20
142.926242912619
30
0
11
1251.41419681257
21
144.140889478504
31
0
0
LINE
8
layer0
10
1251.41419681257
20
144.140889478504
30
0
11
1251.41419681257
21
18.5672059297602
31
0
0
LINE
8
layer0
10
1251.41419681257
20
18.5672059297602
30
0
11
1242.34795141833
21
17.3525593638751
31
0
0
LINE
8
layer0
10
1251.41419681257
20
18.5672059297602
30
0
11
1251.41419681257
21
144.140889478504
31
0
0
LINE
8
layer0
10
1251.41419681257
20
144.140889478504
30
0
11
1259.28601571107
21
146.696898960982
31
0
0
LINE
8
layer0
10
1259.28601571107
20
146.696898960982
30
0
11
1259.28601571107
21
21.1232154122383
31
0
0
LINE
8
layer0
10
1259.28601571107
20
21.1232154122383
30
0
11
1251.41419681257
21
18.5672059297602
31
0
0
LINE
8
layer0
10
1259.28601571107
20
21.1232154122383
30
0
11
1259.28601571107
21
146.696898960982
31
0
0
LINE
8
layer0
10
1259.28601571107
20
146.696898960982
30
0
11
1265.19285963383
21
150.344071343143
31
0
0
LINE
8
layer0
10
1265.19285963383
20
150.344071343143
30
0
11
1265.19285963383
21
24.7703877943992
31
0
0
LINE
8
layer0
10
1265.19285963383
20
24.7703877943992
30
0
11
1259.28601571107
21
21.1232154122383
31
0
0
LINE
8
layer0
10
1265.19285963383
20
24.7703877943992
30
0
11
1265.19285963383
21
150.344071343143
31
0
0
LINE
8
layer0
10
1265.19285963383
20
150.344071343143
30
0
11
1401.69285963383
21
268.556538959719
31
0
0
LINE
8
layer0
10
1401.69285963383
20
268.556538959719
30
0
11
1401.69285963383
21
142.982855410975
31
0
0
LINE
8
layer0
10
1401.69285963383
20
142.982855410975
30
0
11
1265.19285963383
21
24.7703877943992
31
0
0
LINE
8
layer0
10
1401.69285963383
20
142.982855410975
30
0
11
1401.69285963383
21
268.556538959719
31
0
0
LINE
8
layer0
10
1401.69285963383
20
268.556538959719
30
0
11
1405.05652554231
21
272.937863597452
31
0
0
LINE
8
layer0
10
1405.05652554231
20
272.937863597452
30
0
11
1405.05652554231
21
147.364180048709
31
0
0
LINE
8
layer0
10
1405.05652554231
20
147.364180048709
30
0
11
1401.69285963383
21
142.982855410975
31
0
0
LINE
8
layer0
10
1405.05652554231
20
147.364180048709
30
0
11
1405.05652554231
21
272.937863597452
31
0
0
LINE
8
layer0
10
1405.05652554231
20
272.937863597452
30
0
11
1405.54775438135
21
277.624465908734
31
0
0
LINE
8
layer0
10
1405.54775438135
20
277.624465908734
30
0
11
1405.54775438135
21
152.05078235999
31
0
0
LINE
8
layer0
10
1405.54775438135
20
152.05078235999
30
0
11
1405.05652554231
21
147.364180048709
31
0
0
LINE
8
layer0
10
1405.54775438135
20
152.05078235999
30
0
11
1405.54775438135
21
277.624465908734
31
0
0
LINE
8
layer0
10
1405.54775438135
20
277.624465908734
30
0
11
1403.11846124958
21
282.157588605856
31
0
0
LINE
8
layer0
10
1403.11846124958
20
282.157588605856
30
0
11
1403.11846124958
21
156.583905057112
31
0
0
LINE
8
layer0
10
1403.11846124958
20
156.583905057112
30
0
11
1405.54775438135
21
152.05078235999
31
0
0
LINE
8
layer0
10
1403.11846124958
20
156.583905057112
30
0
11
1403.11846124958
21
282.157588605856
31
0
0
LINE
8
layer0
10
1403.11846124958
20
282.157588605856
30
0
11
1398.00644228462
21
286.093498055102
31
0
0
LINE
8
layer0
10
1398.00644228462
20
286.093498055102
30
0
11
1398.00644228462
21
160.519814506358
31
0
0
LINE
8
layer0
10
1398.00644228462
20
160.519814506358
30
0
11
1403.11846124958
21
156.583905057112
31
0
0
LINE
8
layer0
10
1398.00644228462
20
160.519814506358
30
0
11
1398.00644228462
21
286.093498055102
31
0
0
LINE
8
layer0
10
1398.00644228462
20
286.093498055102
30
0
11
1390.7120975203
21
289.046920016485
31
0
0
LINE
8
layer0
10
1390.7120975203
20
289.046920016485
30
0
11
1390.7120975203
21
163.473236467742
31
0
0
LINE
8
layer0
10
1390.7120975203
20
163.473236467742
30
0
11
1398.00644228462
21
160.519814506358
31
0
0
LINE
8
layer0
10
1398.45728804868
20
288.254451771216
30
0
11
1108.3387777809
21
372.004451771216
31
0
0
LINE
8
layer0
10
1108.3387777809
20
372.004451771216
30
0
11
1099.57612850543
21
373.686284725456
31
0
0
LINE
8
layer0
10
1099.57612850543
20
373.686284725456
30
0
11
1097.30673831635
21
373.745751575524
31
0
0
LINE
8
layer0
10
1097.30673831635
20
373.745751575524
30
0
11
1406.98932751323
21
284.348088457446
31
0
0
LINE
8
layer0
10
1406.98932751323
20
284.348088457446
30
0
11
1405.75163281301
21
285.301029809832
31
0
0
LINE
8
layer0
10
1405.75163281301
20
285.301029809832
30
0
11
1398.45728804868
21
288.254451771216
31
0
0
LINE
8
layer0
10
1090.33266580037
20
373.928499402085
30
0
11
1109.25384129036
21
370.296920016485
31
0
0
LINE
8
layer0
10
1109.25384129036
20
370.296920016485
30
0
11
1097.30673831635
21
373.745751575524
31
0
0
LINE
8
layer0
10
1097.30673831635
20
373.745751575524
30
0
11
1090.33266580037
21
373.928499402085
31
0
0
LINE
8
layer0
10
1080.47742797652
20
372.503191434899
30
0
11
1100.49119201489
21
371.978752970726
31
0
0
LINE
8
layer0
10
1100.49119201489
20
371.978752970726
30
0
11
1090.33266580037
21
373.928499402085
31
0
0
LINE
8
layer0
10
1090.33266580037
20
373.928499402085
30
0
11
1090.20292388287
21
373.931899144973
31
0
0
LINE
8
layer0
10
1090.20292388287
20
373.931899144973
30
0
11
1081.13667848862
21
372.717252579088
31
0
0
LINE
8
layer0
10
1081.13667848862
20
372.717252579088
30
0
11
1080.47742797652
21
372.503191434899
31
0
0
LINE
8
layer0
10
1072.58490305254
20
369.741404899191
30
0
11
1091.11798739233
21
372.224367390243
31
0
0
LINE
8
layer0
10
1091.11798739233
20
372.224367390243
30
0
11
1080.47742797652
21
372.503191434899
31
0
0
LINE
8
layer0
10
1080.47742797652
20
372.503191434899
30
0
11
1073.26485959013
21
370.16124309661
31
0
0
LINE
8
layer0
10
1073.26485959013
20
370.16124309661
30
0
11
1072.58490305254
21
369.741404899191
31
0
0
LINE
8
layer0
10
1066.84915252168
20
366.073382303237
30
0
11
1082.05174199808
21
371.009720824358
31
0
0
LINE
8
layer0
10
1082.05174199808
20
371.009720824358
30
0
11
1072.58490305254
21
369.741404899191
31
0
0
LINE
8
layer0
10
1072.58490305254
20
369.741404899191
30
0
11
1067.35801566736
21
366.514070714449
31
0
0
LINE
8
layer0
10
1067.35801566736
20
366.514070714449
30
0
11
1066.84915252168
21
366.073382303237
31
0
0
LINE
8
layer0
10
1058.21582627402
20
358.596702453605
30
0
11
1074.17992309959
21
368.45371134188
31
0
0
LINE
8
layer0
10
1074.17992309959
20
368.45371134188
30
0
11
1066.84915252168
21
366.073382303237
31
0
0
LINE
8
layer0
10
1066.84915252168
20
366.073382303237
30
0
11
1058.21582627402
21
358.596702453605
31
0
0
LINE
8
layer0
10
922.375416058746
20
238.455456346679
30
0
11
1068.27307917682
21
364.806538959719
31
0
0
LINE
8
layer0
10
1068.27307917682
20
364.806538959719
30
0
11
1058.21582627402
21
358.596702453605
31
0
0
LINE
8
layer0
10
1058.21582627402
20
358.596702453605
30
0
11
925.858015667363
21
243.971476078951
31
0
0
LINE
8
layer0
10
925.858015667363
20
243.971476078951
30
0
11
922.494349758883
21
239.590151441218
31
0
0
LINE
8
layer0
10
922.494349758883
20
239.590151441218
30
0
11
922.375416058746
21
238.455456346679
31
0
0
LINE
8
layer0
10
922.329856171569
20
234.293852849914
30
0
11
931.773079176824
21
246.594071343143
31
0
0
LINE
8
layer0
10
931.773079176824
20
246.594071343143
30
0
11
922.375416058746
21
238.455456346679
31
0
0
LINE
8
layer0
10
922.375416058746
20
238.455456346679
30
0
11
922.003120919848
21
234.903549129936
31
0
0
LINE
8
layer0
10
922.003120919848
20
234.903549129936
30
0
11
922.329856171569
21
234.293852849914
31
0
0
LINE
8
layer0
10
926.963863590212
20
228.421381206742
30
0
11
928.409413268344
21
242.212746705409
31
0
0
LINE
8
layer0
10
928.409413268344
20
242.212746705409
30
0
11
922.329856171569
21
234.293852849914
31
0
0
LINE
8
layer0
10
922.329856171569
20
234.293852849914
30
0
11
924.432414051619
21
230.370426432814
31
0
0
LINE
8
layer0
10
924.432414051619
20
230.370426432814
30
0
11
926.963863590212
21
228.421381206742
31
0
0
LINE
8
layer0
10
935.05864979138
20
224.201854633662
30
0
11
927.918184429309
21
237.526144394128
31
0
0
LINE
8
layer0
10
927.918184429309
20
237.526144394128
30
0
11
926.963863590212
21
228.421381206742
31
0
0
LINE
8
layer0
10
926.963863590212
20
228.421381206742
30
0
11
929.544433016575
21
226.434516983568
31
0
0
LINE
8
layer0
10
929.544433016575
20
226.434516983568
30
0
11
935.05864979138
21
224.201854633662
31
0
0
LINE
8
layer0
10
946.21850738083
20
220.773400317461
30
0
11
930.34747756108
21
232.993021697006
31
0
0
LINE
8
layer0
10
930.34747756108
20
232.993021697006
30
0
11
935.05864979138
21
224.201854633662
31
0
0
LINE
8
layer0
10
935.05864979138
20
224.201854633662
30
0
11
936.838777780897
21
223.481095022185
31
0
0
LINE
8
layer0
10
936.838777780897
20
223.481095022185
30
0
11
946.21850738083
21
220.773400317461
31
0
0
LINE
8
layer0
10
980.01286032704
20
211.017810932169
30
0
11
935.459496526036
21
229.05711224776
31
0
0
LINE
8
layer0
10
935.459496526036
20
229.05711224776
30
0
11
946.21850738083
21
220.773400317461
31
0
0
LINE
8
layer0
10
946.21850738083
20
220.773400317461
30
0
11
980.01286032704
21
211.017810932169
31
0
0
LINE
8
layer0
10
1247.51170335385
20
138.127673436371
30
0
11
942.753841290358
21
226.103690286376
31
0
0
LINE
8
layer0
10
942.753841290358
20
226.103690286376
30
0
11
980.01286032704
21
211.017810932169
31
0
0
LINE
8
layer0
10
980.01286032704
20
211.017810932169
30
0
11
1226.95728804868
21
139.731095022185
31
0
0
LINE
8
layer0
10
1226.95728804868
20
139.731095022185
30
0
11
1235.71993732415
21
138.049262067944
31
0
0
LINE
8
layer0
10
1235.71993732415
20
138.049262067944
30
0
11
1245.09314194671
21
137.803647648427
31
0
0
LINE
8
layer0
10
1245.09314194671
20
137.803647648427
30
0
11
1247.51170335385
21
138.127673436371
31
0
0
LINE
8
layer0
10
1254.32885355914
20
139.073320538752
30
0
11
1224.2120975203
21
144.853690286376
31
0
0
LINE
8
layer0
10
1224.2120975203
20
144.853690286376
30
0
11
1247.51170335385
21
138.127673436371
31
0
0
LINE
8
layer0
10
1247.51170335385
20
138.127673436371
30
0
11
1254.15938734096
21
139.018294214312
31
0
0
LINE
8
layer0
10
1254.15938734096
20
139.018294214312
30
0
11
1254.32885355914
21
139.073320538752
31
0
0
LINE
8
layer0
10
1263.3302945214
20
142.376423909525
30
0
11
1232.97474679577
21
143.171857332136
31
0
0
LINE
8
layer0
10
1232.97474679577
20
143.171857332136
30
0
11
1254.32885355914
21
139.073320538752
31
0
0
LINE
8
layer0
10
1254.32885355914
20
139.073320538752
30
0
11
1262.03120623945
21
141.57430369679
31
0
0
LINE
8
layer0
10
1262.03120623945
20
141.57430369679
30
0
11
1263.3302945214
21
142.376423909525
31
0
0
LINE
8
layer0
10
1269.48601646221
20
146.562054218944
30
0
11
1242.34795141833
21
142.926242912619
31
0
0
LINE
8
layer0
10
1242.34795141833
20
142.926242912619
30
0
11
1263.3302945214
21
142.376423909525
31
0
0
LINE
8
layer0
10
1263.3302945214
20
142.376423909525
30
0
11
1267.93805016222
21
145.221476078951
31
0
0
LINE
8
layer0
10
1267.93805016222
20
145.221476078951
30
0
11
1269.48601646221
21
146.562054218944
31
0
0
LINE
8
layer0
10
1275.85343957166
20
152.076404388379
30
0
11
1251.41419681257
21
144.140889478504
31
0
0
LINE
8
layer0
10
1251.41419681257
20
144.140889478504
30
0
11
1269.48601646221
21
146.562054218944
31
0
0
LINE
8
layer0
10
1269.48601646221
20
146.562054218944
30
0
11
1275.85343957166
21
152.076404388379
31
0
0
LINE
8
layer0
10
1295.36461834225
20
168.973580861484
30
0
11
1259.28601571107
21
146.696898960982
31
0
0
LINE
8
layer0
10
1259.28601571107
20
146.696898960982
30
0
11
1275.85343957166
21
152.076404388379
31
0
0
LINE
8
layer0
10
1275.85343957166
20
152.076404388379
30
0
11
1295.36461834225
21
168.973580861484
31
0
0
LINE
8
layer0
10
1412.64489333384
20
278.041278367032
30
0
11
1265.19285963383
21
150.344071343143
31
0
0
LINE
8
layer0
10
1265.19285963383
20
150.344071343143
30
0
11
1295.36461834225
21
168.973580861484
31
0
0
LINE
8
layer0
10
1295.36461834225
20
168.973580861484
30
0
11
1409.43805016222
21
267.764070714449
31
0
0
LINE
8
layer0
10
1409.43805016222
20
267.764070714449
30
0
11
1412.8017160707
21
272.145395352183
31
0
0
LINE
8
layer0
10
1412.8017160707
20
272.145395352183
30
0
11
1413.29294490973
21
276.831997663464
31
0
0
LINE
8
layer0
10
1413.29294490973
20
276.831997663464
30
0
11
1412.64489333384
21
278.041278367032
31
0
0
LINE
8
layer0
10
1411.13608263909
20
280.856757452947
30
0
11
1401.69285963383
21
268.556538959719
31
0
0
LINE
8
layer0
10
1401.69285963383
20
268.556538959719
30
0
11
1412.64489333384
21
278.041278367032
31
0
0
LINE
8
layer0
10
1412.64489333384
20
278.041278367032
30
0
11
1411.13608263909
21
280.856757452947
31
0
0
LINE
8
layer0
10
1406.98932751323
20
284.348088457446
30
0
11
1406.27413468541
21
284.554546843277
31
0
0
LINE
8
layer0
10
1406.27413468541
20
284.554546843277
30
0
11
1405.05652554231
21
272.937863597452
31
0
0
LINE
8
layer0
10
1405.05652554231
20
272.937863597452
30
0
11
1411.13608263909
21
280.856757452947
31
0
0
LINE
8
layer0
10
1411.13608263909
20
280.856757452947
30
0
11
1410.86365177796
21
281.365120360586
31
0
0
LINE
8
layer0
10
1410.86365177796
20
281.365120360586
30
0
11
1406.98932751323
21
284.348088457446
31
0
0
LINE
8
layer0
10
1401.02132229708
20
286.07090316648
30
0
11
1405.54775438135
21
277.624465908734
31
0
0
LINE
8
layer0
10
1405.54775438135
20
277.624465908734
30
0
11
1406.27413468541
21
284.554546843277
31
0
0
LINE
8
layer0
10
1406.27413468541
20
284.554546843277
30
0
11
1401.02132229708
21
286.07090316648
31
0
0
LINE
8
layer0
10
1396.24496059609
20
287.449720023387
30
0
11
1403.11846124958
21
282.157588605856
31
0
0
LINE
8
layer0
10
1403.11846124958
20
282.157588605856
30
0
11
1401.02132229708
21
286.07090316648
31
0
0
LINE
8
layer0
10
1401.02132229708
20
286.07090316648
30
0
11
1396.24496059609
21
287.449720023387
31
0
0
LINE
8
layer0
10
1390.7120975203
20
289.046920016485
30
0
11
1398.00644228462
21
286.093498055102
31
0
0
LINE
8
layer0
10
1398.00644228462
20
286.093498055102
30
0
11
1396.24496059609
21
287.449720023387
31
0
0
LINE
8
layer0
10
1396.24496059609
20
287.449720023387
30
0
11
1390.7120975203
21
289.046920016485
31
0
0
ENDBLK
0
BLOCK
8
layer0
2
PF_OBJECT85
70
0
10
0
20
0
30
0
0
LINE
8
layer0
10
1318.32826326022
20
362.254079006132
30
0
11
1311.33937586588
21
366.808126696246
31
0
0
LINE
8
layer0
10
1311.33937586588
20
366.808126696246
30
0
11
1311.33937586588
21
496.711937263912
31
0
0
LINE
8
layer0
10
1311.33937586588
20
496.711937263912
30
0
11
1318.32826326022
21
492.157889573798
31
0
0
LINE
8
layer0
10
1318.32826326022
20
492.157889573798
30
0
11
1318.32826326022
21
362.254079006132
31
0
0
LINE
8
layer0
10
1316.82975692265
20
356.562936167863
30
0
11
1318.32826326022
21
362.254079006132
31
0
0
LINE
8
layer0
10
1318.32826326022
20
362.254079006132
30
0
11
1318.32826326022
21
492.157889573798
31
0
0
LINE
8
layer0
10
1318.32826326022
20
492.157889573798
30
0
11
1316.82975692265
21
486.466746735529
31
0
0
LINE
8
layer0
10
1316.82975692265
20
486.466746735529
30
0
11
1316.82975692265
21
356.562936167863
31
0
0
LINE
8
layer0
10
1307.72166154242
20
353.068492470695
30
0
11
1316.82975692265
21
356.562936167863
31
0
0
LINE
8
layer0
10
1316.82975692265
20
356.562936167863
30
0
11
1316.82975692265
21
486.466746735529
31
0
0
LINE
8
layer0
10
1316.82975692265
20
486.466746735529
30
0
11
1307.72166154242
21
482.972303038361
31
0
0
LINE
8
layer0
10
1307.72166154242
20
482.972303038361
30
0
11
1307.72166154242
21
353.068492470695
31
0
0
LINE
8
layer0
10
1296.33937586588
20
353.81774563948
30
0
11
1307.72166154242
21
353.068492470695
31
0
0
LINE
8
layer0
10
1307.72166154242
20
353.068492470695
30
0
11
1307.72166154242
21
482.972303038361
31
0
0
LINE
8
layer0
10
1307.72166154242
20
482.972303038361
30
0
11
1296.33937586588
21
483.721556207145
31
0
0
LINE
8
layer0
10
1296.33937586588
20
483.721556207145
30
0
11
1296.33937586588
21
353.81774563948
31
0
0
LINE
8
layer0
10
1289.35048847154
20
358.371793329594
30
0
11
1296.33937586588
21
353.81774563948
31
0
0
LINE
8
layer0
10
1296.33937586588
20
353.81774563948
30
0
11
1296.33937586588
21
483.721556207145
31
0
0
LINE
8
layer0
10
1296.33937586588
20
483.721556207145
30
0
11
1289.35048847154
21
488.27560389726
31
0
0
LINE
8
layer0
10
1289.35048847154
20
488.27560389726
30
0
11
1289.35048847154
21
358.371793329594
31
0
0
LINE
8
layer0
10
1290.84899480911
20
364.062936167863
30
0
11
1289.35048847154
21
358.371793329594
31
0
0
LINE
8
layer0
10
1289.35048847154
20
358.371793329594
30
0
11
1289.35048847154
21
488.27560389726
31
0
0
LINE
8
layer0
10
1289.35048847154
20
488.27560389726
30
0
11
1290.84899480911
21
493.966746735529
31
0
0
LINE
8
layer0
10
1290.84899480911
20
493.966746735529
30
0
11
1290.84899480911
21
364.062936167863
31
0
0
LINE
8
layer0
10
1299.95709018934
20
367.557379865031
30
0
11
1290.84899480911
21
364.062936167863
31
0
0
LINE
8
layer0
10
1290.84899480911
20
364.062936167863
30
0
11
1290.84899480911
21
493.966746735529
31
0
0
LINE
8
layer0
10
1290.84899480911
20
493.966746735529
30
0
11
1299.95709018934
21
497.461190432697
31
0
0
LINE
8
layer0
10
1299.95709018934
20
497.461190432697
30
0
11
1299.95709018934
21
367.557379865031
31
0
0
LINE
8
layer0
10
1311.33937586588
20
366.808126696246
30
0
11
1299.95709018934
21
367.557379865031
31
0
0
LINE
8
layer0
10
1299.95709018934
20
367.557379865031
30
0
11
1299.95709018934
21
497.461190432697
31
0
0
LINE
8
layer0
10
1299.95709018934
20
497.461190432697
30
0
11
1311.33937586588
21
496.711937263912
31
0
0
LINE
8
layer0
10
1311.33937586588
20
496.711937263912
30
0
11
1311.33937586588
21
366.808126696246
31
0
0
LINE
8
layer0
10
1311.33937586588
20
496.711937263912
30
0
11
1299.95709018934
21
497.461190432697
31
0
0
LINE
8
layer0
10
1299.95709018934
20
497.461190432697
30
0
11
1290.84899480911
21
493.966746735529
31
0
0
LINE
8
layer0
10
1290.84899480911
20
493.966746735529
30
0
11
1289.35048847154
21
488.27560389726
31
0
0
LINE
8
layer0
10
1289.35048847154
20
488.27560389726
30
0
11
1296.33937586588
21
483.721556207145
31
0
0
LINE
8
layer0
10
1296.33937586588
20
483.721556207145
30
0
11
1307.72166154242
21
482.972303038361
31
0
0
LINE
8
layer0
10
1307.72166154242
20
482.972303038361
30
0
11
1316.82975692265
21
486.466746735529
31
0
0
LINE
8
layer0
10
1316.82975692265
20
486.466746735529
30
0
11
1318.32826326022
21
492.157889573798
31
0
0
LINE
8
layer0
10
1318.32826326022
20
492.157889573798
30
0
11
1311.33937586588
21
496.711937263912
31
0
0
LINE
8
layer0
10
1299.95709018934
20
367.557379865031
30
0
11
1311.33937586588
21
366.808126696246
31
0
0
LINE
8
layer0
10
1311.33937586588
20
366.808126696246
30
0
11
1318.32826326022
21
362.254079006132
31
0
0
LINE
8
layer0
10
1318.32826326022
20
362.254079006132
30
0
11
1316.82975692265
21
356.562936167863
31
0
0
LINE
8
layer0
10
1316.82975692265
20
356.562936167863
30
0
11
1307.72166154242
21
353.068492470695
31
0
0
LINE
8
layer0
10
1307.72166154242
20
353.068492470695
30
0
11
1296.33937586588
21
353.81774563948
31
0
0
LINE
8
layer0
10
1296.33937586588
20
353.81774563948
30
0
11
1289.35048847154
21
358.371793329594
31
0
0
LINE
8
layer0
10
1289.35048847154
20
358.371793329594
30
0
11
1290.84899480911
21
364.062936167863
31
0
0
LINE
8
layer0
10
1290.84899480911
20
364.062936167863
30
0
11
1299.95709018934
21
367.557379865031
31
0
0
ENDBLK
0
BLOCK
8
layer0
2
PF_OBJECT86
70
0
10
0
20
0
30
0
0
LINE
8
layer0
10
1308.49962990372
20
380.329596666258
30
0
11
1312.49962990372
21
383.793698281396
31
0
0
LINE
8
layer0
10
1312.49962990372
20
383.793698281396
30
0
11
1272.49962990372
21
418.434714432774
31
0
0
LINE
8
layer0
10
1272.49962990372
20
418.434714432774
30
0
11
1270.20561040446
21
419.102948424054
31
0
0
LINE
8
layer0
10
1270.20561040446
20
419.102948424054
30
0
11
1267.49962990372
21
417.568689028989
31
0
0
LINE
8
layer0
10
1267.49962990372
20
417.568689028989
30
0
11
1262.49962990372
21
413.238562010067
31
0
0
LINE
8
layer0
10
1262.49962990372
20
413.238562010067
30
0
11
1262.49962990372
21
408.04240958736
31
0
0
LINE
8
layer0
10
1262.49962990372
20
408.04240958736
30
0
11
1267.49962990372
21
412.372536606283
31
0
0
LINE
8
layer0
10
1267.49962990372
20
412.372536606283
30
0
11
1269.47931521418
21
413.653527025984
31
0
0
LINE
8
layer0
10
1269.47931521418
20
413.653527025984
30
0
11
1270.99962990372
21
412.805549308175
31
0
0
LINE
8
layer0
10
1270.99962990372
20
412.805549308175
30
0
11
1308.49962990372
21
380.329596666258
31
0
0
LINE
8
layer0
10
1295.17912182804
20
388.793698281396
30
0
11
1291.17912182804
21
385.329596666258
31
0
0
LINE
8
layer0
10
1291.17912182804
20
385.329596666258
30
0
11
1253.67912182804
21
417.805549308175
31
0
0
LINE
8
layer0
10
1253.67912182804
20
417.805549308175
30
0
11
1252.15880713849
21
418.653527025984
31
0
0
LINE
8
layer0
10
1252.15880713849
20
418.653527025984
30
0
11
1250.17912182804
21
417.372536606283
31
0
0
LINE
8
layer0
10
1250.17912182804
20
417.372536606283
30
0
11
1245.17912182804
21
413.04240958736
31
0
0
LINE
8
layer0
10
1245.17912182804
20
413.04240958736
30
0
11
1245.17912182804
21
418.238562010067
31
0
0
LINE
8
layer0
10
1245.17912182804
20
418.238562010067
30
0
11
1250.17912182804
21
422.568689028989
31
0
0
LINE
8
layer0
10
1250.17912182804
20
422.568689028989
30
0
11
1252.88510232877
21
424.102948424054
31
0
0
LINE
8
layer0
10
1252.88510232877
20
424.102948424054
30
0
11
1255.17912182804
21
423.434714432774
31
0
0
LINE
8
layer0
10
1255.17912182804
20
423.434714432774
30
0
11
1295.17912182804
21
388.793698281396
31
0
0
LINE
8
layer0
10
1295.17912182804
20
388.793698281396
30
0
11
1312.49962990372
21
383.793698281396
31
0
0
LINE
8
layer0
10
1312.49962990372
20
383.793698281396
30
0
11
1308.49962990372
21
380.329596666258
31
0
0
LINE
8
layer0
10
1308.49962990372
20
380.329596666258
30
0
11
1291.17912182804
21
385.329596666258
31
0
0
LINE
8
layer0
10
1291.17912182804
20
385.329596666258
30
0
11
1295.17912182804
21
388.793698281396
31
0
0
LINE
8
layer0
10
1291.17912182804
20
385.329596666258
30
0
11
1308.49962990372
21
380.329596666258
31
0
0
LINE
8
layer0
10
1308.49962990372
20
380.329596666258
30
0
11
1270.99962990372
21
412.805549308175
31
0
0
LINE
8
layer0
10
1270.99962990372
20
412.805549308175
30
0
11
1253.67912182804
21
417.805549308175
31
0
0
LINE
8
layer0
10
1253.67912182804
20
417.805549308175
30
0
11
1291.17912182804
21
385.329596666258
31
0
0
LINE
8
layer0
10
1253.67912182804
20
417.805549308175
30
0
11
1270.99962990372
21
412.805549308175
31
0
0
LINE
8
layer0
10
1270.99962990372
20
412.805549308175
30
0
11
1269.47931521418
21
413.653527025984
31
0
0
LINE
8
layer0
10
1269.47931521418
20
413.653527025984
30
0
11
1252.15880713849
21
418.653527025984
31
0
0
LINE
8
layer0
10
1252.15880713849
20
418.653527025984
30
0
11
1253.67912182804
21
417.805549308175
31
0
0
LINE
8
layer0
10
1252.15880713849
20
418.653527025984
30
0
11
1269.47931521418
21
413.653527025984
31
0
0
LINE
8
layer0
10
1269.47931521418
20
413.653527025984
30
0
11
1267.49962990372
21
412.372536606283
31
0
0
LINE
8
layer0
10
1267.49962990372
20
412.372536606283
30
0
11
1250.17912182804
21
417.372536606283
31
0
0
LINE
8
layer0
10
1250.17912182804
20
417.372536606283
30
0
11
1252.15880713849
21
418.653527025984
31
0
0
LINE
8
layer0
10
1250.17912182804
20
417.372536606283
30
0
11
1267.49962990372
21
412.372536606283
31
0
0
LINE
8
layer0
10
1267.49962990372
20
412.372536606283
30
0
11
1262.49962990372
21
408.04240958736
31
0
0
LINE
8
layer0
10
1262.49962990372
20
408.04240958736
30
0
11
1245.17912182804
21
413.04240958736
31
0
0
LINE
8
layer0
10
1245.17912182804
20
413.04240958736
30
0
11
1250.17912182804
21
417.372536606283
31
0
0
LINE
8
layer0
10
1245.17912182804
20
413.04240958736
30
0
11
1262.49962990372
21
408.04240958736
31
0
0
LINE
8
layer0
10
1262.49962990372
20
408.04240958736
30
0
11
1262.49962990372
21
413.238562010067
31
0
0
LINE
8
layer0
10
1262.49962990372
20
413.238562010067
30
0
11
1245.17912182804
21
418.238562010067
31
0
0
LINE
8
layer0
10
1245.17912182804
20
418.238562010067
30
0
11
1245.17912182804
21
413.04240958736
31
0
0
LINE
8
layer0
10
1245.17912182804
20
418.238562010067
30
0
11
1262.49962990372
21
413.238562010067
31
0
0
LINE
8
layer0
10
1262.49962990372
20
413.238562010067
30
0
11
1267.49962990372
21
417.568689028989
31
0
0
LINE
8
layer0
10
1267.49962990372
20
417.568689028989
30
0
11
1250.17912182804
21
422.568689028989
31
0
0
LINE
8
layer0
10
1250.17912182804
20
422.568689028989
30
0
11
1245.17912182804
21
418.238562010067
31
0
0
LINE
8
layer0
10
1250.17912182804
20
422.568689028989
30
0
11
1267.49962990372
21
417.568689028989
31
0
0
LINE
8
layer0
10
1267.49962990372
20
417.568689028989
30
0
11
1270.20561040446
21
419.102948424054
31
0
0
LINE
8
layer0
10
1270.20561040446
20
419.102948424054
30
0
11
1252.88510232877
21
424.102948424054
31
0
0
LINE
8
layer0
10
1252.88510232877
20
424.102948424054
30
0
11
1250.17912182804
21
422.568689028989
31
0
0
LINE
8
layer0
10
1252.88510232877
20
424.102948424054
30
0
11
1270.20561040446
21
419.102948424054
31
0
0
LINE
8
layer0
10
1270.20561040446
20
419.102948424054
30
0
11
1272.49962990372
21
418.434714432774
31
0
0
LINE
8
layer0
10
1272.49962990372
20
418.434714432774
30
0
11
1255.17912182804
21
423.434714432774
31
0
0
LINE
8
layer0
10
1255.17912182804
20
423.434714432774
30
0
11
1252.88510232877
21
424.102948424054
31
0
0
LINE
8
layer0
10
1255.17912182804
20
423.434714432774
30
0
11
1272.49962990372
21
418.434714432774
31
0
0
LINE
8
layer0
10
1272.49962990372
20
418.434714432774
30
0
11
1312.49962990372
21
383.793698281396
31
0
0
LINE
8
layer0
10
1312.49962990372
20
383.793698281396
30
0
11
1295.17912182804
21
388.793698281396
31
0
0
LINE
8
layer0
10
1295.17912182804
20
388.793698281396
30
0
11
1255.17912182804
21
423.434714432774
31
0
0
ENDBLK
0
BLOCK
8
layer0
2
PF_OBJECT87
70
0
10
0
20
0
30
0
0
LINE
8
layer0
10
1311.16469341319
20
475.400403784439
30
0
11
1289.51405831857
21
481.650403784439
31
0
0
LINE
8
layer0
10
1289.51405831857
20
481.650403784439
30
0
11
1289.94817876274
21
486.290705777152
31
0
0
LINE
8
layer0
10
1289.94817876274
20
486.290705777152
30
0
11
1311.59881385735
21
480.040705777152
31
0
0
LINE
8
layer0
10
1311.59881385735
20
480.040705777152
30
0
11
1311.16469341319
21
475.400403784439
31
0
0
LINE
8
layer0
10
1255.04578696315
20
462.326866488734
30
0
11
1276.69642205776
21
456.076866488734
31
0
0
LINE
8
layer0
10
1276.69642205776
20
456.076866488734
30
0
11
1277.13054250193
21
460.717168481447
31
0
0
LINE
8
layer0
10
1277.13054250193
20
460.717168481447
30
0
11
1255.47990740731
21
466.967168481447
31
0
0
LINE
8
layer0
10
1255.47990740731
20
466.967168481447
30
0
11
1255.04578696315
21
462.326866488734
31
0
0
LINE
8
layer0
10
1289.51405831857
20
481.650403784439
30
0
11
1255.04578696315
21
462.326866488734
31
0
0
LINE
8
layer0
10
1255.04578696315
20
462.326866488734
30
0
11
1255.47990740731
21
466.967168481447
31
0
0
LINE
8
layer0
10
1255.47990740731
20
466.967168481447
30
0
11
1289.94817876274
21
486.290705777152
31
0
0
LINE
8
layer0
10
1289.94817876274
20
486.290705777152
30
0
11
1289.51405831857
21
481.650403784439
31
0
0
LINE
8
layer0
10
1276.69642205776
20
456.076866488734
30
0
11
1311.16469341319
21
475.400403784439
31
0
0
LINE
8
layer0
10
1311.16469341319
20
475.400403784439
30
0
11
1311.59881385735
21
480.040705777152
31
0
0
LINE
8
layer0
10
1311.59881385735
20
480.040705777152
30
0
11
1277.13054250193
21
460.717168481447
31
0
0
LINE
8
layer0
10
1277.13054250193
20
460.717168481447
30
0
11
1276.69642205776
21
456.076866488734
31
0
0
LINE
8
layer0
10
1311.59881385735
20
480.040705777152
30
0
11
1289.94817876274
21
486.290705777152
31
0
0
LINE
8
layer0
10
1289.94817876274
20
486.290705777152
30
0
11
1255.47990740731
21
466.967168481447
31
0
0
LINE
8
layer0
10
1255.47990740731
20
466.967168481447
30
0
11
1277.13054250193
21
460.717168481447
31
0
0
LINE
8
layer0
10
1277.13054250193
20
460.717168481447
30
0
11
1311.59881385735
21
480.040705777152
31
0
0
LINE
8
layer0
10
1289.51405831857
20
481.650403784439
30
0
11
1311.16469341319
21
475.400403784439
31
0
0
LINE
8
layer0
10
1311.16469341319
20
475.400403784439
30
0
11
1276.69642205776
21
456.076866488734
31
0
0
LINE
8
layer0
10
1276.69642205776
20
456.076866488734
30
0
11
1255.04578696315
21
462.326866488734
31
0
0
LINE
8
layer0
10
1255.04578696315
20
462.326866488734
30
0
11
1289.51405831857
21
481.650403784439
31
0
0
ENDBLK
0
ENDSEC
0
SECTION
2
ENTITIES
0
INSERT
2
PF_OBJECT0
8
0
10
0
20
0
30
0
0
INSERT
2
PF_OBJECT1
8
0
10
0
20
0
30
0
0
INSERT
2
PF_OBJECT2
8
0
10
0
20
0
30
0
0
INSERT
2
PF_OBJECT3
8
0
10
0
20
0
30
0
0
INSERT
2
PF_OBJECT4
8
0
10
0
20
0
30
0
0
INSERT
2
PF_OBJECT5
8
0
10
0
20
0
30
0
0
INSERT
2
PF_OBJECT6
8
0
10
0
20
0
30
0
0
INSERT
2
PF_OBJECT7
8
0
10
0
20
0
30
0
0
INSERT
2
PF_OBJECT8
8
0
10
0
20
0
30
0
0
INSERT
2
PF_OBJECT9
8
0
10
0
20
0
30
0
0
INSERT
2
PF_OBJECT10
8
0
10
0
20
0
30
0
0
INSERT
2
PF_OBJECT11
8
0
10
0
20
0
30
0
0
INSERT
2
PF_OBJECT12
8
0
10
0
20
0
30
0
0
INSERT
2
PF_OBJECT13
8
0
10
0
20
0
30
0
0
INSERT
2
PF_OBJECT14
8
0
10
0
20
0
30
0
0
INSERT
2
PF_OBJECT15
8
0
10
0
20
0
30
0
0
INSERT
2
PF_OBJECT16
8
0
10
0
20
0
30
0
0
INSERT
2
PF_SKETCH17
8
0
10
0
20
0
30
0
0
INSERT
2
PF_SKETCH18
8
0
10
0
20
0
30
0
0
INSERT
2
PF_SKETCH19
8
0
10
0
20
0
30
0
0
INSERT
2
PF_SKETCH20
8
0
10
0
20
0
30
0
0
INSERT
2
PF_SKETCH21
8
0
10
0
20
0
30
0
0
INSERT
2
PF_SKETCH22
8
0
10
0
20
0
30
0
0
INSERT
2
PF_OBJECT23
8
0
10
0
20
0
30
0
0
INSERT
2
PF_OBJECT24
8
0
10
0
20
0
30
0
0
INSERT
2
PF_OBJECT25
8
0
10
0
20
0
30
0
0
INSERT
2
PF_OBJECT26
8
0
10
0
20
0
30
0
0
INSERT
2
PF_OBJECT27
8
0
10
0
20
0
30
0
0
INSERT
2
PF_OBJECT28
8
0
10
0
20
0
30
0
0
INSERT
2
PF_OBJECT29
8
0
10
0
20
0
30
0
0
INSERT
2
PF_OBJECT30
8
0
10
0
20
0
30
0
0
INSERT
2
PF_OBJECT31
8
0
10
0
20
0
30
0
0
INSERT
2
PF_OBJECT32
8
0
10
0
20
0
30
0
0
INSERT
2
PF_OBJECT33
8
0
10
0
20
0
30
0
0
INSERT
2
PF_OBJECT34
8
0
10
0
20
0
30
0
0
INSERT
2
PF_OBJECT35
8
0
10
0
20
0
30
0
0
INSERT
2
PF_OBJECT36
8
0
10
0
20
0
30
0
0
INSERT
2
PF_OBJECT37
8
0
10
0
20
0
30
0
0
INSERT
2
PF_OBJECT38
8
0
10
0
20
0
30
0
0
INSERT
2
PF_OBJECT39
8
0
10
0
20
0
30
0
0
INSERT
2
PF_SKETCH40
8
0
10
0
20
0
30
0
0
INSERT
2
PF_SKETCH41
8
0
10
0
20
0
30
0
0
INSERT
2
PF_SKETCH42
8
0
10
0
20
0
30
0
0
INSERT
2
PF_SKETCH43
8
0
10
0
20
0
30
0
0
INSERT
2
PF_SKETCH44
8
0
10
0
20
0
30
0
0
INSERT
2
PF_SKETCH45
8
0
10
0
20
0
30
0
0
INSERT
2
PF_OBJECT46
8
0
10
0
20
0
30
0
0
INSERT
2
PF_OBJECT47
8
0
10
0
20
0
30
0
0
INSERT
2
PF_OBJECT48
8
0
10
0
20
0
30
0
0
INSERT
2
PF_OBJECT49
8
0
10
0
20
0
30
0
0
INSERT
2
PF_OBJECT50
8
0
10
0
20
0
30
0
0
INSERT
2
PF_OBJECT51
8
0
10
0
20
0
30
0
0
INSERT
2
PF_OBJECT52
8
0
10
0
20
0
30
0
0
INSERT
2
PF_OBJECT53
8
0
10
0
20
0
30
0
0
INSERT
2
PF_OBJECT54
8
0
10
0
20
0
30
0
0
INSERT
2
PF_OBJECT55
8
0
10
0
20
0
30
0
0
INSERT
2
PF_SKETCH56
8
0
10
0
20
0
30
0
0
INSERT
2
PF_SKETCH57
8
0
10
0
20
0
30
0
0
INSERT
2
PF_OBJECT58
8
0
10
0
20
0
30
0
0
INSERT
2
PF_OBJECT59
8
0
10
0
20
0
30
0
0
INSERT
2
PF_OBJECT60
8
0
10
0
20
0
30
0
0
INSERT
2
PF_OBJECT61
8
0
10
0
20
0
30
0
0
INSERT
2
PF_OBJECT62
8
0
10
0
20
0
30
0
0
INSERT
2
PF_OBJECT63
8
0
10
0
20
0
30
0
0
INSERT
2
PF_OBJECT64
8
0
10
0
20
0
30
0
0
INSERT
2
PF_OBJECT65
8
0
10
0
20
0
30
0
0
INSERT
2
PF_OBJECT66
8
0
10
0
20
0
30
0
0
INSERT
2
PF_SKETCH67
8
0
10
0
20
0
30
0
0
INSERT
2
PF_SKETCH68
8
0
10
0
20
0
30
0
0
INSERT
2
PF_OBJECT69
8
0
10
0
20
0
30
0
0
INSERT
2
PF_OBJECT70
8
0
10
0
20
0
30
0
0
INSERT
2
PF_OBJECT71
8
0
10
0
20
0
30
0
0
INSERT
2
PF_OBJECT72
8
0
10
0
20
0
30
0
0
INSERT
2
PF_OBJECT73
8
0
10
0
20
0
30
0
0
INSERT
2
PF_OBJECT74
8
0
10
0
20
0
30
0
0
INSERT
2
PF_OBJECT75
8
0
10
0
20
0
30
0
0
INSERT
2
PF_OBJECT76
8
0
10
0
20
0
30
0
0
INSERT
2
PF_OBJECT77
8
0
10
0
20
0
30
0
0
INSERT
2
PF_SKETCH78
8
0
10
0
20
0
30
0
0
INSERT
2
PF_SKETCH79
8
0
10
0
20
0
30
0
0
INSERT
2
PF_OBJECT80
8
0
10
0
20
0
30
0
0
INSERT
2
PF_OBJECT81
8
0
10
0
20
0
30
0
0
INSERT
2
PF_OBJECT82
8
0
10
0
20
0
30
0
0
INSERT
2
PF_OBJECT83
8
0
10
0
20
0
30
0
0
INSERT
2
PF_OBJECT84
8
0
10
0
20
0
30
0
0
INSERT
2
PF_OBJECT85
8
0
10
0
20
0
30
0
0
INSERT
2
PF_OBJECT86
8
0
10
0
20
0
30
0
0
INSERT
2
PF_OBJECT87
8
0
10
0
20
0
30
0
0
ENDSEC
0
EOF
