0
SECTION
2
HEADER
9
$EXTMIN
10
-570.000000000001
20
-570
30
0
9
$EXTMAX
10
4570
20
2750
30
0
0
ENDSEC
0
SECTION
2
TABLES
0
TABLE
2
LAYER
5
2
70
3
0
LAYER
5
14
2
layer0
5
14
70
0
62
7
6
CONTINUOUS
0
ENDTAB
0
TABLE
2
DIMSTYLE
70
2
0
DIMSTYLE
2
PFDIMSTYLE
70
0
3

4

5

6

7

40
1
41
30
42
0
43
0
44
1
45
0
46
0
47
0
48
0
71
0
72
0
73
0
74
0
75
0
76
0
77
2
78
12
140
30
141
0
142
0
143
1
144
1
145
0
146
1
147
5
170
0
171
1
172
0
173
1
174
0
175
0
176
7
177
7
178
7
0
ENDTAB
0
ENDSEC
0
SECTION
2
BLOCKS
0
BLOCK
8
layer0
2
PF_OBJECT0
70
0
10
0
20
0
30
0
0
LINE
8
layer0
10
3499.10161513775
20
1325.27820916122
30
0
11
3499.10161513775
21
-969.689110867545
31
0
0
LINE
8
layer0
10
3499.10161513775
20
-969.689110867545
30
0
11
-25.6217782649107
21
47.8108891324554
31
0
0
LINE
8
layer0
10
-25.6217782649107
20
47.8108891324554
30
0
11
-25.6217782649108
21
2342.77820916122
31
0
0
LINE
8
layer0
10
-25.6217782649108
20
2342.77820916122
30
0
11
3499.10161513775
21
1325.27820916122
31
0
0
LINE
8
layer0
10
3464.10161513775
20
1294.96732002876
30
0
11
3499.10161513775
21
1325.27820916122
31
0
0
LINE
8
layer0
10
3499.10161513775
20
1325.27820916122
30
0
11
-25.6217782649107
21
2342.77820916122
31
0
0
LINE
8
layer0
10
-25.6217782649107
20
2342.77820916122
30
0
11
-2.46139223857096E-14
21
2294.96732002876
31
0
0
LINE
8
layer0
10
-2.46139223857096E-14
20
2294.96732002876
30
0
11
3464.10161513775
21
1294.96732002876
31
0
0
LINE
8
layer0
10
0
20
0
30
0
11
-25.6217782649108
21
47.8108891324554
31
0
0
LINE
8
layer0
10
-25.6217782649108
20
47.8108891324554
30
0
11
3499.10161513775
21
-969.689110867545
31
0
0
LINE
8
layer0
10
3499.10161513775
20
-969.689110867545
30
0
11
3464.10161513775
21
-1000
31
0
0
LINE
8
layer0
10
3464.10161513775
20
-1000
30
0
11
0
21
0
31
0
0
LINE
8
layer0
10
3464.10161513775
20
1294.96732002876
30
0
11
3464.10161513775
21
-1000
31
0
0
LINE
8
layer0
10
3464.10161513775
20
-1000
30
0
11
3499.10161513775
21
-969.689110867545
31
0
0
LINE
8
layer0
10
3499.10161513775
20
-969.689110867545
30
0
11
3499.10161513775
21
1325.27820916122
31
0
0
LINE
8
layer0
10
3499.10161513775
20
1325.27820916122
30
0
11
3464.10161513775
21
1294.96732002876
31
0
0
LINE
8
layer0
10
-25.6217782649108
20
2342.77820916122
30
0
11
-25.6217782649108
21
47.8108891324554
31
0
0
LINE
8
layer0
10
-25.6217782649108
20
47.8108891324554
30
0
11
-3.69208835785644E-14
21
1.06581410364015E-14
31
0
0
LINE
8
layer0
10
-3.69208835785644E-14
20
1.06581410364015E-14
30
0
11
-2.46139223857096E-14
21
2294.96732002876
31
0
0
LINE
8
layer0
10
-2.46139223857096E-14
20
2294.96732002876
30
0
11
-25.6217782649108
21
2342.77820916122
31
0
0
LINE
8
layer0
10
0
20
2294.96732002876
30
0
11
-2.46139223857096E-14
21
7.105427357601E-15
31
0
0
LINE
8
layer0
10
-2.46139223857096E-14
20
7.105427357601E-15
30
0
11
3464.10161513775
21
-1000
31
0
0
LINE
8
layer0
10
3464.10161513775
20
-1000
30
0
11
3464.10161513775
21
1294.96732002876
31
0
0
LINE
8
layer0
10
3464.10161513775
20
1294.96732002876
30
0
11
0
21
2294.96732002876
31
0
0
ENDBLK
0
BLOCK
8
layer0
2
PF_OBJECT1
70
0
10
0
20
0
30
0
0
LINE
8
layer0
10
-25.621778264911
20
2342.77820916122
30
0
11
-25.621778264911
21
47.8108891324557
31
0
0
LINE
8
layer0
10
-25.621778264911
20
47.8108891324557
30
0
11
-1560.62177826491
21
-1281.53810567666
31
0
0
LINE
8
layer0
10
-1560.62177826491
20
-1281.53810567666
30
0
11
-1560.62177826491
21
1013.4292143521
31
0
0
LINE
8
layer0
10
-1560.62177826491
20
1013.4292143521
30
0
11
-25.621778264911
21
2342.77820916122
31
0
0
LINE
8
layer0
10
-2.27373675443232E-13
20
2294.96732002876
30
0
11
-25.621778264911
21
2342.77820916122
31
0
0
LINE
8
layer0
10
-25.621778264911
20
2342.77820916122
30
0
11
-1560.62177826491
21
1013.4292143521
31
0
0
LINE
8
layer0
10
-1560.62177826491
20
1013.4292143521
30
0
11
-1500
21
995.929214352105
31
0
0
LINE
8
layer0
10
-1500
20
995.929214352105
30
0
11
-2.27373675443232E-13
21
2294.96732002876
31
0
0
LINE
8
layer0
10
-1500
20
-1299.03810567666
30
0
11
-1560.62177826491
21
-1281.53810567666
31
0
0
LINE
8
layer0
10
-1560.62177826491
20
-1281.53810567666
30
0
11
-25.621778264911
21
47.8108891324557
31
0
0
LINE
8
layer0
10
-25.621778264911
20
47.8108891324557
30
0
11
-2.27373675443232E-13
21
4.54747350886464E-13
31
0
0
LINE
8
layer0
10
-2.27373675443232E-13
20
4.54747350886464E-13
30
0
11
-1500
21
-1299.03810567666
31
0
0
LINE
8
layer0
10
-1560.62177826491
20
1013.4292143521
30
0
11
-1560.62177826491
21
-1281.53810567666
31
0
0
LINE
8
layer0
10
-1560.62177826491
20
-1281.53810567666
30
0
11
-1500
21
-1299.03810567666
31
0
0
LINE
8
layer0
10
-1500
20
-1299.03810567666
30
0
11
-1500
21
995.929214352105
31
0
0
LINE
8
layer0
10
-1500
20
995.929214352105
30
0
11
-1560.62177826491
21
1013.4292143521
31
0
0
LINE
8
layer0
10
-4.54747350886464E-13
20
2294.96732002876
30
0
11
-4.54747350886464E-13
21
2.27373675443232E-13
31
0
0
LINE
8
layer0
10
-4.54747350886464E-13
20
2.27373675443232E-13
30
0
11
-25.6217782649112
21
47.8108891324555
31
0
0
LINE
8
layer0
10
-25.6217782649112
20
47.8108891324555
30
0
11
-25.6217782649112
21
2342.77820916122
31
0
0
LINE
8
layer0
10
-25.6217782649112
20
2342.77820916122
30
0
11
-4.54747350886464E-13
21
2294.96732002876
31
0
0
LINE
8
layer0
10
-1500
20
995.929214352105
30
0
11
-1500
21
-1299.03810567666
31
0
0
LINE
8
layer0
10
-1500
20
-1299.03810567666
30
0
11
-2.27373675443232E-13
21
4.54747350886464E-13
31
0
0
LINE
8
layer0
10
-2.27373675443232E-13
20
4.54747350886464E-13
30
0
11
-2.27373675443232E-13
21
2294.96732002876
31
0
0
LINE
8
layer0
10
-2.27373675443232E-13
20
2294.96732002876
30
0
11
-1500
21
995.929214352105
31
0
0
ENDBLK
0
BLOCK
8
layer0
2
PF_OBJECT2
70
0
10
0
20
0
30
0
0
LINE
8
layer0
10
0
20
0
30
0
11
-1500
21
-1299.03810567666
31
0
0
LINE
8
layer0
10
-1500
20
-1299.03810567666
30
0
11
1964.10161513776
21
-2299.03810567666
31
0
0
LINE
8
layer0
10
1964.10161513776
20
-2299.03810567666
30
0
11
3464.10161513775
21
-1000
31
0
0
LINE
8
layer0
10
3464.10161513775
20
-1000
30
0
11
0
21
0
31
0
0
LINE
8
layer0
10
0
20
0
30
0
11
3464.10161513775
21
-1000
31
0
0
LINE
8
layer0
10
3464.10161513775
20
-1000
30
0
11
-1500
21
-1299.03810567666
31
0
0
LINE
8
layer0
10
-1500
20
-1299.03810567666
30
0
11
0
21
0
31
0
0
LINE
8
layer0
10
3464.10161513775
20
-1000
30
0
11
1964.10161513776
21
-2299.03810567666
31
0
0
LINE
8
layer0
10
1964.10161513776
20
-2299.03810567666
30
0
11
-1500
21
-1299.03810567666
31
0
0
LINE
8
layer0
10
-1500
20
-1299.03810567666
30
0
11
3464.10161513775
21
-1000
31
0
0
ENDBLK
0
BLOCK
8
layer0
2
PF_OBJECT3
70
0
10
0
20
0
30
0
0
LINE
8
layer0
10
565.076341338959
20
-161.391438084799
30
0
11
272.076341338959
21
-415.13688139364
31
0
0
LINE
8
layer0
10
272.076341338959
20
-415.13688139364
30
0
11
272.076341338959
21
338.305219898822
31
0
0
LINE
8
layer0
10
272.076341338959
20
338.305219898822
30
0
11
565.076341338959
21
592.050663207662
31
0
0
LINE
8
layer0
10
565.076341338959
20
592.050663207662
30
0
11
565.076341338959
21
-161.391438084799
31
0
0
LINE
8
layer0
10
285.272918920436
20
-418.946405203164
30
0
11
578.272918920436
21
-165.200961894323
31
0
0
LINE
8
layer0
10
578.272918920436
20
-165.200961894323
30
0
11
578.272918920436
21
588.241139398138
31
0
0
LINE
8
layer0
10
578.272918920436
20
588.241139398138
30
0
11
285.272918920436
21
334.495696089298
31
0
0
LINE
8
layer0
10
285.272918920436
20
334.495696089298
30
0
11
285.272918920436
21
-418.946405203164
31
0
0
LINE
8
layer0
10
272.076341338959
20
-415.13688139364
30
0
11
285.272918920436
21
-418.946405203164
31
0
0
LINE
8
layer0
10
285.272918920436
20
-418.946405203164
30
0
11
285.272918920436
21
334.495696089298
31
0
0
LINE
8
layer0
10
285.272918920436
20
334.495696089298
30
0
11
272.076341338959
21
338.305219898822
31
0
0
LINE
8
layer0
10
272.076341338959
20
338.305219898822
30
0
11
272.076341338959
21
-415.13688139364
31
0
0
LINE
8
layer0
10
578.272918920436
20
-165.200961894323
30
0
11
565.076341338959
21
-161.391438084799
31
0
0
LINE
8
layer0
10
565.076341338959
20
-161.391438084799
30
0
11
565.076341338959
21
592.050663207662
31
0
0
LINE
8
layer0
10
565.076341338959
20
592.050663207662
30
0
11
578.272918920436
21
588.241139398138
31
0
0
LINE
8
layer0
10
578.272918920436
20
588.241139398138
30
0
11
578.272918920436
21
-165.200961894323
31
0
0
LINE
8
layer0
10
565.076341338959
20
592.050663207662
30
0
11
272.076341338959
21
338.305219898822
31
0
0
LINE
8
layer0
10
272.076341338959
20
338.305219898822
30
0
11
285.272918920436
21
334.495696089298
31
0
0
LINE
8
layer0
10
285.272918920436
20
334.495696089298
30
0
11
578.272918920436
21
588.241139398138
31
0
0
LINE
8
layer0
10
578.272918920436
20
588.241139398138
30
0
11
565.076341338959
21
592.050663207662
31
0
0
LINE
8
layer0
10
272.076341338959
20
-415.13688139364
30
0
11
565.076341338959
21
-161.391438084799
31
0
0
LINE
8
layer0
10
565.076341338959
20
-161.391438084799
30
0
11
578.272918920436
21
-165.200961894323
31
0
0
LINE
8
layer0
10
578.272918920436
20
-165.200961894323
30
0
11
285.272918920436
21
-418.946405203164
31
0
0
LINE
8
layer0
10
285.272918920436
20
-418.946405203164
30
0
11
272.076341338959
21
-415.13688139364
31
0
0
ENDBLK
0
BLOCK
8
layer0
2
PF_OBJECT4
70
0
10
0
20
0
30
0
0
LINE
8
layer0
10
808.790084979746
20
180.482556368483
30
0
11
294.37099513179
21
328.982556368483
31
0
0
LINE
8
layer0
10
294.37099513179
20
328.982556368483
30
0
11
294.37099513179
21
330.714607176052
31
0
0
LINE
8
layer0
10
294.37099513179
20
330.714607176052
30
0
11
808.790084979746
21
182.214607176052
31
0
0
LINE
8
layer0
10
808.790084979746
20
182.214607176052
30
0
11
808.790084979746
21
180.482556368483
31
0
0
LINE
8
layer0
10
294.37099513179
20
328.982556368483
30
0
11
284.37099513179
21
320.322302330639
31
0
0
LINE
8
layer0
10
284.37099513179
20
320.322302330639
30
0
11
284.37099513179
21
322.054353138208
31
0
0
LINE
8
layer0
10
284.37099513179
20
322.054353138208
30
0
11
294.37099513179
21
330.714607176052
31
0
0
LINE
8
layer0
10
294.37099513179
20
330.714607176052
30
0
11
294.37099513179
21
328.982556368483
31
0
0
LINE
8
layer0
10
798.790084979746
20
173.554353138208
30
0
11
798.790084979746
21
171.822302330639
31
0
0
LINE
8
layer0
10
798.790084979746
20
171.822302330639
30
0
11
808.790084979746
21
180.482556368483
31
0
0
LINE
8
layer0
10
808.790084979746
20
180.482556368483
30
0
11
808.790084979746
21
182.214607176052
31
0
0
LINE
8
layer0
10
808.790084979746
20
182.214607176052
30
0
11
798.790084979746
21
173.554353138208
31
0
0
LINE
8
layer0
10
294.37099513179
20
328.982556368483
30
0
11
808.790084979746
21
180.482556368483
31
0
0
LINE
8
layer0
10
808.790084979746
20
180.482556368483
30
0
11
798.790084979746
21
171.822302330639
31
0
0
LINE
8
layer0
10
798.790084979746
20
171.822302330639
30
0
11
284.37099513179
21
320.322302330639
31
0
0
LINE
8
layer0
10
284.37099513179
20
320.322302330639
30
0
11
294.37099513179
21
328.982556368483
31
0
0
LINE
8
layer0
10
337.4927733967
20
296.327111802256
30
0
11
344.9927733967
21
302.822302330639
31
0
0
LINE
8
layer0
10
344.9927733967
20
302.822302330639
30
0
11
738.168306714835
21
189.322302330639
31
0
0
LINE
8
layer0
10
738.168306714835
20
189.322302330639
30
0
11
730.668306714835
21
182.827111802256
31
0
0
LINE
8
layer0
10
730.668306714835
20
182.827111802256
30
0
11
337.4927733967
21
296.327111802256
31
0
0
LINE
8
layer0
10
284.37099513179
20
320.322302330639
30
0
11
344.9927733967
21
302.822302330639
31
0
0
LINE
8
layer0
10
344.9927733967
20
302.822302330639
30
0
11
344.9927733967
21
304.554353138208
31
0
0
LINE
8
layer0
10
344.9927733967
20
304.554353138208
30
0
11
284.37099513179
21
322.054353138208
31
0
0
LINE
8
layer0
10
284.37099513179
20
322.054353138208
30
0
11
284.37099513179
21
320.322302330639
31
0
0
LINE
8
layer0
10
738.168306714835
20
189.322302330639
30
0
11
798.790084979746
21
171.822302330639
31
0
0
LINE
8
layer0
10
798.790084979746
20
171.822302330639
30
0
11
798.790084979746
21
173.554353138208
31
0
0
LINE
8
layer0
10
798.790084979746
20
173.554353138208
30
0
11
738.168306714835
21
191.054353138208
31
0
0
LINE
8
layer0
10
738.168306714835
20
191.054353138208
30
0
11
738.168306714835
21
189.322302330639
31
0
0
LINE
8
layer0
10
344.9927733967
20
302.822302330639
30
0
11
337.4927733967
21
296.327111802256
31
0
0
LINE
8
layer0
10
337.4927733967
20
296.327111802256
30
0
11
337.4927733967
21
298.059162609825
31
0
0
LINE
8
layer0
10
337.4927733967
20
298.059162609825
30
0
11
344.9927733967
21
304.554353138208
31
0
0
LINE
8
layer0
10
344.9927733967
20
304.554353138208
30
0
11
344.9927733967
21
302.822302330639
31
0
0
LINE
8
layer0
10
730.668306714835
20
184.559162609825
30
0
11
730.668306714835
21
182.827111802256
31
0
0
LINE
8
layer0
10
730.668306714835
20
182.827111802256
30
0
11
738.168306714835
21
189.322302330639
31
0
0
LINE
8
layer0
10
738.168306714835
20
189.322302330639
30
0
11
738.168306714835
21
191.054353138208
31
0
0
LINE
8
layer0
10
738.168306714835
20
191.054353138208
30
0
11
730.668306714835
21
184.559162609825
31
0
0
LINE
8
layer0
10
808.790084979746
20
182.214607176052
30
0
11
294.37099513179
21
330.714607176052
31
0
0
LINE
8
layer0
10
294.37099513179
20
330.714607176052
30
0
11
284.37099513179
21
322.054353138208
31
0
0
LINE
8
layer0
10
284.37099513179
20
322.054353138208
30
0
11
798.790084979746
21
173.554353138208
31
0
0
LINE
8
layer0
10
798.790084979746
20
173.554353138208
30
0
11
808.790084979746
21
182.214607176052
31
0
0
LINE
8
layer0
10
730.668306714835
20
184.559162609825
30
0
11
738.168306714835
21
191.054353138208
31
0
0
LINE
8
layer0
10
738.168306714835
20
191.054353138208
30
0
11
344.9927733967
21
304.554353138208
31
0
0
LINE
8
layer0
10
344.9927733967
20
304.554353138208
30
0
11
337.4927733967
21
298.059162609825
31
0
0
LINE
8
layer0
10
337.4927733967
20
298.059162609825
30
0
11
730.668306714835
21
184.559162609825
31
0
0
LINE
8
layer0
10
336.4927733967
20
286.800832360627
30
0
11
337.4927733967
21
287.666857764411
31
0
0
LINE
8
layer0
10
337.4927733967
20
287.666857764411
30
0
11
730.668306714835
21
174.166857764411
31
0
0
LINE
8
layer0
10
730.668306714835
20
174.166857764411
30
0
11
729.668306714835
21
173.300832360627
31
0
0
LINE
8
layer0
10
729.668306714835
20
173.300832360627
30
0
11
336.4927733967
21
286.800832360627
31
0
0
LINE
8
layer0
10
337.4927733967
20
298.059162609825
30
0
11
337.4927733967
21
287.666857764411
31
0
0
LINE
8
layer0
10
337.4927733967
20
287.666857764411
30
0
11
336.4927733967
21
286.800832360627
31
0
0
LINE
8
layer0
10
336.4927733967
20
286.800832360627
30
0
11
336.4927733967
21
297.19313720604
31
0
0
LINE
8
layer0
10
336.4927733967
20
297.19313720604
30
0
11
337.4927733967
21
298.059162609825
31
0
0
LINE
8
layer0
10
729.668306714835
20
183.69313720604
30
0
11
729.668306714835
21
173.300832360627
31
0
0
LINE
8
layer0
10
729.668306714835
20
173.300832360627
30
0
11
730.668306714835
21
174.166857764411
31
0
0
LINE
8
layer0
10
730.668306714835
20
174.166857764411
30
0
11
730.668306714835
21
184.559162609825
31
0
0
LINE
8
layer0
10
730.668306714835
20
184.559162609825
30
0
11
729.668306714835
21
183.69313720604
31
0
0
LINE
8
layer0
10
729.668306714835
20
183.69313720604
30
0
11
730.668306714835
21
184.559162609825
31
0
0
LINE
8
layer0
10
730.668306714835
20
184.559162609825
30
0
11
337.4927733967
21
298.059162609825
31
0
0
LINE
8
layer0
10
337.4927733967
20
298.059162609825
30
0
11
336.4927733967
21
297.19313720604
31
0
0
LINE
8
layer0
10
336.4927733967
20
297.19313720604
30
0
11
729.668306714835
21
183.69313720604
31
0
0
LINE
8
layer0
10
336.4927733967
20
297.19313720604
30
0
11
336.4927733967
21
286.800832360627
31
0
0
LINE
8
layer0
10
336.4927733967
20
286.800832360627
30
0
11
729.668306714835
21
173.300832360627
31
0
0
LINE
8
layer0
10
729.668306714835
20
173.300832360627
30
0
11
729.668306714835
21
183.69313720604
31
0
0
LINE
8
layer0
10
729.668306714835
20
183.69313720604
30
0
11
336.4927733967
21
297.19313720604
31
0
0
ENDBLK
0
BLOCK
8
layer0
2
PF_OBJECT5
70
0
10
0
20
0
30
0
0
LINE
8
layer0
10
809.290084979746
20
-429.632340597654
30
0
11
294.87099513179
21
-281.132340597654
31
0
0
LINE
8
layer0
10
294.87099513179
20
-281.132340597654
30
0
11
294.87099513179
21
329.415569070376
31
0
0
LINE
8
layer0
10
294.87099513179
20
329.415569070376
30
0
11
809.290084979746
21
180.915569070376
31
0
0
LINE
8
layer0
10
809.290084979746
20
180.915569070376
30
0
11
809.290084979746
21
-429.632340597654
31
0
0
LINE
8
layer0
10
284.87099513179
20
-289.792594635498
30
0
11
799.290084979746
21
-438.292594635498
31
0
0
LINE
8
layer0
10
799.290084979746
20
-438.292594635498
30
0
11
799.290084979746
21
172.255315032531
31
0
0
LINE
8
layer0
10
799.290084979746
20
172.255315032531
30
0
11
284.87099513179
21
320.755315032531
31
0
0
LINE
8
layer0
10
284.87099513179
20
320.755315032531
30
0
11
284.87099513179
21
-289.792594635498
31
0
0
LINE
8
layer0
10
294.87099513179
20
-281.132340597654
30
0
11
284.87099513179
21
-289.792594635498
31
0
0
LINE
8
layer0
10
284.87099513179
20
-289.792594635498
30
0
11
284.87099513179
21
320.755315032531
31
0
0
LINE
8
layer0
10
284.87099513179
20
320.755315032531
30
0
11
294.87099513179
21
329.415569070376
31
0
0
LINE
8
layer0
10
294.87099513179
20
329.415569070376
30
0
11
294.87099513179
21
-281.132340597654
31
0
0
LINE
8
layer0
10
799.290084979746
20
-438.292594635498
30
0
11
809.290084979746
21
-429.632340597654
31
0
0
LINE
8
layer0
10
809.290084979746
20
-429.632340597654
30
0
11
809.290084979746
21
180.915569070376
31
0
0
LINE
8
layer0
10
809.290084979746
20
180.915569070376
30
0
11
799.290084979746
21
172.255315032531
31
0
0
LINE
8
layer0
10
799.290084979746
20
172.255315032531
30
0
11
799.290084979746
21
-438.292594635498
31
0
0
LINE
8
layer0
10
809.290084979746
20
180.915569070376
30
0
11
294.87099513179
21
329.415569070376
31
0
0
LINE
8
layer0
10
294.87099513179
20
329.415569070376
30
0
11
284.87099513179
21
320.755315032531
31
0
0
LINE
8
layer0
10
284.87099513179
20
320.755315032531
30
0
11
799.290084979746
21
172.255315032531
31
0
0
LINE
8
layer0
10
799.290084979746
20
172.255315032531
30
0
11
809.290084979746
21
180.915569070376
31
0
0
LINE
8
layer0
10
294.87099513179
20
-281.132340597654
30
0
11
809.290084979746
21
-429.632340597654
31
0
0
LINE
8
layer0
10
809.290084979746
20
-429.632340597654
30
0
11
799.290084979746
21
-438.292594635498
31
0
0
LINE
8
layer0
10
799.290084979746
20
-438.292594635498
30
0
11
284.87099513179
21
-289.792594635498
31
0
0
LINE
8
layer0
10
284.87099513179
20
-289.792594635498
30
0
11
294.87099513179
21
-281.132340597654
31
0
0
ENDBLK
0
BLOCK
8
layer0
70
0
10
0
20
0
30
0
2
PF_SKETCH6
0
LINE
8
layer0
10
529.60625225377
20
546.094569747296
30
0
11
482.439585587103
21
505.24703820213
31
0
0
ENDBLK
0
BLOCK
8
layer0
70
0
10
0
20
0
30
0
2
PF_SKETCH7
0
LINE
8
layer0
10
1049.22149452443
20
396.094569747296
30
0
11
1002.05482785777
21
355.24703820213
31
0
0
ENDBLK
0
BLOCK
8
layer0
70
0
10
0
20
0
30
0
2
PF_SKETCH8
0
LINE
8
layer0
10
435.272918920436
20
464.399506656964
30
0
11
388.10625225377
21
423.551975111798
31
0
0
ENDBLK
0
BLOCK
8
layer0
70
0
10
0
20
0
30
0
2
PF_SKETCH9
0
LINE
8
layer0
10
954.888161191099
20
314.399506656964
30
0
11
907.721494524433
21
273.551975111798
31
0
0
ENDBLK
0
BLOCK
8
layer0
70
0
10
0
20
0
30
0
2
PF_SKETCH10
0
LINE
8
layer0
10
340.939585587103
20
382.704443566632
30
0
11
293.772918920436
21
341.856912021466
31
0
0
ENDBLK
0
BLOCK
8
layer0
70
0
10
0
20
0
30
0
2
PF_SKETCH11
0
LINE
8
layer0
10
860.554827857766
20
232.704443566632
30
0
11
813.388161191099
21
191.856912021466
31
0
0
ENDBLK
0
BLOCK
8
layer0
2
PF_OBJECT12
70
0
10
0
20
0
30
0
0
LINE
8
layer0
10
1575.14699700121
20
-355.978875334514
30
0
11
1083.24456765165
21
-213.978875334514
31
0
0
LINE
8
layer0
10
1083.24456765165
20
-213.978875334514
30
0
11
1083.24456765165
21
-200.122468873963
31
0
0
LINE
8
layer0
10
1083.24456765165
20
-200.122468873963
30
0
11
1575.14699700121
21
-342.122468873963
31
0
0
LINE
8
layer0
10
1575.14699700121
20
-342.122468873963
30
0
11
1575.14699700121
21
-355.978875334514
31
0
0
LINE
8
layer0
10
827.744567651651
20
-435.248366001438
30
0
11
1319.64699700121
21
-577.248366001438
31
0
0
LINE
8
layer0
10
1319.64699700121
20
-577.248366001438
30
0
11
1319.64699700121
21
-563.391959540887
31
0
0
LINE
8
layer0
10
1319.64699700121
20
-563.391959540887
30
0
11
827.744567651651
21
-421.391959540887
31
0
0
LINE
8
layer0
10
827.744567651651
20
-421.391959540887
30
0
11
827.744567651651
21
-435.248366001438
31
0
0
LINE
8
layer0
10
1083.24456765165
20
-213.978875334514
30
0
11
827.744567651651
21
-435.248366001438
31
0
0
LINE
8
layer0
10
827.744567651651
20
-435.248366001438
30
0
11
827.744567651651
21
-421.391959540887
31
0
0
LINE
8
layer0
10
827.744567651651
20
-421.391959540887
30
0
11
1083.24456765165
21
-200.122468873963
31
0
0
LINE
8
layer0
10
1083.24456765165
20
-200.122468873963
30
0
11
1083.24456765165
21
-213.978875334514
31
0
0
LINE
8
layer0
10
1319.64699700121
20
-577.248366001438
30
0
11
1575.14699700121
21
-355.978875334514
31
0
0
LINE
8
layer0
10
1575.14699700121
20
-355.978875334514
30
0
11
1575.14699700121
21
-342.122468873963
31
0
0
LINE
8
layer0
10
1575.14699700121
20
-342.122468873963
30
0
11
1319.64699700121
21
-563.391959540887
31
0
0
LINE
8
layer0
10
1319.64699700121
20
-563.391959540887
30
0
11
1319.64699700121
21
-577.248366001438
31
0
0
LINE
8
layer0
10
1575.14699700121
20
-342.122468873963
30
0
11
1083.24456765165
21
-200.122468873963
31
0
0
LINE
8
layer0
10
1083.24456765165
20
-200.122468873963
30
0
11
827.744567651651
21
-421.391959540887
31
0
0
LINE
8
layer0
10
827.744567651651
20
-421.391959540887
30
0
11
1319.64699700121
21
-563.391959540887
31
0
0
LINE
8
layer0
10
1319.64699700121
20
-563.391959540887
30
0
11
1575.14699700121
21
-342.122468873963
31
0
0
LINE
8
layer0
10
1083.24456765165
20
-213.978875334514
30
0
11
1575.14699700121
21
-355.978875334514
31
0
0
LINE
8
layer0
10
1575.14699700121
20
-355.978875334514
30
0
11
1319.64699700121
21
-577.248366001438
31
0
0
LINE
8
layer0
10
1319.64699700121
20
-577.248366001438
30
0
11
827.744567651651
21
-435.248366001438
31
0
0
LINE
8
layer0
10
827.744567651651
20
-435.248366001438
30
0
11
1083.24456765165
21
-213.978875334514
31
0
0
ENDBLK
0
BLOCK
8
layer0
2
PF_OBJECT13
70
0
10
0
20
0
30
0
0
LINE
8
layer0
10
1577.14699700121
20
-354.246824526945
30
0
11
1085.24456765165
21
-212.246824526945
31
0
0
LINE
8
layer0
10
1085.24456765165
20
-212.246824526945
30
0
11
1085.24456765165
21
411.291466197851
31
0
0
LINE
8
layer0
10
1085.24456765165
20
411.291466197851
30
0
11
1577.14699700121
21
269.291466197851
31
0
0
LINE
8
layer0
10
1577.14699700121
20
269.291466197851
30
0
11
1577.14699700121
21
-354.246824526945
31
0
0
LINE
8
layer0
10
1083.24456765165
20
-213.978875334514
30
0
11
1575.14699700121
21
-355.978875334514
31
0
0
LINE
8
layer0
10
1575.14699700121
20
-355.978875334514
30
0
11
1575.14699700121
21
267.559415390282
31
0
0
LINE
8
layer0
10
1575.14699700121
20
267.559415390282
30
0
11
1083.24456765165
21
409.559415390282
31
0
0
LINE
8
layer0
10
1083.24456765165
20
409.559415390282
30
0
11
1083.24456765165
21
-213.978875334514
31
0
0
LINE
8
layer0
10
1085.24456765165
20
-212.246824526945
30
0
11
1083.24456765165
21
-213.978875334514
31
0
0
LINE
8
layer0
10
1083.24456765165
20
-213.978875334514
30
0
11
1083.24456765165
21
409.559415390282
31
0
0
LINE
8
layer0
10
1083.24456765165
20
409.559415390282
30
0
11
1085.24456765165
21
411.291466197851
31
0
0
LINE
8
layer0
10
1085.24456765165
20
411.291466197851
30
0
11
1085.24456765165
21
-212.246824526945
31
0
0
LINE
8
layer0
10
1575.14699700121
20
-355.978875334514
30
0
11
1577.14699700121
21
-354.246824526945
31
0
0
LINE
8
layer0
10
1577.14699700121
20
-354.246824526945
30
0
11
1577.14699700121
21
269.291466197851
31
0
0
LINE
8
layer0
10
1577.14699700121
20
269.291466197851
30
0
11
1575.14699700121
21
267.559415390282
31
0
0
LINE
8
layer0
10
1575.14699700121
20
267.559415390282
30
0
11
1575.14699700121
21
-355.978875334514
31
0
0
LINE
8
layer0
10
1577.14699700121
20
269.291466197851
30
0
11
1085.24456765165
21
411.291466197851
31
0
0
LINE
8
layer0
10
1085.24456765165
20
411.291466197851
30
0
11
1083.24456765165
21
409.559415390282
31
0
0
LINE
8
layer0
10
1083.24456765165
20
409.559415390282
30
0
11
1575.14699700121
21
267.559415390282
31
0
0
LINE
8
layer0
10
1575.14699700121
20
267.559415390282
30
0
11
1577.14699700121
21
269.291466197851
31
0
0
LINE
8
layer0
10
1085.24456765165
20
-212.246824526945
30
0
11
1577.14699700121
21
-354.246824526945
31
0
0
LINE
8
layer0
10
1577.14699700121
20
-354.246824526945
30
0
11
1575.14699700121
21
-355.978875334514
31
0
0
LINE
8
layer0
10
1575.14699700121
20
-355.978875334514
30
0
11
1083.24456765165
21
-213.978875334514
31
0
0
LINE
8
layer0
10
1083.24456765165
20
-213.978875334514
30
0
11
1085.24456765165
21
-212.246824526945
31
0
0
ENDBLK
0
BLOCK
8
layer0
2
PF_OBJECT14
70
0
10
0
20
0
30
0
0
LINE
8
layer0
10
1575.14699700121
20
267.559415390282
30
0
11
1083.24456765165
21
409.559415390282
31
0
0
LINE
8
layer0
10
1083.24456765165
20
409.559415390282
30
0
11
1075.24456765165
21
402.631212160006
31
0
0
LINE
8
layer0
10
1075.24456765165
20
402.631212160006
30
0
11
1567.14699700121
21
260.631212160006
31
0
0
LINE
8
layer0
10
1567.14699700121
20
260.631212160006
30
0
11
1575.14699700121
21
267.559415390282
31
0
0
LINE
8
layer0
10
1083.24456765165
20
366.25814520106
30
0
11
1575.14699700121
21
224.25814520106
31
0
0
LINE
8
layer0
10
1575.14699700121
20
224.25814520106
30
0
11
1567.14699700121
21
217.329941970784
31
0
0
LINE
8
layer0
10
1567.14699700121
20
217.329941970784
30
0
11
1075.24456765165
21
359.329941970784
31
0
0
LINE
8
layer0
10
1075.24456765165
20
359.329941970784
30
0
11
1083.24456765165
21
366.25814520106
31
0
0
LINE
8
layer0
10
1083.24456765165
20
409.559415390282
30
0
11
1083.24456765165
21
366.25814520106
31
0
0
LINE
8
layer0
10
1083.24456765165
20
366.25814520106
30
0
11
1075.24456765165
21
359.329941970784
31
0
0
LINE
8
layer0
10
1075.24456765165
20
359.329941970784
30
0
11
1075.24456765165
21
402.631212160006
31
0
0
LINE
8
layer0
10
1075.24456765165
20
402.631212160006
30
0
11
1083.24456765165
21
409.559415390282
31
0
0
LINE
8
layer0
10
1575.14699700121
20
224.25814520106
30
0
11
1575.14699700121
21
267.559415390282
31
0
0
LINE
8
layer0
10
1575.14699700121
20
267.559415390282
30
0
11
1567.14699700121
21
260.631212160006
31
0
0
LINE
8
layer0
10
1567.14699700121
20
260.631212160006
30
0
11
1567.14699700121
21
217.329941970784
31
0
0
LINE
8
layer0
10
1567.14699700121
20
217.329941970784
30
0
11
1575.14699700121
21
224.25814520106
31
0
0
LINE
8
layer0
10
1567.14699700121
20
260.631212160006
30
0
11
1075.24456765165
21
402.631212160006
31
0
0
LINE
8
layer0
10
1075.24456765165
20
402.631212160006
30
0
11
1075.24456765165
21
359.329941970784
31
0
0
LINE
8
layer0
10
1075.24456765165
20
359.329941970784
30
0
11
1567.14699700121
21
217.329941970784
31
0
0
LINE
8
layer0
10
1567.14699700121
20
217.329941970784
30
0
11
1567.14699700121
21
260.631212160006
31
0
0
LINE
8
layer0
10
1083.24456765165
20
409.559415390282
30
0
11
1575.14699700121
21
267.559415390282
31
0
0
LINE
8
layer0
10
1575.14699700121
20
267.559415390282
30
0
11
1575.14699700121
21
224.25814520106
31
0
0
LINE
8
layer0
10
1575.14699700121
20
224.25814520106
30
0
11
1083.24456765165
21
366.25814520106
31
0
0
LINE
8
layer0
10
1083.24456765165
20
366.25814520106
30
0
11
1083.24456765165
21
409.559415390282
31
0
0
ENDBLK
0
BLOCK
8
layer0
2
PF_OBJECT15
70
0
10
0
20
0
30
0
0
LINE
8
layer0
10
852.744567651651
20
196.084153357418
30
0
11
1344.64699700121
21
54.0841533574178
31
0
0
LINE
8
layer0
10
1344.64699700121
20
54.0841533574178
30
0
11
1319.64699700121
21
32.4335182628068
31
0
0
LINE
8
layer0
10
1319.64699700121
20
32.4335182628068
30
0
11
827.744567651651
21
174.433518262807
31
0
0
LINE
8
layer0
10
827.744567651651
20
174.433518262807
30
0
11
852.744567651651
21
196.084153357418
31
0
0
LINE
8
layer0
10
1344.64699700121
20
67.9405598179687
30
0
11
852.744567651651
21
209.940559817969
31
0
0
LINE
8
layer0
10
852.744567651651
20
209.940559817969
30
0
11
827.744567651651
21
188.289924723358
31
0
0
LINE
8
layer0
10
827.744567651651
20
188.289924723358
30
0
11
1319.64699700121
21
46.2899247233577
31
0
0
LINE
8
layer0
10
1319.64699700121
20
46.2899247233577
30
0
11
1344.64699700121
21
67.9405598179687
31
0
0
LINE
8
layer0
10
1319.64699700121
20
32.4335182628068
30
0
11
1344.64699700121
21
54.0841533574178
31
0
0
LINE
8
layer0
10
1344.64699700121
20
54.0841533574178
30
0
11
1344.64699700121
21
67.9405598179687
31
0
0
LINE
8
layer0
10
1344.64699700121
20
67.9405598179687
30
0
11
1319.64699700121
21
46.2899247233577
31
0
0
LINE
8
layer0
10
1319.64699700121
20
46.2899247233577
30
0
11
1319.64699700121
21
32.4335182628068
31
0
0
LINE
8
layer0
10
852.744567651651
20
196.084153357418
30
0
11
827.744567651651
21
174.433518262807
31
0
0
LINE
8
layer0
10
827.744567651651
20
174.433518262807
30
0
11
827.744567651651
21
188.289924723358
31
0
0
LINE
8
layer0
10
827.744567651651
20
188.289924723358
30
0
11
852.744567651651
21
209.940559817969
31
0
0
LINE
8
layer0
10
852.744567651651
20
209.940559817969
30
0
11
852.744567651651
21
196.084153357418
31
0
0
LINE
8
layer0
10
827.744567651651
20
174.433518262807
30
0
11
1319.64699700121
21
32.4335182628068
31
0
0
LINE
8
layer0
10
1319.64699700121
20
32.4335182628068
30
0
11
1319.64699700121
21
46.2899247233577
31
0
0
LINE
8
layer0
10
1319.64699700121
20
46.2899247233577
30
0
11
827.744567651651
21
188.289924723358
31
0
0
LINE
8
layer0
10
827.744567651651
20
188.289924723358
30
0
11
827.744567651651
21
174.433518262807
31
0
0
LINE
8
layer0
10
1344.64699700121
20
54.0841533574178
30
0
11
852.744567651651
21
196.084153357418
31
0
0
LINE
8
layer0
10
852.744567651651
20
196.084153357418
30
0
11
852.744567651651
21
209.940559817969
31
0
0
LINE
8
layer0
10
852.744567651651
20
209.940559817969
30
0
11
1344.64699700121
21
67.9405598179687
31
0
0
LINE
8
layer0
10
1344.64699700121
20
67.9405598179687
30
0
11
1344.64699700121
21
54.0841533574178
31
0
0
LINE
8
layer0
10
1602.14699700121
20
-332.596189432334
30
0
11
1616.00340346176
21
-336.596189432334
31
0
0
LINE
8
layer0
10
1616.00340346176
20
-336.596189432334
30
0
11
1333.00340346176
21
-581.68137870333
31
0
0
LINE
8
layer0
10
1333.00340346176
20
-581.68137870333
30
0
11
1319.14699700121
21
-577.68137870333
31
0
0
LINE
8
layer0
10
1319.14699700121
20
-577.68137870333
30
0
11
1602.14699700121
21
-332.596189432334
31
0
0
LINE
8
layer0
10
1616.00340346176
20
286.942101292462
30
0
11
1602.14699700121
21
290.942101292462
31
0
0
LINE
8
layer0
10
1602.14699700121
20
290.942101292462
30
0
11
1319.14699700121
21
45.8569120214656
31
0
0
LINE
8
layer0
10
1319.14699700121
20
45.8569120214656
30
0
11
1333.00340346176
21
41.8569120214656
31
0
0
LINE
8
layer0
10
1333.00340346176
20
41.8569120214656
30
0
11
1616.00340346176
21
286.942101292462
31
0
0
LINE
8
layer0
10
1333.00340346176
20
-581.68137870333
30
0
11
1616.00340346176
21
-336.596189432334
31
0
0
LINE
8
layer0
10
1616.00340346176
20
-336.596189432334
30
0
11
1616.00340346176
21
286.942101292462
31
0
0
LINE
8
layer0
10
1616.00340346176
20
286.942101292462
30
0
11
1333.00340346176
21
41.8569120214656
31
0
0
LINE
8
layer0
10
1333.00340346176
20
41.8569120214656
30
0
11
1333.00340346176
21
-581.68137870333
31
0
0
LINE
8
layer0
10
1602.14699700121
20
-332.596189432334
30
0
11
1319.14699700121
21
-577.68137870333
31
0
0
LINE
8
layer0
10
1319.14699700121
20
-577.68137870333
30
0
11
1319.14699700121
21
45.8569120214656
31
0
0
LINE
8
layer0
10
1319.14699700121
20
45.8569120214656
30
0
11
1602.14699700121
21
290.942101292462
31
0
0
LINE
8
layer0
10
1602.14699700121
20
290.942101292462
30
0
11
1602.14699700121
21
-332.596189432334
31
0
0
LINE
8
layer0
10
1319.14699700121
20
-577.68137870333
30
0
11
1333.00340346176
21
-581.68137870333
31
0
0
LINE
8
layer0
10
1333.00340346176
20
-581.68137870333
30
0
11
1333.00340346176
21
41.8569120214656
31
0
0
LINE
8
layer0
10
1333.00340346176
20
41.8569120214656
30
0
11
1319.14699700121
21
45.8569120214656
31
0
0
LINE
8
layer0
10
1319.14699700121
20
45.8569120214656
30
0
11
1319.14699700121
21
-577.68137870333
31
0
0
LINE
8
layer0
10
1616.00340346176
20
-336.596189432334
30
0
11
1602.14699700121
21
-332.596189432334
31
0
0
LINE
8
layer0
10
1602.14699700121
20
-332.596189432334
30
0
11
1602.14699700121
21
290.942101292462
31
0
0
LINE
8
layer0
10
1602.14699700121
20
290.942101292462
30
0
11
1616.00340346176
21
286.942101292462
31
0
0
LINE
8
layer0
10
1616.00340346176
20
286.942101292462
30
0
11
1616.00340346176
21
-336.596189432334
31
0
0
LINE
8
layer0
10
1096.3881611911
20
-186.596189432334
30
0
11
1110.24456765165
21
-190.596189432334
31
0
0
LINE
8
layer0
10
1110.24456765165
20
-190.596189432334
30
0
11
827.244567651651
21
-435.68137870333
31
0
0
LINE
8
layer0
10
827.244567651651
20
-435.68137870333
30
0
11
813.388161191099
21
-431.68137870333
31
0
0
LINE
8
layer0
10
813.388161191099
20
-431.68137870333
30
0
11
1096.3881611911
21
-186.596189432334
31
0
0
LINE
8
layer0
10
1110.24456765165
20
432.942101292462
30
0
11
1096.3881611911
21
436.942101292462
31
0
0
LINE
8
layer0
10
1096.3881611911
20
436.942101292462
30
0
11
813.388161191099
21
191.856912021466
31
0
0
LINE
8
layer0
10
813.388161191099
20
191.856912021466
30
0
11
827.244567651651
21
187.856912021466
31
0
0
LINE
8
layer0
10
827.244567651651
20
187.856912021466
30
0
11
1110.24456765165
21
432.942101292462
31
0
0
LINE
8
layer0
10
827.244567651651
20
-435.68137870333
30
0
11
1110.24456765165
21
-190.596189432334
31
0
0
LINE
8
layer0
10
1110.24456765165
20
-190.596189432334
30
0
11
1110.24456765165
21
432.942101292462
31
0
0
LINE
8
layer0
10
1110.24456765165
20
432.942101292462
30
0
11
827.244567651651
21
187.856912021466
31
0
0
LINE
8
layer0
10
827.244567651651
20
187.856912021466
30
0
11
827.244567651651
21
-435.68137870333
31
0
0
LINE
8
layer0
10
1096.3881611911
20
-186.596189432334
30
0
11
813.388161191099
21
-431.68137870333
31
0
0
LINE
8
layer0
10
813.388161191099
20
-431.68137870333
30
0
11
813.388161191099
21
191.856912021466
31
0
0
LINE
8
layer0
10
813.388161191099
20
191.856912021466
30
0
11
1096.3881611911
21
436.942101292462
31
0
0
LINE
8
layer0
10
1096.3881611911
20
436.942101292462
30
0
11
1096.3881611911
21
-186.596189432334
31
0
0
LINE
8
layer0
10
813.388161191099
20
-431.68137870333
30
0
11
827.244567651651
21
-435.68137870333
31
0
0
LINE
8
layer0
10
827.244567651651
20
-435.68137870333
30
0
11
827.244567651651
21
187.856912021466
31
0
0
LINE
8
layer0
10
827.244567651651
20
187.856912021466
30
0
11
813.388161191099
21
191.856912021466
31
0
0
LINE
8
layer0
10
813.388161191099
20
191.856912021466
30
0
11
813.388161191099
21
-431.68137870333
31
0
0
LINE
8
layer0
10
1110.24456765165
20
-190.596189432334
30
0
11
1096.3881611911
21
-186.596189432334
31
0
0
LINE
8
layer0
10
1096.3881611911
20
-186.596189432334
30
0
11
1096.3881611911
21
436.942101292462
31
0
0
LINE
8
layer0
10
1096.3881611911
20
436.942101292462
30
0
11
1110.24456765165
21
432.942101292462
31
0
0
LINE
8
layer0
10
1110.24456765165
20
432.942101292462
30
0
11
1110.24456765165
21
-190.596189432334
31
0
0
ENDBLK
0
BLOCK
8
layer0
2
PF_OBJECT16
70
0
10
0
20
0
30
0
0
LINE
8
layer0
10
1328.40532725041
20
30.4825563684834
30
0
11
813.986237402453
21
178.982556368483
31
0
0
LINE
8
layer0
10
813.986237402453
20
178.982556368483
30
0
11
813.986237402453
21
180.714607176052
31
0
0
LINE
8
layer0
10
813.986237402453
20
180.714607176052
30
0
11
1328.40532725041
21
32.2146071760524
31
0
0
LINE
8
layer0
10
1328.40532725041
20
32.2146071760524
30
0
11
1328.40532725041
21
30.4825563684834
31
0
0
LINE
8
layer0
10
813.986237402453
20
178.982556368483
30
0
11
803.986237402453
21
170.322302330639
31
0
0
LINE
8
layer0
10
803.986237402453
20
170.322302330639
30
0
11
803.986237402453
21
172.054353138208
31
0
0
LINE
8
layer0
10
803.986237402453
20
172.054353138208
30
0
11
813.986237402453
21
180.714607176052
31
0
0
LINE
8
layer0
10
813.986237402453
20
180.714607176052
30
0
11
813.986237402453
21
178.982556368483
31
0
0
LINE
8
layer0
10
1318.40532725041
20
23.554353138208
30
0
11
1318.40532725041
21
21.822302330639
31
0
0
LINE
8
layer0
10
1318.40532725041
20
21.822302330639
30
0
11
1328.40532725041
21
30.4825563684834
31
0
0
LINE
8
layer0
10
1328.40532725041
20
30.4825563684834
30
0
11
1328.40532725041
21
32.2146071760524
31
0
0
LINE
8
layer0
10
1328.40532725041
20
32.2146071760524
30
0
11
1318.40532725041
21
23.554353138208
31
0
0
LINE
8
layer0
10
813.986237402453
20
178.982556368483
30
0
11
1328.40532725041
21
30.4825563684834
31
0
0
LINE
8
layer0
10
1328.40532725041
20
30.4825563684834
30
0
11
1318.40532725041
21
21.822302330639
31
0
0
LINE
8
layer0
10
1318.40532725041
20
21.822302330639
30
0
11
803.986237402453
21
170.322302330639
31
0
0
LINE
8
layer0
10
803.986237402453
20
170.322302330639
30
0
11
813.986237402453
21
178.982556368483
31
0
0
LINE
8
layer0
10
857.108015667364
20
146.327111802256
30
0
11
864.608015667364
21
152.822302330639
31
0
0
LINE
8
layer0
10
864.608015667364
20
152.822302330639
30
0
11
1257.7835489855
21
39.322302330639
31
0
0
LINE
8
layer0
10
1257.7835489855
20
39.322302330639
30
0
11
1250.2835489855
21
32.8271118022557
31
0
0
LINE
8
layer0
10
1250.2835489855
20
32.8271118022557
30
0
11
857.108015667364
21
146.327111802256
31
0
0
LINE
8
layer0
10
803.986237402453
20
170.322302330639
30
0
11
864.608015667364
21
152.822302330639
31
0
0
LINE
8
layer0
10
864.608015667364
20
152.822302330639
30
0
11
864.608015667364
21
154.554353138208
31
0
0
LINE
8
layer0
10
864.608015667364
20
154.554353138208
30
0
11
803.986237402453
21
172.054353138208
31
0
0
LINE
8
layer0
10
803.986237402453
20
172.054353138208
30
0
11
803.986237402453
21
170.322302330639
31
0
0
LINE
8
layer0
10
1257.7835489855
20
39.322302330639
30
0
11
1318.40532725041
21
21.822302330639
31
0
0
LINE
8
layer0
10
1318.40532725041
20
21.822302330639
30
0
11
1318.40532725041
21
23.554353138208
31
0
0
LINE
8
layer0
10
1318.40532725041
20
23.554353138208
30
0
11
1257.7835489855
21
41.054353138208
31
0
0
LINE
8
layer0
10
1257.7835489855
20
41.054353138208
30
0
11
1257.7835489855
21
39.322302330639
31
0
0
LINE
8
layer0
10
864.608015667364
20
152.822302330639
30
0
11
857.108015667364
21
146.327111802256
31
0
0
LINE
8
layer0
10
857.108015667364
20
146.327111802256
30
0
11
857.108015667364
21
148.059162609825
31
0
0
LINE
8
layer0
10
857.108015667364
20
148.059162609825
30
0
11
864.608015667364
21
154.554353138208
31
0
0
LINE
8
layer0
10
864.608015667364
20
154.554353138208
30
0
11
864.608015667364
21
152.822302330639
31
0
0
LINE
8
layer0
10
1250.2835489855
20
34.5591626098247
30
0
11
1250.2835489855
21
32.8271118022557
31
0
0
LINE
8
layer0
10
1250.2835489855
20
32.8271118022557
30
0
11
1257.7835489855
21
39.322302330639
31
0
0
LINE
8
layer0
10
1257.7835489855
20
39.322302330639
30
0
11
1257.7835489855
21
41.054353138208
31
0
0
LINE
8
layer0
10
1257.7835489855
20
41.054353138208
30
0
11
1250.2835489855
21
34.5591626098247
31
0
0
LINE
8
layer0
10
1328.40532725041
20
32.2146071760524
30
0
11
813.986237402453
21
180.714607176052
31
0
0
LINE
8
layer0
10
813.986237402453
20
180.714607176052
30
0
11
803.986237402453
21
172.054353138208
31
0
0
LINE
8
layer0
10
803.986237402453
20
172.054353138208
30
0
11
1318.40532725041
21
23.554353138208
31
0
0
LINE
8
layer0
10
1318.40532725041
20
23.554353138208
30
0
11
1328.40532725041
21
32.2146071760524
31
0
0
LINE
8
layer0
10
1250.2835489855
20
34.5591626098247
30
0
11
1257.7835489855
21
41.054353138208
31
0
0
LINE
8
layer0
10
1257.7835489855
20
41.054353138208
30
0
11
864.608015667364
21
154.554353138208
31
0
0
LINE
8
layer0
10
864.608015667364
20
154.554353138208
30
0
11
857.108015667364
21
148.059162609825
31
0
0
LINE
8
layer0
10
857.108015667364
20
148.059162609825
30
0
11
1250.2835489855
21
34.5591626098247
31
0
0
LINE
8
layer0
10
856.108015667364
20
136.800832360627
30
0
11
857.108015667364
21
137.666857764411
31
0
0
LINE
8
layer0
10
857.108015667364
20
137.666857764411
30
0
11
1250.2835489855
21
24.1668577644114
31
0
0
LINE
8
layer0
10
1250.2835489855
20
24.1668577644114
30
0
11
1249.2835489855
21
23.300832360627
31
0
0
LINE
8
layer0
10
1249.2835489855
20
23.300832360627
30
0
11
856.108015667364
21
136.800832360627
31
0
0
LINE
8
layer0
10
857.108015667364
20
148.059162609825
30
0
11
857.108015667364
21
137.666857764411
31
0
0
LINE
8
layer0
10
857.108015667364
20
137.666857764411
30
0
11
856.108015667364
21
136.800832360627
31
0
0
LINE
8
layer0
10
856.108015667364
20
136.800832360627
30
0
11
856.108015667364
21
147.19313720604
31
0
0
LINE
8
layer0
10
856.108015667364
20
147.19313720604
30
0
11
857.108015667364
21
148.059162609825
31
0
0
LINE
8
layer0
10
1249.2835489855
20
33.6931372060403
30
0
11
1249.2835489855
21
23.300832360627
31
0
0
LINE
8
layer0
10
1249.2835489855
20
23.300832360627
30
0
11
1250.2835489855
21
24.1668577644114
31
0
0
LINE
8
layer0
10
1250.2835489855
20
24.1668577644114
30
0
11
1250.2835489855
21
34.5591626098247
31
0
0
LINE
8
layer0
10
1250.2835489855
20
34.5591626098247
30
0
11
1249.2835489855
21
33.6931372060403
31
0
0
LINE
8
layer0
10
1249.2835489855
20
33.6931372060403
30
0
11
1250.2835489855
21
34.5591626098247
31
0
0
LINE
8
layer0
10
1250.2835489855
20
34.5591626098247
30
0
11
857.108015667364
21
148.059162609825
31
0
0
LINE
8
layer0
10
857.108015667364
20
148.059162609825
30
0
11
856.108015667364
21
147.19313720604
31
0
0
LINE
8
layer0
10
856.108015667364
20
147.19313720604
30
0
11
1249.2835489855
21
33.6931372060403
31
0
0
LINE
8
layer0
10
856.108015667364
20
147.19313720604
30
0
11
856.108015667364
21
136.800832360627
31
0
0
LINE
8
layer0
10
856.108015667364
20
136.800832360627
30
0
11
1249.2835489855
21
23.300832360627
31
0
0
LINE
8
layer0
10
1249.2835489855
20
23.300832360627
30
0
11
1249.2835489855
21
33.6931372060403
31
0
0
LINE
8
layer0
10
1249.2835489855
20
33.6931372060403
30
0
11
856.108015667364
21
147.19313720604
31
0
0
ENDBLK
0
BLOCK
8
layer0
2
PF_OBJECT17
70
0
10
0
20
0
30
0
0
LINE
8
layer0
10
1328.90532725041
20
-579.632340597654
30
0
11
814.486237402453
21
-431.132340597654
31
0
0
LINE
8
layer0
10
814.486237402453
20
-431.132340597654
30
0
11
814.486237402453
21
179.415569070376
31
0
0
LINE
8
layer0
10
814.486237402453
20
179.415569070376
30
0
11
1328.90532725041
21
30.9155690703756
31
0
0
LINE
8
layer0
10
1328.90532725041
20
30.9155690703756
30
0
11
1328.90532725041
21
-579.632340597654
31
0
0
LINE
8
layer0
10
804.486237402453
20
-439.792594635498
30
0
11
1318.90532725041
21
-588.292594635498
31
0
0
LINE
8
layer0
10
1318.90532725041
20
-588.292594635498
30
0
11
1318.90532725041
21
22.2553150325312
31
0
0
LINE
8
layer0
10
1318.90532725041
20
22.2553150325312
30
0
11
804.486237402453
21
170.755315032531
31
0
0
LINE
8
layer0
10
804.486237402453
20
170.755315032531
30
0
11
804.486237402453
21
-439.792594635498
31
0
0
LINE
8
layer0
10
814.486237402453
20
-431.132340597654
30
0
11
804.486237402453
21
-439.792594635498
31
0
0
LINE
8
layer0
10
804.486237402453
20
-439.792594635498
30
0
11
804.486237402453
21
170.755315032531
31
0
0
LINE
8
layer0
10
804.486237402453
20
170.755315032531
30
0
11
814.486237402453
21
179.415569070376
31
0
0
LINE
8
layer0
10
814.486237402453
20
179.415569070376
30
0
11
814.486237402453
21
-431.132340597654
31
0
0
LINE
8
layer0
10
1318.90532725041
20
-588.292594635498
30
0
11
1328.90532725041
21
-579.632340597654
31
0
0
LINE
8
layer0
10
1328.90532725041
20
-579.632340597654
30
0
11
1328.90532725041
21
30.9155690703756
31
0
0
LINE
8
layer0
10
1328.90532725041
20
30.9155690703756
30
0
11
1318.90532725041
21
22.2553150325312
31
0
0
LINE
8
layer0
10
1318.90532725041
20
22.2553150325312
30
0
11
1318.90532725041
21
-588.292594635498
31
0
0
LINE
8
layer0
10
1328.90532725041
20
30.9155690703756
30
0
11
814.486237402453
21
179.415569070376
31
0
0
LINE
8
layer0
10
814.486237402453
20
179.415569070376
30
0
11
804.486237402453
21
170.755315032531
31
0
0
LINE
8
layer0
10
804.486237402453
20
170.755315032531
30
0
11
1318.90532725041
21
22.2553150325312
31
0
0
LINE
8
layer0
10
1318.90532725041
20
22.2553150325312
30
0
11
1328.90532725041
21
30.9155690703756
31
0
0
LINE
8
layer0
10
814.486237402453
20
-431.132340597654
30
0
11
1328.90532725041
21
-579.632340597654
31
0
0
LINE
8
layer0
10
1328.90532725041
20
-579.632340597654
30
0
11
1318.90532725041
21
-588.292594635498
31
0
0
LINE
8
layer0
10
1318.90532725041
20
-588.292594635498
30
0
11
804.486237402453
21
-439.792594635498
31
0
0
LINE
8
layer0
10
804.486237402453
20
-439.792594635498
30
0
11
814.486237402453
21
-431.132340597654
31
0
0
ENDBLK
0
BLOCK
8
layer0
2
PF_OBJECT18
70
0
10
0
20
0
30
0
0
LINE
8
layer0
10
1124.3304475317
20
-382.301270189222
30
0
11
1089.68943138032
21
-372.301270189222
31
0
0
LINE
8
layer0
10
1089.68943138032
20
-372.301270189222
30
0
11
1089.68943138032
21
-242.397459621556
31
0
0
LINE
8
layer0
10
1089.68943138032
20
-242.397459621556
30
0
11
1124.3304475317
21
-252.397459621556
31
0
0
LINE
8
layer0
10
1124.3304475317
20
-252.397459621556
30
0
11
1124.3304475317
21
-382.301270189222
31
0
0
LINE
8
layer0
10
1069.68943138032
20
-389.621778264911
30
0
11
1104.3304475317
21
-399.621778264911
31
0
0
LINE
8
layer0
10
1104.3304475317
20
-399.621778264911
30
0
11
1104.3304475317
21
-269.717967697245
31
0
0
LINE
8
layer0
10
1104.3304475317
20
-269.717967697245
30
0
11
1069.68943138032
21
-259.717967697245
31
0
0
LINE
8
layer0
10
1069.68943138032
20
-259.717967697245
30
0
11
1069.68943138032
21
-389.621778264911
31
0
0
LINE
8
layer0
10
1089.68943138032
20
-372.301270189222
30
0
11
1069.68943138032
21
-389.621778264911
31
0
0
LINE
8
layer0
10
1069.68943138032
20
-389.621778264911
30
0
11
1069.68943138032
21
-259.717967697245
31
0
0
LINE
8
layer0
10
1069.68943138032
20
-259.717967697245
30
0
11
1089.68943138032
21
-242.397459621556
31
0
0
LINE
8
layer0
10
1089.68943138032
20
-242.397459621556
30
0
11
1089.68943138032
21
-372.301270189222
31
0
0
LINE
8
layer0
10
1104.3304475317
20
-399.621778264911
30
0
11
1124.3304475317
21
-382.301270189222
31
0
0
LINE
8
layer0
10
1124.3304475317
20
-382.301270189222
30
0
11
1124.3304475317
21
-252.397459621556
31
0
0
LINE
8
layer0
10
1124.3304475317
20
-252.397459621556
30
0
11
1104.3304475317
21
-269.717967697245
31
0
0
LINE
8
layer0
10
1104.3304475317
20
-269.717967697245
30
0
11
1104.3304475317
21
-399.621778264911
31
0
0
LINE
8
layer0
10
1124.3304475317
20
-252.397459621556
30
0
11
1089.68943138032
21
-242.397459621556
31
0
0
LINE
8
layer0
10
1089.68943138032
20
-242.397459621556
30
0
11
1069.68943138032
21
-259.717967697245
31
0
0
LINE
8
layer0
10
1069.68943138032
20
-259.717967697245
30
0
11
1104.3304475317
21
-269.717967697245
31
0
0
LINE
8
layer0
10
1104.3304475317
20
-269.717967697245
30
0
11
1124.3304475317
21
-252.397459621556
31
0
0
LINE
8
layer0
10
1089.68943138032
20
-372.301270189222
30
0
11
1124.3304475317
21
-382.301270189222
31
0
0
LINE
8
layer0
10
1124.3304475317
20
-382.301270189222
30
0
11
1104.3304475317
21
-399.621778264911
31
0
0
LINE
8
layer0
10
1104.3304475317
20
-399.621778264911
30
0
11
1069.68943138032
21
-389.621778264911
31
0
0
LINE
8
layer0
10
1069.68943138032
20
-389.621778264911
30
0
11
1089.68943138032
21
-372.301270189222
31
0
0
ENDBLK
0
BLOCK
8
layer0
2
PF_OBJECT19
70
0
10
0
20
0
30
0
0
LINE
8
layer0
10
966.330447531699
20
-519.133283987163
30
0
11
931.689431380321
21
-509.133283987163
31
0
0
LINE
8
layer0
10
931.689431380321
20
-509.133283987163
30
0
11
931.689431380321
21
-379.229473419497
31
0
0
LINE
8
layer0
10
931.689431380321
20
-379.229473419497
30
0
11
966.330447531699
21
-389.229473419497
31
0
0
LINE
8
layer0
10
966.330447531699
20
-389.229473419497
30
0
11
966.330447531699
21
-519.133283987163
31
0
0
LINE
8
layer0
10
911.689431380321
20
-526.453792062852
30
0
11
946.330447531699
21
-536.453792062852
31
0
0
LINE
8
layer0
10
946.330447531699
20
-536.453792062852
30
0
11
946.330447531699
21
-406.549981495186
31
0
0
LINE
8
layer0
10
946.330447531699
20
-406.549981495186
30
0
11
911.689431380321
21
-396.549981495186
31
0
0
LINE
8
layer0
10
911.689431380321
20
-396.549981495186
30
0
11
911.689431380321
21
-526.453792062852
31
0
0
LINE
8
layer0
10
931.689431380321
20
-509.133283987163
30
0
11
911.689431380321
21
-526.453792062852
31
0
0
LINE
8
layer0
10
911.689431380321
20
-526.453792062852
30
0
11
911.689431380321
21
-396.549981495186
31
0
0
LINE
8
layer0
10
911.689431380321
20
-396.549981495186
30
0
11
931.689431380321
21
-379.229473419497
31
0
0
LINE
8
layer0
10
931.689431380321
20
-379.229473419497
30
0
11
931.689431380321
21
-509.133283987163
31
0
0
LINE
8
layer0
10
946.330447531699
20
-536.453792062852
30
0
11
966.330447531699
21
-519.133283987163
31
0
0
LINE
8
layer0
10
966.330447531699
20
-519.133283987163
30
0
11
966.330447531699
21
-389.229473419497
31
0
0
LINE
8
layer0
10
966.330447531699
20
-389.229473419497
30
0
11
946.330447531699
21
-406.549981495186
31
0
0
LINE
8
layer0
10
946.330447531699
20
-406.549981495186
30
0
11
946.330447531699
21
-536.453792062852
31
0
0
LINE
8
layer0
10
966.330447531699
20
-389.229473419497
30
0
11
931.689431380321
21
-379.229473419497
31
0
0
LINE
8
layer0
10
931.689431380321
20
-379.229473419497
30
0
11
911.689431380321
21
-396.549981495186
31
0
0
LINE
8
layer0
10
911.689431380321
20
-396.549981495186
30
0
11
946.330447531699
21
-406.549981495186
31
0
0
LINE
8
layer0
10
946.330447531699
20
-406.549981495186
30
0
11
966.330447531699
21
-389.229473419497
31
0
0
LINE
8
layer0
10
931.689431380321
20
-509.133283987163
30
0
11
966.330447531699
21
-519.133283987163
31
0
0
LINE
8
layer0
10
966.330447531699
20
-519.133283987163
30
0
11
946.330447531699
21
-536.453792062852
31
0
0
LINE
8
layer0
10
946.330447531699
20
-536.453792062852
30
0
11
911.689431380321
21
-526.453792062852
31
0
0
LINE
8
layer0
10
911.689431380321
20
-526.453792062852
30
0
11
931.689431380321
21
-509.133283987163
31
0
0
ENDBLK
0
BLOCK
8
layer0
2
PF_OBJECT20
70
0
10
0
20
0
30
0
0
LINE
8
layer0
10
1522.70213327254
20
-497.301270189222
30
0
11
1488.06111712116
21
-487.301270189222
31
0
0
LINE
8
layer0
10
1488.06111712116
20
-487.301270189222
30
0
11
1488.06111712116
21
-357.397459621556
31
0
0
LINE
8
layer0
10
1488.06111712116
20
-357.397459621556
30
0
11
1522.70213327254
21
-367.397459621556
31
0
0
LINE
8
layer0
10
1522.70213327254
20
-367.397459621556
30
0
11
1522.70213327254
21
-497.301270189222
31
0
0
LINE
8
layer0
10
1468.06111712116
20
-504.621778264911
30
0
11
1502.70213327254
21
-514.621778264911
31
0
0
LINE
8
layer0
10
1502.70213327254
20
-514.621778264911
30
0
11
1502.70213327254
21
-384.717967697245
31
0
0
LINE
8
layer0
10
1502.70213327254
20
-384.717967697245
30
0
11
1468.06111712116
21
-374.717967697245
31
0
0
LINE
8
layer0
10
1468.06111712116
20
-374.717967697245
30
0
11
1468.06111712116
21
-504.621778264911
31
0
0
LINE
8
layer0
10
1488.06111712116
20
-487.301270189222
30
0
11
1468.06111712116
21
-504.621778264911
31
0
0
LINE
8
layer0
10
1468.06111712116
20
-504.621778264911
30
0
11
1468.06111712116
21
-374.717967697245
31
0
0
LINE
8
layer0
10
1468.06111712116
20
-374.717967697245
30
0
11
1488.06111712116
21
-357.397459621556
31
0
0
LINE
8
layer0
10
1488.06111712116
20
-357.397459621556
30
0
11
1488.06111712116
21
-487.301270189222
31
0
0
LINE
8
layer0
10
1502.70213327254
20
-514.621778264911
30
0
11
1522.70213327254
21
-497.301270189222
31
0
0
LINE
8
layer0
10
1522.70213327254
20
-497.301270189222
30
0
11
1522.70213327254
21
-367.397459621556
31
0
0
LINE
8
layer0
10
1522.70213327254
20
-367.397459621556
30
0
11
1502.70213327254
21
-384.717967697245
31
0
0
LINE
8
layer0
10
1502.70213327254
20
-384.717967697245
30
0
11
1502.70213327254
21
-514.621778264911
31
0
0
LINE
8
layer0
10
1522.70213327254
20
-367.397459621556
30
0
11
1488.06111712116
21
-357.397459621556
31
0
0
LINE
8
layer0
10
1488.06111712116
20
-357.397459621556
30
0
11
1468.06111712116
21
-374.717967697245
31
0
0
LINE
8
layer0
10
1468.06111712116
20
-374.717967697245
30
0
11
1502.70213327254
21
-384.717967697245
31
0
0
LINE
8
layer0
10
1502.70213327254
20
-384.717967697245
30
0
11
1522.70213327254
21
-367.397459621556
31
0
0
LINE
8
layer0
10
1488.06111712116
20
-487.301270189222
30
0
11
1522.70213327254
21
-497.301270189222
31
0
0
LINE
8
layer0
10
1522.70213327254
20
-497.301270189222
30
0
11
1502.70213327254
21
-514.621778264911
31
0
0
LINE
8
layer0
10
1502.70213327254
20
-514.621778264911
30
0
11
1468.06111712116
21
-504.621778264911
31
0
0
LINE
8
layer0
10
1468.06111712116
20
-504.621778264911
30
0
11
1488.06111712116
21
-487.301270189222
31
0
0
ENDBLK
0
BLOCK
8
layer0
2
PF_OBJECT21
70
0
10
0
20
0
30
0
0
LINE
8
layer0
10
1364.70213327254
20
-634.133283987163
30
0
11
1330.06111712116
21
-624.133283987163
31
0
0
LINE
8
layer0
10
1330.06111712116
20
-624.133283987163
30
0
11
1330.06111712116
21
-494.229473419497
31
0
0
LINE
8
layer0
10
1330.06111712116
20
-494.229473419497
30
0
11
1364.70213327254
21
-504.229473419497
31
0
0
LINE
8
layer0
10
1364.70213327254
20
-504.229473419497
30
0
11
1364.70213327254
21
-634.133283987163
31
0
0
LINE
8
layer0
10
1310.06111712116
20
-641.453792062852
30
0
11
1344.70213327254
21
-651.453792062852
31
0
0
LINE
8
layer0
10
1344.70213327254
20
-651.453792062852
30
0
11
1344.70213327254
21
-521.549981495186
31
0
0
LINE
8
layer0
10
1344.70213327254
20
-521.549981495186
30
0
11
1310.06111712116
21
-511.549981495186
31
0
0
LINE
8
layer0
10
1310.06111712116
20
-511.549981495186
30
0
11
1310.06111712116
21
-641.453792062852
31
0
0
LINE
8
layer0
10
1330.06111712116
20
-624.133283987163
30
0
11
1310.06111712116
21
-641.453792062852
31
0
0
LINE
8
layer0
10
1310.06111712116
20
-641.453792062852
30
0
11
1310.06111712116
21
-511.549981495186
31
0
0
LINE
8
layer0
10
1310.06111712116
20
-511.549981495186
30
0
11
1330.06111712116
21
-494.229473419497
31
0
0
LINE
8
layer0
10
1330.06111712116
20
-494.229473419497
30
0
11
1330.06111712116
21
-624.133283987163
31
0
0
LINE
8
layer0
10
1344.70213327254
20
-651.453792062852
30
0
11
1364.70213327254
21
-634.133283987163
31
0
0
LINE
8
layer0
10
1364.70213327254
20
-634.133283987163
30
0
11
1364.70213327254
21
-504.229473419497
31
0
0
LINE
8
layer0
10
1364.70213327254
20
-504.229473419497
30
0
11
1344.70213327254
21
-521.549981495186
31
0
0
LINE
8
layer0
10
1344.70213327254
20
-521.549981495186
30
0
11
1344.70213327254
21
-651.453792062852
31
0
0
LINE
8
layer0
10
1364.70213327254
20
-504.229473419497
30
0
11
1330.06111712116
21
-494.229473419497
31
0
0
LINE
8
layer0
10
1330.06111712116
20
-494.229473419497
30
0
11
1310.06111712116
21
-511.549981495186
31
0
0
LINE
8
layer0
10
1310.06111712116
20
-511.549981495186
30
0
11
1344.70213327254
21
-521.549981495186
31
0
0
LINE
8
layer0
10
1344.70213327254
20
-521.549981495186
30
0
11
1364.70213327254
21
-504.229473419497
31
0
0
LINE
8
layer0
10
1330.06111712116
20
-624.133283987163
30
0
11
1364.70213327254
21
-634.133283987163
31
0
0
LINE
8
layer0
10
1364.70213327254
20
-634.133283987163
30
0
11
1344.70213327254
21
-651.453792062852
31
0
0
LINE
8
layer0
10
1344.70213327254
20
-651.453792062852
30
0
11
1310.06111712116
21
-641.453792062852
31
0
0
LINE
8
layer0
10
1310.06111712116
20
-641.453792062852
30
0
11
1330.06111712116
21
-624.133283987163
31
0
0
ENDBLK
0
BLOCK
8
layer0
70
0
10
0
20
0
30
0
2
PF_SKETCH22
0
LINE
8
layer0
10
1049.22149452443
20
396.094569747296
30
0
11
1002.05482785777
21
355.24703820213
31
0
0
ENDBLK
0
BLOCK
8
layer0
70
0
10
0
20
0
30
0
2
PF_SKETCH23
0
LINE
8
layer0
10
1568.8367367951
20
246.094569747296
30
0
11
1521.67007012843
21
205.24703820213
31
0
0
ENDBLK
0
BLOCK
8
layer0
70
0
10
0
20
0
30
0
2
PF_SKETCH24
0
LINE
8
layer0
10
954.888161191099
20
314.399506656964
30
0
11
907.721494524433
21
273.551975111798
31
0
0
ENDBLK
0
BLOCK
8
layer0
70
0
10
0
20
0
30
0
2
PF_SKETCH25
0
LINE
8
layer0
10
1474.50340346176
20
164.399506656964
30
0
11
1427.3367367951
21
123.551975111798
31
0
0
ENDBLK
0
BLOCK
8
layer0
70
0
10
0
20
0
30
0
2
PF_SKETCH26
0
LINE
8
layer0
10
860.554827857766
20
232.704443566632
30
0
11
813.388161191099
21
191.856912021466
31
0
0
ENDBLK
0
BLOCK
8
layer0
70
0
10
0
20
0
30
0
2
PF_SKETCH27
0
LINE
8
layer0
10
1380.17007012843
20
82.7044435666316
30
0
11
1333.00340346176
21
41.8569120214656
31
0
0
ENDBLK
0
BLOCK
8
layer0
2
PF_OBJECT28
70
0
10
0
20
0
30
0
0
LINE
8
layer0
10
1848.02056952107
20
-119.517443631517
30
0
11
1333.60147967312
21
28.9825563684834
31
0
0
LINE
8
layer0
10
1333.60147967312
20
28.9825563684834
30
0
11
1333.60147967312
21
30.7146071760524
31
0
0
LINE
8
layer0
10
1333.60147967312
20
30.7146071760524
30
0
11
1848.02056952107
21
-117.785392823948
31
0
0
LINE
8
layer0
10
1848.02056952107
20
-117.785392823948
30
0
11
1848.02056952107
21
-119.517443631517
31
0
0
LINE
8
layer0
10
1333.60147967312
20
28.9825563684834
30
0
11
1323.60147967312
21
20.322302330639
31
0
0
LINE
8
layer0
10
1323.60147967312
20
20.322302330639
30
0
11
1323.60147967312
21
22.054353138208
31
0
0
LINE
8
layer0
10
1323.60147967312
20
22.054353138208
30
0
11
1333.60147967312
21
30.7146071760524
31
0
0
LINE
8
layer0
10
1333.60147967312
20
30.7146071760524
30
0
11
1333.60147967312
21
28.9825563684834
31
0
0
LINE
8
layer0
10
1838.02056952107
20
-126.445646861792
30
0
11
1838.02056952107
21
-128.177697669361
31
0
0
LINE
8
layer0
10
1838.02056952107
20
-128.177697669361
30
0
11
1848.02056952107
21
-119.517443631517
31
0
0
LINE
8
layer0
10
1848.02056952107
20
-119.517443631517
30
0
11
1848.02056952107
21
-117.785392823948
31
0
0
LINE
8
layer0
10
1848.02056952107
20
-117.785392823948
30
0
11
1838.02056952107
21
-126.445646861792
31
0
0
LINE
8
layer0
10
1333.60147967312
20
28.9825563684834
30
0
11
1848.02056952107
21
-119.517443631517
31
0
0
LINE
8
layer0
10
1848.02056952107
20
-119.517443631517
30
0
11
1838.02056952107
21
-128.177697669361
31
0
0
LINE
8
layer0
10
1838.02056952107
20
-128.177697669361
30
0
11
1323.60147967312
21
20.322302330639
31
0
0
LINE
8
layer0
10
1323.60147967312
20
20.322302330639
30
0
11
1333.60147967312
21
28.9825563684834
31
0
0
LINE
8
layer0
10
1376.72325793803
20
-3.67288819774427
30
0
11
1384.22325793803
21
2.82230233063905
31
0
0
LINE
8
layer0
10
1384.22325793803
20
2.82230233063905
30
0
11
1777.39879125616
21
-110.677697669361
31
0
0
LINE
8
layer0
10
1777.39879125616
20
-110.677697669361
30
0
11
1769.89879125616
21
-117.172888197744
31
0
0
LINE
8
layer0
10
1769.89879125616
20
-117.172888197744
30
0
11
1376.72325793803
21
-3.67288819774427
31
0
0
LINE
8
layer0
10
1323.60147967312
20
20.322302330639
30
0
11
1384.22325793803
21
2.82230233063905
31
0
0
LINE
8
layer0
10
1384.22325793803
20
2.82230233063905
30
0
11
1384.22325793803
21
4.554353138208
31
0
0
LINE
8
layer0
10
1384.22325793803
20
4.554353138208
30
0
11
1323.60147967312
21
22.054353138208
31
0
0
LINE
8
layer0
10
1323.60147967312
20
22.054353138208
30
0
11
1323.60147967312
21
20.322302330639
31
0
0
LINE
8
layer0
10
1777.39879125616
20
-110.677697669361
30
0
11
1838.02056952107
21
-128.177697669361
31
0
0
LINE
8
layer0
10
1838.02056952107
20
-128.177697669361
30
0
11
1838.02056952107
21
-126.445646861792
31
0
0
LINE
8
layer0
10
1838.02056952107
20
-126.445646861792
30
0
11
1777.39879125616
21
-108.945646861792
31
0
0
LINE
8
layer0
10
1777.39879125616
20
-108.945646861792
30
0
11
1777.39879125616
21
-110.677697669361
31
0
0
LINE
8
layer0
10
1384.22325793803
20
2.82230233063905
30
0
11
1376.72325793803
21
-3.67288819774427
31
0
0
LINE
8
layer0
10
1376.72325793803
20
-3.67288819774427
30
0
11
1376.72325793803
21
-1.94083739017532
31
0
0
LINE
8
layer0
10
1376.72325793803
20
-1.94083739017532
30
0
11
1384.22325793803
21
4.554353138208
31
0
0
LINE
8
layer0
10
1384.22325793803
20
4.554353138208
30
0
11
1384.22325793803
21
2.82230233063905
31
0
0
LINE
8
layer0
10
1769.89879125616
20
-115.440837390175
30
0
11
1769.89879125616
21
-117.172888197744
31
0
0
LINE
8
layer0
10
1769.89879125616
20
-117.172888197744
30
0
11
1777.39879125616
21
-110.677697669361
31
0
0
LINE
8
layer0
10
1777.39879125616
20
-110.677697669361
30
0
11
1777.39879125616
21
-108.945646861792
31
0
0
LINE
8
layer0
10
1777.39879125616
20
-108.945646861792
30
0
11
1769.89879125616
21
-115.440837390175
31
0
0
LINE
8
layer0
10
1848.02056952107
20
-117.785392823948
30
0
11
1333.60147967312
21
30.7146071760524
31
0
0
LINE
8
layer0
10
1333.60147967312
20
30.7146071760524
30
0
11
1323.60147967312
21
22.054353138208
31
0
0
LINE
8
layer0
10
1323.60147967312
20
22.054353138208
30
0
11
1838.02056952107
21
-126.445646861792
31
0
0
LINE
8
layer0
10
1838.02056952107
20
-126.445646861792
30
0
11
1848.02056952107
21
-117.785392823948
31
0
0
LINE
8
layer0
10
1769.89879125616
20
-115.440837390175
30
0
11
1777.39879125616
21
-108.945646861792
31
0
0
LINE
8
layer0
10
1777.39879125616
20
-108.945646861792
30
0
11
1384.22325793803
21
4.554353138208
31
0
0
LINE
8
layer0
10
1384.22325793803
20
4.554353138208
30
0
11
1376.72325793803
21
-1.94083739017532
31
0
0
LINE
8
layer0
10
1376.72325793803
20
-1.94083739017532
30
0
11
1769.89879125616
21
-115.440837390175
31
0
0
LINE
8
layer0
10
1375.72325793803
20
-13.199167639373
30
0
11
1376.72325793803
21
-12.3331422355886
31
0
0
LINE
8
layer0
10
1376.72325793803
20
-12.3331422355886
30
0
11
1769.89879125616
21
-125.833142235589
31
0
0
LINE
8
layer0
10
1769.89879125616
20
-125.833142235589
30
0
11
1768.89879125616
21
-126.699167639373
31
0
0
LINE
8
layer0
10
1768.89879125616
20
-126.699167639373
30
0
11
1375.72325793803
21
-13.199167639373
31
0
0
LINE
8
layer0
10
1376.72325793803
20
-1.94083739017532
30
0
11
1376.72325793803
21
-12.3331422355886
31
0
0
LINE
8
layer0
10
1376.72325793803
20
-12.3331422355886
30
0
11
1375.72325793803
21
-13.199167639373
31
0
0
LINE
8
layer0
10
1375.72325793803
20
-13.199167639373
30
0
11
1375.72325793803
21
-2.80686279395974
31
0
0
LINE
8
layer0
10
1375.72325793803
20
-2.80686279395974
30
0
11
1376.72325793803
21
-1.94083739017532
31
0
0
LINE
8
layer0
10
1768.89879125616
20
-116.30686279396
30
0
11
1768.89879125616
21
-126.699167639373
31
0
0
LINE
8
layer0
10
1768.89879125616
20
-126.699167639373
30
0
11
1769.89879125616
21
-125.833142235589
31
0
0
LINE
8
layer0
10
1769.89879125616
20
-125.833142235589
30
0
11
1769.89879125616
21
-115.440837390175
31
0
0
LINE
8
layer0
10
1769.89879125616
20
-115.440837390175
30
0
11
1768.89879125616
21
-116.30686279396
31
0
0
LINE
8
layer0
10
1768.89879125616
20
-116.30686279396
30
0
11
1769.89879125616
21
-115.440837390175
31
0
0
LINE
8
layer0
10
1769.89879125616
20
-115.440837390175
30
0
11
1376.72325793803
21
-1.94083739017532
31
0
0
LINE
8
layer0
10
1376.72325793803
20
-1.94083739017532
30
0
11
1375.72325793803
21
-2.80686279395974
31
0
0
LINE
8
layer0
10
1375.72325793803
20
-2.80686279395974
30
0
11
1768.89879125616
21
-116.30686279396
31
0
0
LINE
8
layer0
10
1375.72325793803
20
-2.80686279395974
30
0
11
1375.72325793803
21
-13.199167639373
31
0
0
LINE
8
layer0
10
1375.72325793803
20
-13.199167639373
30
0
11
1768.89879125616
21
-126.699167639373
31
0
0
LINE
8
layer0
10
1768.89879125616
20
-126.699167639373
30
0
11
1768.89879125616
21
-116.30686279396
31
0
0
LINE
8
layer0
10
1768.89879125616
20
-116.30686279396
30
0
11
1375.72325793803
21
-2.80686279395974
31
0
0
ENDBLK
0
BLOCK
8
layer0
2
PF_OBJECT29
70
0
10
0
20
0
30
0
0
LINE
8
layer0
10
1848.52056952107
20
-729.632340597654
30
0
11
1334.10147967312
21
-581.132340597654
31
0
0
LINE
8
layer0
10
1334.10147967312
20
-581.132340597654
30
0
11
1334.10147967312
21
29.4155690703756
31
0
0
LINE
8
layer0
10
1334.10147967312
20
29.4155690703756
30
0
11
1848.52056952107
21
-119.084430929624
31
0
0
LINE
8
layer0
10
1848.52056952107
20
-119.084430929624
30
0
11
1848.52056952107
21
-729.632340597654
31
0
0
LINE
8
layer0
10
1324.10147967312
20
-589.792594635498
30
0
11
1838.52056952107
21
-738.292594635498
31
0
0
LINE
8
layer0
10
1838.52056952107
20
-738.292594635498
30
0
11
1838.52056952107
21
-127.744684967469
31
0
0
LINE
8
layer0
10
1838.52056952107
20
-127.744684967469
30
0
11
1324.10147967312
21
20.7553150325312
31
0
0
LINE
8
layer0
10
1324.10147967312
20
20.7553150325312
30
0
11
1324.10147967312
21
-589.792594635498
31
0
0
LINE
8
layer0
10
1334.10147967312
20
-581.132340597654
30
0
11
1324.10147967312
21
-589.792594635498
31
0
0
LINE
8
layer0
10
1324.10147967312
20
-589.792594635498
30
0
11
1324.10147967312
21
20.7553150325312
31
0
0
LINE
8
layer0
10
1324.10147967312
20
20.7553150325312
30
0
11
1334.10147967312
21
29.4155690703756
31
0
0
LINE
8
layer0
10
1334.10147967312
20
29.4155690703756
30
0
11
1334.10147967312
21
-581.132340597654
31
0
0
LINE
8
layer0
10
1838.52056952107
20
-738.292594635498
30
0
11
1848.52056952107
21
-729.632340597654
31
0
0
LINE
8
layer0
10
1848.52056952107
20
-729.632340597654
30
0
11
1848.52056952107
21
-119.084430929624
31
0
0
LINE
8
layer0
10
1848.52056952107
20
-119.084430929624
30
0
11
1838.52056952107
21
-127.744684967469
31
0
0
LINE
8
layer0
10
1838.52056952107
20
-127.744684967469
30
0
11
1838.52056952107
21
-738.292594635498
31
0
0
LINE
8
layer0
10
1848.52056952107
20
-119.084430929624
30
0
11
1334.10147967312
21
29.4155690703756
31
0
0
LINE
8
layer0
10
1334.10147967312
20
29.4155690703756
30
0
11
1324.10147967312
21
20.7553150325312
31
0
0
LINE
8
layer0
10
1324.10147967312
20
20.7553150325312
30
0
11
1838.52056952107
21
-127.744684967469
31
0
0
LINE
8
layer0
10
1838.52056952107
20
-127.744684967469
30
0
11
1848.52056952107
21
-119.084430929624
31
0
0
LINE
8
layer0
10
1334.10147967312
20
-581.132340597654
30
0
11
1848.52056952107
21
-729.632340597654
31
0
0
LINE
8
layer0
10
1848.52056952107
20
-729.632340597654
30
0
11
1838.52056952107
21
-738.292594635498
31
0
0
LINE
8
layer0
10
1838.52056952107
20
-738.292594635498
30
0
11
1324.10147967312
21
-589.792594635498
31
0
0
LINE
8
layer0
10
1324.10147967312
20
-589.792594635498
30
0
11
1334.10147967312
21
-581.132340597654
31
0
0
ENDBLK
0
BLOCK
8
layer0
70
0
10
0
20
0
30
0
2
PF_SKETCH30
0
LINE
8
layer0
10
1568.8367367951
20
246.094569747296
30
0
11
1521.67007012843
21
205.24703820213
31
0
0
ENDBLK
0
BLOCK
8
layer0
70
0
10
0
20
0
30
0
2
PF_SKETCH31
0
LINE
8
layer0
10
2088.45197906576
20
96.0945697472957
30
0
11
2041.28531239909
21
55.2470382021297
31
0
0
ENDBLK
0
BLOCK
8
layer0
70
0
10
0
20
0
30
0
2
PF_SKETCH32
0
LINE
8
layer0
10
1474.50340346176
20
164.399506656964
30
0
11
1427.3367367951
21
123.551975111798
31
0
0
ENDBLK
0
BLOCK
8
layer0
70
0
10
0
20
0
30
0
2
PF_SKETCH33
0
LINE
8
layer0
10
1994.11864573243
20
14.3995066569636
30
0
11
1946.95197906576
21
-26.4480248882024
31
0
0
ENDBLK
0
BLOCK
8
layer0
70
0
10
0
20
0
30
0
2
PF_SKETCH34
0
LINE
8
layer0
10
1380.17007012843
20
82.7044435666316
30
0
11
1333.00340346176
21
41.8569120214656
31
0
0
ENDBLK
0
BLOCK
8
layer0
70
0
10
0
20
0
30
0
2
PF_SKETCH35
0
LINE
8
layer0
10
1899.78531239909
20
-67.2955564333684
30
0
11
1852.61864573243
21
-108.143087978534
31
0
0
ENDBLK
0
BLOCK
8
layer0
2
PF_OBJECT36
70
0
10
0
20
0
30
0
0
LINE
8
layer0
10
2137.7784746115
20
-615.391438084799
30
0
11
1844.7784746115
21
-869.13688139364
31
0
0
LINE
8
layer0
10
1844.7784746115
20
-869.13688139364
30
0
11
1844.7784746115
21
-115.694780101178
31
0
0
LINE
8
layer0
10
1844.7784746115
20
-115.694780101178
30
0
11
2137.7784746115
21
138.050663207662
31
0
0
LINE
8
layer0
10
2137.7784746115
20
138.050663207662
30
0
11
2137.7784746115
21
-615.391438084799
31
0
0
LINE
8
layer0
10
1857.97505219298
20
-872.946405203164
30
0
11
2150.97505219298
21
-619.200961894323
31
0
0
LINE
8
layer0
10
2150.97505219298
20
-619.200961894323
30
0
11
2150.97505219298
21
134.241139398138
31
0
0
LINE
8
layer0
10
2150.97505219298
20
134.241139398138
30
0
11
1857.97505219298
21
-119.504303910702
31
0
0
LINE
8
layer0
10
1857.97505219298
20
-119.504303910702
30
0
11
1857.97505219298
21
-872.946405203164
31
0
0
LINE
8
layer0
10
1844.7784746115
20
-869.13688139364
30
0
11
1857.97505219298
21
-872.946405203164
31
0
0
LINE
8
layer0
10
1857.97505219298
20
-872.946405203164
30
0
11
1857.97505219298
21
-119.504303910702
31
0
0
LINE
8
layer0
10
1857.97505219298
20
-119.504303910702
30
0
11
1844.7784746115
21
-115.694780101178
31
0
0
LINE
8
layer0
10
1844.7784746115
20
-115.694780101178
30
0
11
1844.7784746115
21
-869.13688139364
31
0
0
LINE
8
layer0
10
2150.97505219298
20
-619.200961894323
30
0
11
2137.7784746115
21
-615.391438084799
31
0
0
LINE
8
layer0
10
2137.7784746115
20
-615.391438084799
30
0
11
2137.7784746115
21
138.050663207662
31
0
0
LINE
8
layer0
10
2137.7784746115
20
138.050663207662
30
0
11
2150.97505219298
21
134.241139398138
31
0
0
LINE
8
layer0
10
2150.97505219298
20
134.241139398138
30
0
11
2150.97505219298
21
-619.200961894323
31
0
0
LINE
8
layer0
10
2137.7784746115
20
138.050663207662
30
0
11
1844.7784746115
21
-115.694780101178
31
0
0
LINE
8
layer0
10
1844.7784746115
20
-115.694780101178
30
0
11
1857.97505219298
21
-119.504303910702
31
0
0
LINE
8
layer0
10
1857.97505219298
20
-119.504303910702
30
0
11
2150.97505219298
21
134.241139398138
31
0
0
LINE
8
layer0
10
2150.97505219298
20
134.241139398138
30
0
11
2137.7784746115
21
138.050663207662
31
0
0
LINE
8
layer0
10
1844.7784746115
20
-869.13688139364
30
0
11
2137.7784746115
21
-615.391438084799
31
0
0
LINE
8
layer0
10
2137.7784746115
20
-615.391438084799
30
0
11
2150.97505219298
21
-619.200961894323
31
0
0
LINE
8
layer0
10
2150.97505219298
20
-619.200961894323
30
0
11
1857.97505219298
21
-872.946405203164
31
0
0
LINE
8
layer0
10
1857.97505219298
20
-872.946405203164
30
0
11
1844.7784746115
21
-869.13688139364
31
0
0
ENDBLK
0
BLOCK
8
layer0
2
PF_OBJECT37
70
0
10
0
20
0
30
0
0
LINE
8
layer0
10
1875.61864573243
20
-711.762794416288
30
0
11
1875.61864573243
21
-841.666604983954
31
0
0
LINE
8
layer0
10
1875.61864573243
20
-841.666604983954
30
0
11
316.772918920436
21
-391.666604983954
31
0
0
LINE
8
layer0
10
316.772918920436
20
-391.666604983954
30
0
11
316.772918920436
21
-261.762794416288
31
0
0
LINE
8
layer0
10
316.772918920436
20
-261.762794416288
30
0
11
1875.61864573243
21
-711.762794416288
31
0
0
LINE
8
layer0
10
308.777918920436
20
-398.590478087211
30
0
11
316.772918920436
21
-391.666604983954
31
0
0
LINE
8
layer0
10
316.772918920436
20
-391.666604983954
30
0
11
1875.61864573243
21
-841.666604983954
31
0
0
LINE
8
layer0
10
1875.61864573243
20
-841.666604983954
30
0
11
1867.62364573243
21
-848.590478087211
31
0
0
LINE
8
layer0
10
1867.62364573243
20
-848.590478087211
30
0
11
308.777918920436
21
-398.590478087211
31
0
0
LINE
8
layer0
10
308.777918920436
20
-268.686667519545
30
0
11
316.772918920436
21
-261.762794416288
31
0
0
LINE
8
layer0
10
316.772918920436
20
-261.762794416288
30
0
11
316.772918920436
21
-391.666604983954
31
0
0
LINE
8
layer0
10
316.772918920436
20
-391.666604983954
30
0
11
308.777918920436
21
-398.590478087211
31
0
0
LINE
8
layer0
10
308.777918920436
20
-398.590478087211
30
0
11
308.777918920436
21
-268.686667519545
31
0
0
LINE
8
layer0
10
1875.61864573243
20
-711.762794416288
30
0
11
1867.62364573243
21
-718.686667519545
31
0
0
LINE
8
layer0
10
1867.62364573243
20
-718.686667519545
30
0
11
1867.62364573243
21
-848.590478087211
31
0
0
LINE
8
layer0
10
1867.62364573243
20
-848.590478087211
30
0
11
1875.61864573243
21
-841.666604983954
31
0
0
LINE
8
layer0
10
1875.61864573243
20
-841.666604983954
30
0
11
1875.61864573243
21
-711.762794416288
31
0
0
LINE
8
layer0
10
1867.62364573243
20
-718.686667519545
30
0
11
1875.61864573243
21
-711.762794416288
31
0
0
LINE
8
layer0
10
1875.61864573243
20
-711.762794416288
30
0
11
316.772918920436
21
-261.762794416288
31
0
0
LINE
8
layer0
10
316.772918920436
20
-261.762794416288
30
0
11
308.777918920436
21
-268.686667519545
31
0
0
LINE
8
layer0
10
308.777918920436
20
-268.686667519545
30
0
11
1867.62364573243
21
-718.686667519545
31
0
0
LINE
8
layer0
10
308.777918920436
20
-268.686667519545
30
0
11
308.777918920436
21
-398.590478087211
31
0
0
LINE
8
layer0
10
308.777918920436
20
-398.590478087211
30
0
11
1867.62364573243
21
-848.59047808721
31
0
0
LINE
8
layer0
10
1867.62364573243
20
-848.59047808721
30
0
11
1867.62364573243
21
-718.686667519545
31
0
0
LINE
8
layer0
10
1867.62364573243
20
-718.686667519545
30
0
11
308.777918920436
21
-268.686667519545
31
0
0
ENDBLK
0
BLOCK
8
layer0
2
PF_OBJECT38
70
0
10
0
20
0
30
0
0
LINE
8
layer0
10
2158.13530623082
20
130.442101292462
30
0
11
1183.70723462441
21
411.735256016407
31
0
0
LINE
8
layer0
10
1183.70723462441
20
411.735256016407
30
0
11
1183.70723462441
21
439.448068937509
31
0
0
LINE
8
layer0
10
1183.70723462441
20
439.448068937509
30
0
11
2158.13530623082
21
158.154914213564
31
0
0
LINE
8
layer0
10
2158.13530623082
20
158.154914213564
30
0
11
2158.13530623082
21
130.442101292462
31
0
0
LINE
8
layer0
10
1110.53027499325
20
460.572437608274
30
0
11
1110.53027499325
21
432.859624687172
31
0
0
LINE
8
layer0
10
1110.53027499325
20
432.859624687172
30
0
11
554.256258422041
21
593.442101292462
31
0
0
LINE
8
layer0
10
554.256258422041
20
593.442101292462
30
0
11
554.256258422041
21
621.154914213564
31
0
0
LINE
8
layer0
10
554.256258422041
20
621.154914213564
30
0
11
1110.53027499325
21
460.572437608274
31
0
0
LINE
8
layer0
10
1183.70723462441
20
439.448068937509
30
0
11
1183.70723462441
21
411.735256016407
31
0
0
LINE
8
layer0
10
1183.70723462441
20
411.735256016407
30
0
11
1110.53027499325
21
432.859624687172
31
0
0
LINE
8
layer0
10
1110.53027499325
20
432.859624687172
30
0
11
1110.53027499325
21
460.572437608274
31
0
0
LINE
8
layer0
10
1110.53027499325
20
460.572437608274
30
0
11
1183.70723462441
21
439.448068937509
31
0
0
LINE
8
layer0
10
254.256258422041
20
333.63448015713
30
0
11
1858.13530623082
21
-129.36551984287
31
0
0
LINE
8
layer0
10
1858.13530623082
20
-129.36551984287
30
0
11
1858.13530623082
21
-101.652706921768
31
0
0
LINE
8
layer0
10
1858.13530623082
20
-101.652706921768
30
0
11
254.256258422041
21
361.347293078232
31
0
0
LINE
8
layer0
10
254.256258422041
20
361.347293078232
30
0
11
254.256258422041
21
333.63448015713
31
0
0
LINE
8
layer0
10
554.256258422041
20
593.442101292462
30
0
11
480.756258422041
21
529.789234114305
31
0
0
LINE
8
layer0
10
480.756258422041
20
529.789234114305
30
0
11
480.756258422041
21
557.502047035407
31
0
0
LINE
8
layer0
10
480.756258422041
20
557.502047035407
30
0
11
554.256258422041
21
621.154914213564
31
0
0
LINE
8
layer0
10
554.256258422041
20
621.154914213564
30
0
11
554.256258422041
21
593.442101292462
31
0
0
LINE
8
layer0
10
304.256258422041
20
404.648563267454
30
0
11
304.256258422041
21
376.935750346352
31
0
0
LINE
8
layer0
10
304.256258422041
20
376.935750346352
30
0
11
254.256258422041
21
333.63448015713
31
0
0
LINE
8
layer0
10
254.256258422041
20
333.63448015713
30
0
11
254.256258422041
21
361.347293078232
31
0
0
LINE
8
layer0
10
254.256258422041
20
361.347293078232
30
0
11
304.256258422041
21
404.648563267454
31
0
0
LINE
8
layer0
10
480.756258422041
20
557.502047035407
30
0
11
480.756258422041
21
529.789234114305
31
0
0
LINE
8
layer0
10
480.756258422041
20
529.789234114305
30
0
11
304.256258422041
21
376.935750346352
31
0
0
LINE
8
layer0
10
304.256258422041
20
376.935750346352
30
0
11
304.256258422041
21
404.648563267454
31
0
0
LINE
8
layer0
10
304.256258422041
20
404.648563267454
30
0
11
480.756258422041
21
557.502047035407
31
0
0
LINE
8
layer0
10
2084.63530623082
20
94.5020470354075
30
0
11
2084.63530623082
21
66.7892341143055
31
0
0
LINE
8
layer0
10
2084.63530623082
20
66.7892341143055
30
0
11
2158.13530623082
21
130.442101292462
31
0
0
LINE
8
layer0
10
2158.13530623082
20
130.442101292462
30
0
11
2158.13530623082
21
158.154914213564
31
0
0
LINE
8
layer0
10
2158.13530623082
20
158.154914213564
30
0
11
2084.63530623082
21
94.5020470354075
31
0
0
LINE
8
layer0
10
1858.13530623082
20
-129.36551984287
30
0
11
1908.13530623082
21
-86.0642496536479
31
0
0
LINE
8
layer0
10
1908.13530623082
20
-86.0642496536479
30
0
11
1908.13530623082
21
-58.3514367325459
31
0
0
LINE
8
layer0
10
1908.13530623082
20
-58.3514367325459
30
0
11
1858.13530623082
21
-101.652706921768
31
0
0
LINE
8
layer0
10
1858.13530623082
20
-101.652706921768
30
0
11
1858.13530623082
21
-129.36551984287
31
0
0
LINE
8
layer0
10
1908.13530623082
20
-58.3514367325459
30
0
11
1908.13530623082
21
-86.0642496536479
31
0
0
LINE
8
layer0
10
1908.13530623082
20
-86.0642496536479
30
0
11
2084.63530623082
21
66.7892341143055
31
0
0
LINE
8
layer0
10
2084.63530623082
20
66.7892341143055
30
0
11
2084.63530623082
21
94.5020470354075
31
0
0
LINE
8
layer0
10
2084.63530623082
20
94.5020470354075
30
0
11
1908.13530623082
21
-58.3514367325459
31
0
0
LINE
8
layer0
10
1417.55046507529
20
259.360040421039
30
0
11
1183.70723462441
21
411.735256016407
31
0
0
LINE
8
layer0
10
1183.70723462441
20
411.735256016407
30
0
11
2158.13530623082
21
130.442101292462
31
0
0
LINE
8
layer0
10
2158.13530623082
20
130.442101292462
30
0
11
2084.63530623082
21
66.7892341143055
31
0
0
LINE
8
layer0
10
2084.63530623082
20
66.7892341143055
30
0
11
1417.55046507529
21
259.360040421039
31
0
0
LINE
8
layer0
10
1314.71104187019
20
289.047224756422
30
0
11
1323.09948428649
21
320.905497747887
31
0
0
LINE
8
layer0
10
1323.09948428649
20
320.905497747887
30
0
11
1417.55046507529
21
259.360040421039
31
0
0
LINE
8
layer0
10
1417.55046507529
20
259.360040421039
30
0
11
1314.71104187019
21
289.047224756422
31
0
0
LINE
8
layer0
10
1280.99141191512
20
298.781243472189
30
0
11
1321.35122689266
21
314.26583110324
31
0
0
LINE
8
layer0
10
1321.35122689266
20
314.26583110324
30
0
11
1314.71104187019
21
289.047224756422
31
0
0
LINE
8
layer0
10
1314.71104187019
20
289.047224756422
30
0
11
1280.99141191512
21
298.781243472189
31
0
0
LINE
8
layer0
10
1221.01805920874
20
316.094059136807
30
0
11
1310.72511561573
21
310.18898012321
31
0
0
LINE
8
layer0
10
1310.72511561573
20
310.18898012321
30
0
11
1280.99141191512
21
298.781243472189
31
0
0
LINE
8
layer0
10
1280.99141191512
20
298.781243472189
30
0
11
1221.01805920874
21
316.094059136807
31
0
0
LINE
8
layer0
10
554.256258422041
20
593.442101292462
30
0
11
1110.53027499325
21
432.859624687172
31
0
0
LINE
8
layer0
10
1110.53027499325
20
432.859624687172
30
0
11
1297.44578232643
21
311.063108820126
31
0
0
LINE
8
layer0
10
1297.44578232643
20
311.063108820126
30
0
11
1221.01805920874
21
316.094059136807
31
0
0
LINE
8
layer0
10
1221.01805920874
20
316.094059136807
30
0
11
480.756258422041
21
529.789234114305
31
0
0
LINE
8
layer0
10
480.756258422041
20
529.789234114305
30
0
11
554.256258422041
21
593.442101292462
31
0
0
LINE
8
layer0
10
1295.26100447091
20
339.045404366383
30
0
11
1289.29208036637
21
316.376164458593
31
0
0
LINE
8
layer0
10
1289.29208036637
20
316.376164458593
30
0
11
1110.53027499325
21
432.859624687172
31
0
0
LINE
8
layer0
10
1110.53027499325
20
432.859624687172
30
0
11
1183.70723462441
21
411.735256016407
31
0
0
LINE
8
layer0
10
1183.70723462441
20
411.735256016407
30
0
11
1295.26100447091
21
339.045404366383
31
0
0
LINE
8
layer0
10
1309.1802443787
20
329.975451057135
30
0
11
1291.0403377602
21
323.01583110324
31
0
0
LINE
8
layer0
10
1291.0403377602
20
323.01583110324
30
0
11
1295.26100447091
21
339.045404366383
31
0
0
LINE
8
layer0
10
1295.26100447091
20
339.045404366383
30
0
11
1309.1802443787
21
329.975451057135
31
0
0
LINE
8
layer0
10
1314.94578232643
20
326.218553386354
30
0
11
1301.66644903714
21
327.092682083269
31
0
0
LINE
8
layer0
10
1301.66644903714
20
327.092682083269
30
0
11
1309.1802443787
21
329.975451057135
31
0
0
LINE
8
layer0
10
1309.1802443787
20
329.975451057135
30
0
11
1314.94578232643
21
326.218553386354
31
0
0
LINE
8
layer0
10
304.256258422041
20
376.935750346352
30
0
11
1908.13530623082
21
-86.0642496536479
31
0
0
LINE
8
layer0
10
1908.13530623082
20
-86.0642496536479
30
0
11
1858.13530623082
21
-129.36551984287
31
0
0
LINE
8
layer0
10
1858.13530623082
20
-129.36551984287
30
0
11
254.256258422041
21
333.63448015713
31
0
0
LINE
8
layer0
10
254.256258422041
20
333.63448015713
30
0
11
304.256258422041
21
376.935750346352
31
0
0
LINE
8
layer0
10
480.756258422041
20
529.789234114305
30
0
11
1107.75865076197
21
348.789234114305
31
0
0
LINE
8
layer0
10
1107.75865076197
20
348.789234114305
30
0
11
931.258650761974
21
195.935750346352
31
0
0
LINE
8
layer0
10
931.258650761974
20
195.935750346352
30
0
11
304.256258422041
21
376.935750346352
31
0
0
LINE
8
layer0
10
304.256258422041
20
376.935750346352
30
0
11
480.756258422041
21
529.789234114305
31
0
0
LINE
8
layer0
10
1281.99893929467
20
94.6857503463521
30
0
11
1458.49893929467
21
247.539234114305
31
0
0
LINE
8
layer0
10
1458.49893929467
20
247.539234114305
30
0
11
2084.63530623082
21
66.7892341143055
31
0
0
LINE
8
layer0
10
2084.63530623082
20
66.7892341143055
30
0
11
1908.13530623082
21
-86.0642496536479
31
0
0
LINE
8
layer0
10
1908.13530623082
20
-86.0642496536479
30
0
11
1281.99893929467
21
94.6857503463521
31
0
0
LINE
8
layer0
10
1314.94578232643
20
326.218553386354
30
0
11
1323.09948428649
21
320.905497747887
31
0
0
LINE
8
layer0
10
1323.09948428649
20
320.905497747887
30
0
11
1323.09948428649
21
348.618310668989
31
0
0
LINE
8
layer0
10
1323.09948428649
20
348.618310668989
30
0
11
1314.94578232643
21
353.931366307456
31
0
0
LINE
8
layer0
10
1314.94578232643
20
353.931366307456
30
0
11
1314.94578232643
21
326.218553386354
31
0
0
LINE
8
layer0
10
1323.09948428649
20
320.905497747887
30
0
11
1321.35122689266
21
314.26583110324
31
0
0
LINE
8
layer0
10
1321.35122689266
20
314.26583110324
30
0
11
1321.35122689266
21
341.978644024342
31
0
0
LINE
8
layer0
10
1321.35122689266
20
341.978644024342
30
0
11
1323.09948428649
21
348.618310668989
31
0
0
LINE
8
layer0
10
1323.09948428649
20
348.618310668989
30
0
11
1323.09948428649
21
320.905497747887
31
0
0
LINE
8
layer0
10
1321.35122689266
20
314.26583110324
30
0
11
1310.72511561573
21
310.18898012321
31
0
0
LINE
8
layer0
10
1310.72511561573
20
310.18898012321
30
0
11
1310.72511561573
21
337.901793044312
31
0
0
LINE
8
layer0
10
1310.72511561573
20
337.901793044312
30
0
11
1321.35122689266
21
341.978644024342
31
0
0
LINE
8
layer0
10
1321.35122689266
20
341.978644024342
30
0
11
1321.35122689266
21
314.26583110324
31
0
0
LINE
8
layer0
10
1310.72511561573
20
310.18898012321
30
0
11
1297.44578232643
21
311.063108820126
31
0
0
LINE
8
layer0
10
1297.44578232643
20
311.063108820126
30
0
11
1297.44578232643
21
338.775921741228
31
0
0
LINE
8
layer0
10
1297.44578232643
20
338.775921741228
30
0
11
1310.72511561573
21
337.901793044312
31
0
0
LINE
8
layer0
10
1310.72511561573
20
337.901793044312
30
0
11
1310.72511561573
21
310.18898012321
31
0
0
LINE
8
layer0
10
1301.66644903714
20
327.092682083269
30
0
11
1314.94578232643
21
326.218553386354
31
0
0
LINE
8
layer0
10
1314.94578232643
20
326.218553386354
30
0
11
1314.94578232643
21
353.931366307456
31
0
0
LINE
8
layer0
10
1314.94578232643
20
353.931366307456
30
0
11
1301.66644903714
21
354.805495004371
31
0
0
LINE
8
layer0
10
1301.66644903714
20
354.805495004371
30
0
11
1301.66644903714
21
327.092682083269
31
0
0
LINE
8
layer0
10
1291.0403377602
20
323.01583110324
30
0
11
1301.66644903714
21
327.092682083269
31
0
0
LINE
8
layer0
10
1301.66644903714
20
327.092682083269
30
0
11
1301.66644903714
21
354.805495004371
31
0
0
LINE
8
layer0
10
1301.66644903714
20
354.805495004371
30
0
11
1291.0403377602
21
350.728644024342
31
0
0
LINE
8
layer0
10
1291.0403377602
20
350.728644024342
30
0
11
1291.0403377602
21
323.01583110324
31
0
0
LINE
8
layer0
10
1289.29208036637
20
316.376164458593
30
0
11
1291.0403377602
21
323.01583110324
31
0
0
LINE
8
layer0
10
1291.0403377602
20
323.01583110324
30
0
11
1291.0403377602
21
350.728644024342
31
0
0
LINE
8
layer0
10
1291.0403377602
20
350.728644024342
30
0
11
1289.29208036637
21
344.088977379695
31
0
0
LINE
8
layer0
10
1289.29208036637
20
344.088977379695
30
0
11
1289.29208036637
21
316.376164458593
31
0
0
LINE
8
layer0
10
1297.44578232643
20
311.063108820126
30
0
11
1289.29208036637
21
316.376164458593
31
0
0
LINE
8
layer0
10
1289.29208036637
20
316.376164458593
30
0
11
1289.29208036637
21
344.088977379695
31
0
0
LINE
8
layer0
10
1289.29208036637
20
344.088977379695
30
0
11
1297.44578232643
21
338.775921741228
31
0
0
LINE
8
layer0
10
1297.44578232643
20
338.775921741228
30
0
11
1297.44578232643
21
311.063108820126
31
0
0
LINE
8
layer0
10
1417.55046507529
20
287.072853342141
30
0
11
1417.55046507529
21
259.360040421039
31
0
0
LINE
8
layer0
10
1417.55046507529
20
259.360040421039
30
0
11
1458.49893929467
21
247.539234114305
31
0
0
LINE
8
layer0
10
1458.49893929467
20
247.539234114305
30
0
11
1458.49893929467
21
275.252047035407
31
0
0
LINE
8
layer0
10
1458.49893929467
20
275.252047035407
30
0
11
1417.55046507529
21
287.072853342141
31
0
0
LINE
8
layer0
10
1314.71104187019
20
316.760037677524
30
0
11
1314.71104187019
21
289.047224756422
31
0
0
LINE
8
layer0
10
1314.71104187019
20
289.047224756422
30
0
11
1417.55046507529
21
259.360040421039
31
0
0
LINE
8
layer0
10
1417.55046507529
20
259.360040421039
30
0
11
1417.55046507529
21
287.072853342141
31
0
0
LINE
8
layer0
10
1417.55046507529
20
287.072853342141
30
0
11
1314.71104187019
21
316.760037677524
31
0
0
LINE
8
layer0
10
1280.99141191512
20
326.494056393291
30
0
11
1280.99141191512
21
298.781243472189
31
0
0
LINE
8
layer0
10
1280.99141191512
20
298.781243472189
30
0
11
1314.71104187019
21
289.047224756422
31
0
0
LINE
8
layer0
10
1314.71104187019
20
289.047224756422
30
0
11
1314.71104187019
21
316.760037677524
31
0
0
LINE
8
layer0
10
1314.71104187019
20
316.760037677524
30
0
11
1280.99141191512
21
326.494056393291
31
0
0
LINE
8
layer0
10
1221.01805920874
20
343.806872057909
30
0
11
1221.01805920874
21
316.094059136807
31
0
0
LINE
8
layer0
10
1221.01805920874
20
316.094059136807
30
0
11
1280.99141191512
21
298.781243472189
31
0
0
LINE
8
layer0
10
1280.99141191512
20
298.781243472189
30
0
11
1280.99141191512
21
326.494056393291
31
0
0
LINE
8
layer0
10
1280.99141191512
20
326.494056393291
30
0
11
1221.01805920874
21
343.806872057909
31
0
0
LINE
8
layer0
10
1107.75865076197
20
348.789234114305
30
0
11
1221.01805920874
21
316.094059136807
31
0
0
LINE
8
layer0
10
1221.01805920874
20
316.094059136807
30
0
11
1221.01805920874
21
343.806872057909
31
0
0
LINE
8
layer0
10
1221.01805920874
20
343.806872057909
30
0
11
1107.75865076197
21
376.502047035407
31
0
0
LINE
8
layer0
10
1107.75865076197
20
376.502047035407
30
0
11
1107.75865076197
21
348.789234114305
31
0
0
LINE
8
layer0
10
1281.99893929467
20
94.6857503463521
30
0
11
931.258650761974
21
195.935750346352
31
0
0
LINE
8
layer0
10
931.258650761974
20
195.935750346352
30
0
11
931.258650761974
21
223.648563267454
31
0
0
LINE
8
layer0
10
931.258650761974
20
223.648563267454
30
0
11
1281.99893929467
21
122.398563267454
31
0
0
LINE
8
layer0
10
1281.99893929467
20
122.398563267454
30
0
11
1281.99893929467
21
94.6857503463521
31
0
0
LINE
8
layer0
10
1458.49893929467
20
247.539234114305
30
0
11
1281.99893929467
21
94.6857503463521
31
0
0
LINE
8
layer0
10
1281.99893929467
20
94.6857503463521
30
0
11
1281.99893929467
21
122.398563267454
31
0
0
LINE
8
layer0
10
1281.99893929467
20
122.398563267454
30
0
11
1458.49893929467
21
275.252047035407
31
0
0
LINE
8
layer0
10
1458.49893929467
20
275.252047035407
30
0
11
1458.49893929467
21
247.539234114305
31
0
0
LINE
8
layer0
10
931.258650761974
20
195.935750346352
30
0
11
1107.75865076197
21
348.789234114305
31
0
0
LINE
8
layer0
10
1107.75865076197
20
348.789234114305
30
0
11
1107.75865076197
21
376.502047035407
31
0
0
LINE
8
layer0
10
1107.75865076197
20
376.502047035407
30
0
11
931.258650761974
21
223.648563267454
31
0
0
LINE
8
layer0
10
931.258650761974
20
223.648563267454
30
0
11
931.258650761974
21
195.935750346352
31
0
0
LINE
8
layer0
10
2158.13530623082
20
158.154914213564
30
0
11
1183.70723462441
21
439.448068937509
31
0
0
LINE
8
layer0
10
1183.70723462441
20
439.448068937509
30
0
11
1417.55046507529
21
287.072853342141
31
0
0
LINE
8
layer0
10
1417.55046507529
20
287.072853342141
30
0
11
2084.63530623082
21
94.5020470354075
31
0
0
LINE
8
layer0
10
2084.63530623082
20
94.5020470354075
30
0
11
2158.13530623082
21
158.154914213564
31
0
0
LINE
8
layer0
10
1417.55046507529
20
287.072853342141
30
0
11
1323.09948428649
21
348.618310668989
31
0
0
LINE
8
layer0
10
1323.09948428649
20
348.618310668989
30
0
11
1314.71104187019
21
316.760037677524
31
0
0
LINE
8
layer0
10
1314.71104187019
20
316.760037677524
30
0
11
1417.55046507529
21
287.072853342141
31
0
0
LINE
8
layer0
10
1314.71104187019
20
316.760037677524
30
0
11
1321.35122689266
21
341.978644024342
31
0
0
LINE
8
layer0
10
1321.35122689266
20
341.978644024342
30
0
11
1280.99141191512
21
326.494056393291
31
0
0
LINE
8
layer0
10
1280.99141191512
20
326.494056393291
30
0
11
1314.71104187019
21
316.760037677524
31
0
0
LINE
8
layer0
10
1280.99141191512
20
326.494056393291
30
0
11
1310.72511561573
21
337.901793044312
31
0
0
LINE
8
layer0
10
1310.72511561573
20
337.901793044312
30
0
11
1221.01805920874
21
343.806872057909
31
0
0
LINE
8
layer0
10
1221.01805920874
20
343.806872057909
30
0
11
1280.99141191512
21
326.494056393291
31
0
0
LINE
8
layer0
10
1221.01805920874
20
343.806872057909
30
0
11
1297.44578232643
21
338.775921741228
31
0
0
LINE
8
layer0
10
1297.44578232643
20
338.775921741228
30
0
11
1110.53027499325
21
460.572437608274
31
0
0
LINE
8
layer0
10
1110.53027499325
20
460.572437608274
30
0
11
554.256258422041
21
621.154914213564
31
0
0
LINE
8
layer0
10
554.256258422041
20
621.154914213564
30
0
11
480.756258422041
21
557.502047035407
31
0
0
LINE
8
layer0
10
480.756258422041
20
557.502047035407
30
0
11
1221.01805920874
21
343.806872057909
31
0
0
LINE
8
layer0
10
1110.53027499325
20
460.572437608274
30
0
11
1289.29208036637
21
344.088977379695
31
0
0
LINE
8
layer0
10
1289.29208036637
20
344.088977379695
30
0
11
1295.26100447091
21
366.758217287485
31
0
0
LINE
8
layer0
10
1295.26100447091
20
366.758217287485
30
0
11
1183.70723462441
21
439.448068937509
31
0
0
LINE
8
layer0
10
1183.70723462441
20
439.448068937509
30
0
11
1110.53027499325
21
460.572437608274
31
0
0
LINE
8
layer0
10
1295.26100447091
20
366.758217287485
30
0
11
1291.0403377602
21
350.728644024342
31
0
0
LINE
8
layer0
10
1291.0403377602
20
350.728644024342
30
0
11
1309.1802443787
21
357.688263978237
31
0
0
LINE
8
layer0
10
1309.1802443787
20
357.688263978237
30
0
11
1295.26100447091
21
366.758217287485
31
0
0
LINE
8
layer0
10
1309.1802443787
20
357.688263978237
30
0
11
1301.66644903714
21
354.805495004371
31
0
0
LINE
8
layer0
10
1301.66644903714
20
354.805495004371
30
0
11
1314.94578232643
21
353.931366307456
31
0
0
LINE
8
layer0
10
1314.94578232643
20
353.931366307456
30
0
11
1309.1802443787
21
357.688263978237
31
0
0
LINE
8
layer0
10
1908.13530623082
20
-58.3514367325459
30
0
11
304.256258422041
21
404.648563267454
31
0
0
LINE
8
layer0
10
304.256258422041
20
404.648563267454
30
0
11
254.256258422041
21
361.347293078232
31
0
0
LINE
8
layer0
10
254.256258422041
20
361.347293078232
30
0
11
1858.13530623082
21
-101.652706921768
31
0
0
LINE
8
layer0
10
1858.13530623082
20
-101.652706921768
30
0
11
1908.13530623082
21
-58.3514367325459
31
0
0
LINE
8
layer0
10
931.258650761974
20
223.648563267454
30
0
11
1107.75865076197
21
376.502047035407
31
0
0
LINE
8
layer0
10
1107.75865076197
20
376.502047035407
30
0
11
480.756258422041
21
557.502047035407
31
0
0
LINE
8
layer0
10
480.756258422041
20
557.502047035407
30
0
11
304.256258422041
21
404.648563267454
31
0
0
LINE
8
layer0
10
304.256258422041
20
404.648563267454
30
0
11
931.258650761974
21
223.648563267454
31
0
0
LINE
8
layer0
10
2084.63530623082
20
94.5020470354075
30
0
11
1458.49893929467
21
275.252047035407
31
0
0
LINE
8
layer0
10
1458.49893929467
20
275.252047035407
30
0
11
1281.99893929467
21
122.398563267454
31
0
0
LINE
8
layer0
10
1281.99893929467
20
122.398563267454
30
0
11
1908.13530623082
21
-58.3514367325459
31
0
0
LINE
8
layer0
10
1908.13530623082
20
-58.3514367325459
30
0
11
2084.63530623082
21
94.5020470354075
31
0
0
ENDBLK
0
BLOCK
8
layer0
2
PF_OBJECT39
70
0
10
0
20
0
30
0
0
LINE
8
layer0
10
1125.98589209793
20
382.787301073252
30
0
11
1459.40567255494
21
286.537301073252
31
0
0
LINE
8
layer0
10
1459.40567255494
20
286.537301073252
30
0
11
1466.70001731926
21
283.583879111868
31
0
0
LINE
8
layer0
10
1466.70001731926
20
283.583879111868
30
0
11
1471.81203628421
21
279.647969662622
31
0
0
LINE
8
layer0
10
1471.81203628421
20
279.647969662622
30
0
11
1474.24132941598
21
275.1148469655
31
0
0
LINE
8
layer0
10
1474.24132941598
20
275.1148469655
30
0
11
1473.75010057695
21
270.428244654219
31
0
0
LINE
8
layer0
10
1473.75010057695
20
270.428244654219
30
0
11
1470.38643466847
21
266.046920016485
31
0
0
LINE
8
layer0
10
1470.38643466847
20
266.046920016485
30
0
11
1470.38643466847
21
266.046920016485
31
0
0
LINE
8
layer0
10
1470.38643466847
20
266.046920016485
30
0
11
1085.00512998439
21
377.296920016485
31
0
0
LINE
8
layer0
10
1085.00512998439
20
377.296920016485
30
0
11
1090.91197390716
21
380.944092398646
31
0
0
LINE
8
layer0
10
1090.91197390716
20
380.944092398646
30
0
11
1098.78379280565
21
383.500101881124
31
0
0
LINE
8
layer0
10
1098.78379280565
20
383.500101881124
30
0
11
1107.8500381999
21
384.714748447009
31
0
0
LINE
8
layer0
10
1107.8500381999
20
384.714748447009
30
0
11
1117.22324282246
21
384.469134027492
31
0
0
LINE
8
layer0
10
1117.22324282246
20
384.469134027492
30
0
11
1125.98589209793
21
382.787301073252
31
0
0
LINE
8
layer0
10
1085.00512998439
20
377.296920016485
30
0
11
1136.96665421146
21
362.296920016485
31
0
0
LINE
8
layer0
10
1136.96665421146
20
362.296920016485
30
0
11
1080.25359677466
21
373.181971549928
31
0
0
LINE
8
layer0
10
1080.25359677466
20
373.181971549928
30
0
11
1085.00512998439
21
377.296920016485
31
0
0
LINE
8
layer0
10
1085.00512998439
20
377.296920016485
30
0
11
1085.00512998439
21
377.296920016485
31
0
0
LINE
8
layer0
10
1080.25359677466
20
373.181971549928
30
0
11
1128.20400493599
21
363.978752970726
31
0
0
LINE
8
layer0
10
1128.20400493599
20
363.978752970726
30
0
11
1071.34699458839
21
365.468627795221
31
0
0
LINE
8
layer0
10
1071.34699458839
20
365.468627795221
30
0
11
1080.25359677466
21
373.181971549928
31
0
0
LINE
8
layer0
10
1071.34699458839
20
365.468627795221
30
0
11
1118.83080031343
21
364.224367390243
31
0
0
LINE
8
layer0
10
1118.83080031343
20
364.224367390243
30
0
11
1060.9571636844
21
356.470770291343
31
0
0
LINE
8
layer0
10
1060.9571636844
20
356.470770291343
30
0
11
1071.34699458839
21
365.468627795221
31
0
0
LINE
8
layer0
10
1060.9571636844
20
356.470770291343
30
0
11
1109.76455491919
21
363.009720824358
31
0
0
LINE
8
layer0
10
1109.76455491919
20
363.009720824358
30
0
11
1043.76037238801
21
341.577912165089
31
0
0
LINE
8
layer0
10
1043.76037238801
20
341.577912165089
30
0
11
1060.9571636844
21
356.470770291343
31
0
0
LINE
8
layer0
10
1043.76037238801
20
341.577912165089
30
0
11
1101.89273602069
21
360.45371134188
31
0
0
LINE
8
layer0
10
1101.89273602069
20
360.45371134188
30
0
11
975.298857264268
21
282.288500886353
31
0
0
LINE
8
layer0
10
975.298857264268
20
282.288500886353
30
0
11
1043.76037238801
21
341.577912165089
31
0
0
LINE
8
layer0
10
975.298857264268
20
282.288500886353
30
0
11
1095.98589209793
21
356.806538959719
31
0
0
LINE
8
layer0
10
1095.98589209793
20
356.806538959719
30
0
11
929.485892097927
21
212.61330922961
31
0
0
LINE
8
layer0
10
929.485892097927
20
212.61330922961
30
0
11
922.191547333605
21
215.566731190993
31
0
0
LINE
8
layer0
10
922.191547333605
20
215.566731190993
30
0
11
917.079528368649
21
219.502640640239
31
0
0
LINE
8
layer0
10
917.079528368649
20
219.502640640239
30
0
11
914.650235236878
21
224.035763337361
31
0
0
LINE
8
layer0
10
914.650235236878
20
224.035763337361
30
0
11
915.141464075912
21
228.722365648643
31
0
0
LINE
8
layer0
10
915.141464075912
20
228.722365648643
30
0
11
918.505129984393
21
233.103690286376
31
0
0
LINE
8
layer0
10
918.505129984393
20
233.103690286376
30
0
11
975.298857264268
21
282.288500886353
31
0
0
LINE
8
layer0
10
929.485892097927
20
212.61330922961
30
0
11
959.485892097927
21
238.594071343143
31
0
0
LINE
8
layer0
10
959.485892097927
20
238.594071343143
30
0
11
937.71578903104
21
210.237542624742
31
0
0
LINE
8
layer0
10
937.71578903104
20
210.237542624742
30
0
11
929.485892097927
21
212.61330922961
31
0
0
LINE
8
layer0
10
929.485892097927
20
212.61330922961
30
0
11
929.485892097927
21
212.61330922961
31
0
0
LINE
8
layer0
10
937.71578903104
20
210.237542624742
30
0
11
956.122226189446
21
234.212746705409
31
0
0
LINE
8
layer0
10
956.122226189446
20
234.212746705409
30
0
11
953.142476540455
21
205.784241531609
31
0
0
LINE
8
layer0
10
953.142476540455
20
205.784241531609
30
0
11
937.71578903104
21
210.237542624742
31
0
0
LINE
8
layer0
10
953.142476540455
20
205.784241531609
30
0
11
955.630997350411
21
229.526144394128
31
0
0
LINE
8
layer0
10
955.630997350411
20
229.526144394128
30
0
11
971.138191548211
21
200.589326079615
31
0
0
LINE
8
layer0
10
971.138191548211
20
200.589326079615
30
0
11
953.142476540455
21
205.784241531609
31
0
0
LINE
8
layer0
10
971.138191548211
20
200.589326079615
30
0
11
958.060290482182
21
224.993021697006
31
0
0
LINE
8
layer0
10
958.060290482182
20
224.993021697006
30
0
11
1000.92390780072
21
191.990930431419
31
0
0
LINE
8
layer0
10
1000.92390780072
20
191.990930431419
30
0
11
971.138191548211
21
200.589326079615
31
0
0
LINE
8
layer0
10
1000.92390780072
20
191.990930431419
30
0
11
963.172309447138
21
221.05711224776
31
0
0
LINE
8
layer0
10
963.172309447138
20
221.05711224776
30
0
11
1119.50273035819
21
157.760172869547
31
0
0
LINE
8
layer0
10
1119.50273035819
20
157.760172869547
30
0
11
1000.92390780072
21
191.990930431419
31
0
0
LINE
8
layer0
10
1119.50273035819
20
157.760172869547
30
0
11
970.46665421146
21
218.103690286376
31
0
0
LINE
8
layer0
10
970.46665421146
20
218.103690286376
30
0
11
1303.88643466847
21
121.853690286376
31
0
0
LINE
8
layer0
10
1303.88643466847
20
121.853690286376
30
0
11
1297.9795907457
21
118.206517904215
31
0
0
LINE
8
layer0
10
1297.9795907457
20
118.206517904215
30
0
11
1290.10777184721
21
115.650508421737
31
0
0
LINE
8
layer0
10
1290.10777184721
20
115.650508421737
30
0
11
1281.04152645297
21
114.435861855852
31
0
0
LINE
8
layer0
10
1281.04152645297
20
114.435861855852
30
0
11
1271.6683218304
21
114.681476275369
31
0
0
LINE
8
layer0
10
1271.6683218304
20
114.681476275369
30
0
11
1262.90567255494
21
116.36330922961
31
0
0
LINE
8
layer0
10
1262.90567255494
20
116.36330922961
30
0
11
1119.50273035819
21
157.760172869547
31
0
0
LINE
8
layer0
10
1303.88643466847
20
121.853690286376
30
0
11
1251.9249104414
21
136.853690286376
31
0
0
LINE
8
layer0
10
1251.9249104414
20
136.853690286376
30
0
11
1308.6379678782
21
125.968638752933
31
0
0
LINE
8
layer0
10
1308.6379678782
20
125.968638752933
30
0
11
1303.88643466847
21
121.853690286376
31
0
0
LINE
8
layer0
10
1303.88643466847
20
121.853690286376
30
0
11
1303.88643466847
21
121.853690286376
31
0
0
LINE
8
layer0
10
1308.6379678782
20
125.968638752933
30
0
11
1260.68755971687
21
135.171857332136
31
0
0
LINE
8
layer0
10
1260.68755971687
20
135.171857332136
30
0
11
1317.54457006447
21
133.68198250764
31
0
0
LINE
8
layer0
10
1317.54457006447
20
133.68198250764
30
0
11
1308.6379678782
21
125.968638752933
31
0
0
LINE
8
layer0
10
1317.54457006447
20
133.68198250764
30
0
11
1270.06076433943
21
134.926242912619
31
0
0
LINE
8
layer0
10
1270.06076433943
20
134.926242912619
30
0
11
1327.93440096846
21
142.679840011519
31
0
0
LINE
8
layer0
10
1327.93440096846
20
142.679840011519
30
0
11
1317.54457006447
21
133.68198250764
31
0
0
LINE
8
layer0
10
1327.93440096846
20
142.679840011519
30
0
11
1279.12700973368
21
136.140889478504
31
0
0
LINE
8
layer0
10
1279.12700973368
20
136.140889478504
30
0
11
1345.13119226485
21
157.572698137773
31
0
0
LINE
8
layer0
10
1345.13119226485
20
157.572698137773
30
0
11
1327.93440096846
21
142.679840011519
31
0
0
LINE
8
layer0
10
1345.13119226485
20
157.572698137773
30
0
11
1286.99882863217
21
138.696898960982
31
0
0
LINE
8
layer0
10
1286.99882863217
20
138.696898960982
30
0
11
1413.59270738859
21
216.862109416509
31
0
0
LINE
8
layer0
10
1413.59270738859
20
216.862109416509
30
0
11
1345.13119226485
21
157.572698137773
31
0
0
LINE
8
layer0
10
1413.59270738859
20
216.862109416509
30
0
11
1292.90567255494
21
142.344071343143
31
0
0
LINE
8
layer0
10
1292.90567255494
20
142.344071343143
30
0
11
1444.40567255494
21
273.546920016485
31
0
0
LINE
8
layer0
10
1444.40567255494
20
273.546920016485
30
0
11
1470.38643466847
21
266.046920016485
31
0
0
LINE
8
layer0
10
1470.38643466847
20
266.046920016485
30
0
11
1413.59270738859
21
216.862109416509
31
0
0
LINE
8
layer0
10
1444.40567255494
20
273.546920016485
30
0
11
1429.40567255494
21
260.556538959719
31
0
0
LINE
8
layer0
10
1429.40567255494
20
260.556538959719
30
0
11
1440.29072408838
21
274.734803318919
31
0
0
LINE
8
layer0
10
1440.29072408838
20
274.734803318919
30
0
11
1444.40567255494
21
273.546920016485
31
0
0
LINE
8
layer0
10
1440.29072408838
20
274.734803318919
30
0
11
1432.76933846342
21
264.937863597452
31
0
0
LINE
8
layer0
10
1432.76933846342
20
264.937863597452
30
0
11
1433.98694760651
21
276.554546843277
31
0
0
LINE
8
layer0
10
1433.98694760651
20
276.554546843277
30
0
11
1440.29072408838
21
274.734803318919
31
0
0
LINE
8
layer0
10
1433.98694760651
20
276.554546843277
30
0
11
1433.26056730245
21
269.624465908734
31
0
0
LINE
8
layer0
10
1433.26056730245
20
269.624465908734
30
0
11
1428.73413521818
21
278.07090316648
31
0
0
LINE
8
layer0
10
1428.73413521818
20
278.07090316648
30
0
11
1433.98694760651
21
276.554546843277
31
0
0
LINE
8
layer0
10
1428.73413521818
20
278.07090316648
30
0
11
1430.83127417068
21
274.157588605856
31
0
0
LINE
8
layer0
10
1430.83127417068
20
274.157588605856
30
0
11
1423.95777351719
21
279.449720023387
31
0
0
LINE
8
layer0
10
1423.95777351719
20
279.449720023387
30
0
11
1428.73413521818
21
278.07090316648
31
0
0
LINE
8
layer0
10
1423.95777351719
20
279.449720023387
30
0
11
1425.71925520572
21
278.093498055102
31
0
0
LINE
8
layer0
10
1425.71925520572
20
278.093498055102
30
0
11
1418.4249104414
21
281.046920016485
31
0
0
LINE
8
layer0
10
1418.4249104414
20
281.046920016485
30
0
11
1423.95777351719
21
279.449720023387
31
0
0
LINE
8
layer0
10
1459.40567255494
20
290.00140268839
30
0
11
1459.40567255494
21
286.537301073252
31
0
0
LINE
8
layer0
10
1459.40567255494
20
286.537301073252
30
0
11
1125.98589209793
21
382.787301073252
31
0
0
LINE
8
layer0
10
1125.98589209793
20
382.787301073252
30
0
11
1125.98589209793
21
386.25140268839
31
0
0
LINE
8
layer0
10
1125.98589209793
20
386.25140268839
30
0
11
1459.40567255494
21
290.00140268839
31
0
0
LINE
8
layer0
10
1125.98589209793
20
386.25140268839
30
0
11
1125.98589209793
21
382.787301073252
31
0
0
LINE
8
layer0
10
1125.98589209793
20
382.787301073252
30
0
11
1117.22324282246
21
384.469134027492
31
0
0
LINE
8
layer0
10
1117.22324282246
20
384.469134027492
30
0
11
1117.22324282246
21
387.93323564263
31
0
0
LINE
8
layer0
10
1117.22324282246
20
387.93323564263
30
0
11
1125.98589209793
21
386.25140268839
31
0
0
LINE
8
layer0
10
1117.22324282246
20
387.93323564263
30
0
11
1117.22324282246
21
384.469134027492
31
0
0
LINE
8
layer0
10
1117.22324282246
20
384.469134027492
30
0
11
1107.8500381999
21
384.714748447009
31
0
0
LINE
8
layer0
10
1107.8500381999
20
384.714748447009
30
0
11
1107.8500381999
21
388.178850062147
31
0
0
LINE
8
layer0
10
1107.8500381999
20
388.178850062147
30
0
11
1117.22324282246
21
387.93323564263
31
0
0
LINE
8
layer0
10
1107.8500381999
20
388.178850062147
30
0
11
1107.8500381999
21
384.714748447009
31
0
0
LINE
8
layer0
10
1107.8500381999
20
384.714748447009
30
0
11
1098.78379280565
21
383.500101881124
31
0
0
LINE
8
layer0
10
1098.78379280565
20
383.500101881124
30
0
11
1098.78379280565
21
386.964203496262
31
0
0
LINE
8
layer0
10
1098.78379280565
20
386.964203496262
30
0
11
1107.8500381999
21
388.178850062147
31
0
0
LINE
8
layer0
10
1098.78379280565
20
386.964203496262
30
0
11
1098.78379280565
21
383.500101881124
31
0
0
LINE
8
layer0
10
1098.78379280565
20
383.500101881124
30
0
11
1090.91197390716
21
380.944092398646
31
0
0
LINE
8
layer0
10
1090.91197390716
20
380.944092398646
30
0
11
1090.91197390716
21
384.408194013784
31
0
0
LINE
8
layer0
10
1090.91197390716
20
384.408194013784
30
0
11
1098.78379280565
21
386.964203496262
31
0
0
LINE
8
layer0
10
1090.91197390716
20
384.408194013784
30
0
11
1090.91197390716
21
380.944092398646
31
0
0
LINE
8
layer0
10
1090.91197390716
20
380.944092398646
30
0
11
1085.00512998439
21
377.296920016485
31
0
0
LINE
8
layer0
10
1085.00512998439
20
377.296920016485
30
0
11
1085.00512998439
21
380.761021631623
31
0
0
LINE
8
layer0
10
1085.00512998439
20
380.761021631623
30
0
11
1090.91197390716
21
384.408194013784
31
0
0
LINE
8
layer0
10
1085.00512998439
20
380.761021631623
30
0
11
1085.00512998439
21
377.296920016485
31
0
0
LINE
8
layer0
10
1085.00512998439
20
377.296920016485
30
0
11
1080.25359677466
21
373.181971549928
31
0
0
LINE
8
layer0
10
1080.25359677466
20
373.181971549928
30
0
11
1080.25359677466
21
376.646073165066
31
0
0
LINE
8
layer0
10
1080.25359677466
20
376.646073165066
30
0
11
1085.00512998439
21
380.761021631623
31
0
0
LINE
8
layer0
10
1080.25359677466
20
376.646073165066
30
0
11
1080.25359677466
21
373.181971549928
31
0
0
LINE
8
layer0
10
1080.25359677466
20
373.181971549928
30
0
11
1071.34699458839
21
365.468627795221
31
0
0
LINE
8
layer0
10
1071.34699458839
20
365.468627795221
30
0
11
1071.34699458839
21
368.932729410359
31
0
0
LINE
8
layer0
10
1071.34699458839
20
368.932729410359
30
0
11
1080.25359677466
21
376.646073165066
31
0
0
LINE
8
layer0
10
1071.34699458839
20
368.932729410359
30
0
11
1071.34699458839
21
365.468627795221
31
0
0
LINE
8
layer0
10
1071.34699458839
20
365.468627795221
30
0
11
1060.9571636844
21
356.470770291343
31
0
0
LINE
8
layer0
10
1060.9571636844
20
356.470770291343
30
0
11
1060.9571636844
21
359.934871906481
31
0
0
LINE
8
layer0
10
1060.9571636844
20
359.934871906481
30
0
11
1071.34699458839
21
368.932729410359
31
0
0
LINE
8
layer0
10
1060.9571636844
20
359.934871906481
30
0
11
1060.9571636844
21
356.470770291343
31
0
0
LINE
8
layer0
10
1060.9571636844
20
356.470770291343
30
0
11
1043.76037238801
21
341.577912165089
31
0
0
LINE
8
layer0
10
1043.76037238801
20
341.577912165089
30
0
11
1043.76037238801
21
345.042013780226
31
0
0
LINE
8
layer0
10
1043.76037238801
20
345.042013780226
30
0
11
1060.9571636844
21
359.934871906481
31
0
0
LINE
8
layer0
10
1043.76037238801
20
345.042013780226
30
0
11
1043.76037238801
21
341.577912165089
31
0
0
LINE
8
layer0
10
1043.76037238801
20
341.577912165089
30
0
11
975.298857264268
21
282.288500886353
31
0
0
LINE
8
layer0
10
975.298857264268
20
282.288500886353
30
0
11
975.298857264268
21
285.75260250149
31
0
0
LINE
8
layer0
10
975.298857264268
20
285.75260250149
30
0
11
1043.76037238801
21
345.042013780226
31
0
0
LINE
8
layer0
10
975.298857264268
20
285.75260250149
30
0
11
975.298857264268
21
282.288500886353
31
0
0
LINE
8
layer0
10
975.298857264268
20
282.288500886353
30
0
11
918.505129984393
21
233.103690286376
31
0
0
LINE
8
layer0
10
918.505129984393
20
233.103690286376
30
0
11
918.505129984393
21
236.567791901514
31
0
0
LINE
8
layer0
10
918.505129984393
20
236.567791901514
30
0
11
975.298857264268
21
285.75260250149
31
0
0
LINE
8
layer0
10
918.505129984393
20
236.567791901514
30
0
11
918.505129984393
21
233.103690286376
31
0
0
LINE
8
layer0
10
918.505129984393
20
233.103690286376
30
0
11
915.141464075912
21
228.722365648643
31
0
0
LINE
8
layer0
10
915.141464075912
20
228.722365648643
30
0
11
915.141464075912
21
232.18646726378
31
0
0
LINE
8
layer0
10
915.141464075912
20
232.18646726378
30
0
11
918.505129984393
21
236.567791901514
31
0
0
LINE
8
layer0
10
915.141464075912
20
232.18646726378
30
0
11
915.141464075912
21
228.722365648643
31
0
0
LINE
8
layer0
10
915.141464075912
20
228.722365648643
30
0
11
914.650235236878
21
224.035763337361
31
0
0
LINE
8
layer0
10
914.650235236878
20
224.035763337361
30
0
11
914.650235236878
21
227.499864952499
31
0
0
LINE
8
layer0
10
914.650235236878
20
227.499864952499
30
0
11
915.141464075912
21
232.18646726378
31
0
0
LINE
8
layer0
10
914.650235236878
20
227.499864952499
30
0
11
914.650235236878
21
224.035763337361
31
0
0
LINE
8
layer0
10
914.650235236878
20
224.035763337361
30
0
11
917.079528368649
21
219.502640640239
31
0
0
LINE
8
layer0
10
917.079528368649
20
219.502640640239
30
0
11
917.079528368649
21
222.966742255377
31
0
0
LINE
8
layer0
10
917.079528368649
20
222.966742255377
30
0
11
914.650235236878
21
227.499864952499
31
0
0
LINE
8
layer0
10
917.079528368649
20
222.966742255377
30
0
11
917.079528368649
21
219.502640640239
31
0
0
LINE
8
layer0
10
917.079528368649
20
219.502640640239
30
0
11
922.191547333605
21
215.566731190993
31
0
0
LINE
8
layer0
10
922.191547333605
20
215.566731190993
30
0
11
922.191547333605
21
219.030832806131
31
0
0
LINE
8
layer0
10
922.191547333605
20
219.030832806131
30
0
11
917.079528368649
21
222.966742255377
31
0
0
LINE
8
layer0
10
922.191547333605
20
219.030832806131
30
0
11
922.191547333605
21
215.566731190993
31
0
0
LINE
8
layer0
10
922.191547333605
20
215.566731190993
30
0
11
929.485892097927
21
212.61330922961
31
0
0
LINE
8
layer0
10
929.485892097927
20
212.61330922961
30
0
11
929.485892097927
21
216.077410844747
31
0
0
LINE
8
layer0
10
929.485892097927
20
216.077410844747
30
0
11
922.191547333605
21
219.030832806131
31
0
0
LINE
8
layer0
10
929.485892097927
20
216.077410844747
30
0
11
929.485892097927
21
212.61330922961
31
0
0
LINE
8
layer0
10
929.485892097927
20
212.61330922961
30
0
11
937.71578903104
21
210.237542624742
31
0
0
LINE
8
layer0
10
937.71578903104
20
210.237542624742
30
0
11
937.71578903104
21
213.701644239879
31
0
0
LINE
8
layer0
10
937.71578903104
20
213.701644239879
30
0
11
929.485892097927
21
216.077410844747
31
0
0
LINE
8
layer0
10
937.71578903104
20
213.701644239879
30
0
11
937.71578903104
21
210.237542624742
31
0
0
LINE
8
layer0
10
937.71578903104
20
210.237542624742
30
0
11
953.142476540455
21
205.784241531609
31
0
0
LINE
8
layer0
10
953.142476540455
20
205.784241531609
30
0
11
953.142476540455
21
209.248343146747
31
0
0
LINE
8
layer0
10
953.142476540455
20
209.248343146747
30
0
11
937.71578903104
21
213.701644239879
31
0
0
LINE
8
layer0
10
953.142476540455
20
209.248343146747
30
0
11
953.142476540455
21
205.784241531609
31
0
0
LINE
8
layer0
10
953.142476540455
20
205.784241531609
30
0
11
971.138191548211
21
200.589326079615
31
0
0
LINE
8
layer0
10
971.138191548211
20
200.589326079615
30
0
11
971.138191548211
21
204.053427694753
31
0
0
LINE
8
layer0
10
971.138191548211
20
204.053427694753
30
0
11
953.142476540455
21
209.248343146747
31
0
0
LINE
8
layer0
10
971.138191548211
20
204.053427694753
30
0
11
971.138191548211
21
200.589326079615
31
0
0
LINE
8
layer0
10
971.138191548211
20
200.589326079615
30
0
11
1000.92390780072
21
191.990930431419
31
0
0
LINE
8
layer0
10
1000.92390780072
20
191.990930431419
30
0
11
1000.92390780072
21
195.455032046557
31
0
0
LINE
8
layer0
10
1000.92390780072
20
195.455032046557
30
0
11
971.138191548211
21
204.053427694753
31
0
0
LINE
8
layer0
10
1000.92390780072
20
195.455032046557
30
0
11
1000.92390780072
21
191.990930431419
31
0
0
LINE
8
layer0
10
1000.92390780072
20
191.990930431419
30
0
11
1119.50273035819
21
157.760172869547
31
0
0
LINE
8
layer0
10
1119.50273035819
20
157.760172869547
30
0
11
1119.50273035819
21
161.224274484685
31
0
0
LINE
8
layer0
10
1119.50273035819
20
161.224274484685
30
0
11
1000.92390780072
21
195.455032046557
31
0
0
LINE
8
layer0
10
1119.50273035819
20
161.224274484685
30
0
11
1119.50273035819
21
157.760172869547
31
0
0
LINE
8
layer0
10
1119.50273035819
20
157.760172869547
30
0
11
1262.90567255494
21
116.36330922961
31
0
0
LINE
8
layer0
10
1262.90567255494
20
116.36330922961
30
0
11
1262.90567255494
21
119.827410844747
31
0
0
LINE
8
layer0
10
1262.90567255494
20
119.827410844747
30
0
11
1119.50273035819
21
161.224274484685
31
0
0
LINE
8
layer0
10
1262.90567255494
20
119.827410844747
30
0
11
1262.90567255494
21
116.36330922961
31
0
0
LINE
8
layer0
10
1262.90567255494
20
116.36330922961
30
0
11
1271.6683218304
21
114.681476275369
31
0
0
LINE
8
layer0
10
1271.6683218304
20
114.681476275369
30
0
11
1271.6683218304
21
118.145577890507
31
0
0
LINE
8
layer0
10
1271.6683218304
20
118.145577890507
30
0
11
1262.90567255494
21
119.827410844747
31
0
0
LINE
8
layer0
10
1271.6683218304
20
118.145577890507
30
0
11
1271.6683218304
21
114.681476275369
31
0
0
LINE
8
layer0
10
1271.6683218304
20
114.681476275369
30
0
11
1281.04152645297
21
114.435861855852
31
0
0
LINE
8
layer0
10
1281.04152645297
20
114.435861855852
30
0
11
1281.04152645297
21
117.89996347099
31
0
0
LINE
8
layer0
10
1281.04152645297
20
117.89996347099
30
0
11
1271.6683218304
21
118.145577890507
31
0
0
LINE
8
layer0
10
1281.04152645297
20
117.89996347099
30
0
11
1281.04152645297
21
114.435861855852
31
0
0
LINE
8
layer0
10
1281.04152645297
20
114.435861855852
30
0
11
1290.10777184721
21
115.650508421737
31
0
0
LINE
8
layer0
10
1290.10777184721
20
115.650508421737
30
0
11
1290.10777184721
21
119.114610036875
31
0
0
LINE
8
layer0
10
1290.10777184721
20
119.114610036875
30
0
11
1281.04152645297
21
117.89996347099
31
0
0
LINE
8
layer0
10
1290.10777184721
20
119.114610036875
30
0
11
1290.10777184721
21
115.650508421737
31
0
0
LINE
8
layer0
10
1290.10777184721
20
115.650508421737
30
0
11
1297.9795907457
21
118.206517904215
31
0
0
LINE
8
layer0
10
1297.9795907457
20
118.206517904215
30
0
11
1297.9795907457
21
121.670619519353
31
0
0
LINE
8
layer0
10
1297.9795907457
20
121.670619519353
30
0
11
1290.10777184721
21
119.114610036875
31
0
0
LINE
8
layer0
10
1297.9795907457
20
121.670619519353
30
0
11
1297.9795907457
21
118.206517904215
31
0
0
LINE
8
layer0
10
1297.9795907457
20
118.206517904215
30
0
11
1303.88643466847
21
121.853690286376
31
0
0
LINE
8
layer0
10
1303.88643466847
20
121.853690286376
30
0
11
1303.88643466847
21
125.317791901514
31
0
0
LINE
8
layer0
10
1303.88643466847
20
125.317791901514
30
0
11
1297.9795907457
21
121.670619519353
31
0
0
LINE
8
layer0
10
1303.88643466847
20
125.317791901514
30
0
11
1303.88643466847
21
121.853690286376
31
0
0
LINE
8
layer0
10
1303.88643466847
20
121.853690286376
30
0
11
1308.6379678782
21
125.968638752933
31
0
0
LINE
8
layer0
10
1308.6379678782
20
125.968638752933
30
0
11
1308.6379678782
21
129.432740368071
31
0
0
LINE
8
layer0
10
1308.6379678782
20
129.432740368071
30
0
11
1303.88643466847
21
125.317791901514
31
0
0
LINE
8
layer0
10
1308.6379678782
20
129.432740368071
30
0
11
1308.6379678782
21
125.968638752933
31
0
0
LINE
8
layer0
10
1308.6379678782
20
125.968638752933
30
0
11
1317.54457006447
21
133.68198250764
31
0
0
LINE
8
layer0
10
1317.54457006447
20
133.68198250764
30
0
11
1317.54457006447
21
137.146084122778
31
0
0
LINE
8
layer0
10
1317.54457006447
20
137.146084122778
30
0
11
1308.6379678782
21
129.432740368071
31
0
0
LINE
8
layer0
10
1317.54457006447
20
137.146084122778
30
0
11
1317.54457006447
21
133.68198250764
31
0
0
LINE
8
layer0
10
1317.54457006447
20
133.68198250764
30
0
11
1327.93440096846
21
142.679840011519
31
0
0
LINE
8
layer0
10
1327.93440096846
20
142.679840011519
30
0
11
1327.93440096846
21
146.143941626656
31
0
0
LINE
8
layer0
10
1327.93440096846
20
146.143941626656
30
0
11
1317.54457006447
21
137.146084122778
31
0
0
LINE
8
layer0
10
1327.93440096846
20
146.143941626656
30
0
11
1327.93440096846
21
142.679840011519
31
0
0
LINE
8
layer0
10
1327.93440096846
20
142.679840011519
30
0
11
1345.13119226485
21
157.572698137773
31
0
0
LINE
8
layer0
10
1345.13119226485
20
157.572698137773
30
0
11
1345.13119226485
21
161.036799752911
31
0
0
LINE
8
layer0
10
1345.13119226485
20
161.036799752911
30
0
11
1327.93440096846
21
146.143941626656
31
0
0
LINE
8
layer0
10
1345.13119226485
20
161.036799752911
30
0
11
1345.13119226485
21
157.572698137773
31
0
0
LINE
8
layer0
10
1345.13119226485
20
157.572698137773
30
0
11
1413.59270738859
21
216.862109416509
31
0
0
LINE
8
layer0
10
1413.59270738859
20
216.862109416509
30
0
11
1413.59270738859
21
220.326211031647
31
0
0
LINE
8
layer0
10
1413.59270738859
20
220.326211031647
30
0
11
1345.13119226485
21
161.036799752911
31
0
0
LINE
8
layer0
10
1413.59270738859
20
220.326211031647
30
0
11
1413.59270738859
21
216.862109416509
31
0
0
LINE
8
layer0
10
1413.59270738859
20
216.862109416509
30
0
11
1470.38643466847
21
266.046920016485
31
0
0
LINE
8
layer0
10
1470.38643466847
20
266.046920016485
30
0
11
1470.38643466847
21
269.511021631623
31
0
0
LINE
8
layer0
10
1470.38643466847
20
269.511021631623
30
0
11
1413.59270738859
21
220.326211031647
31
0
0
LINE
8
layer0
10
1470.38643466847
20
269.511021631623
30
0
11
1470.38643466847
21
266.046920016485
31
0
0
LINE
8
layer0
10
1470.38643466847
20
266.046920016485
30
0
11
1473.75010057695
21
270.428244654219
31
0
0
LINE
8
layer0
10
1473.75010057695
20
270.428244654219
30
0
11
1473.75010057695
21
273.892346269357
31
0
0
LINE
8
layer0
10
1473.75010057695
20
273.892346269357
30
0
11
1470.38643466847
21
269.511021631623
31
0
0
LINE
8
layer0
10
1473.75010057695
20
273.892346269357
30
0
11
1473.75010057695
21
270.428244654219
31
0
0
LINE
8
layer0
10
1473.75010057695
20
270.428244654219
30
0
11
1474.24132941598
21
275.1148469655
31
0
0
LINE
8
layer0
10
1474.24132941598
20
275.1148469655
30
0
11
1474.24132941598
21
278.578948580638
31
0
0
LINE
8
layer0
10
1474.24132941598
20
278.578948580638
30
0
11
1473.75010057695
21
273.892346269357
31
0
0
LINE
8
layer0
10
1474.24132941598
20
278.578948580638
30
0
11
1474.24132941598
21
275.1148469655
31
0
0
LINE
8
layer0
10
1474.24132941598
20
275.1148469655
30
0
11
1471.81203628421
21
279.647969662622
31
0
0
LINE
8
layer0
10
1471.81203628421
20
279.647969662622
30
0
11
1471.81203628421
21
283.11207127776
31
0
0
LINE
8
layer0
10
1471.81203628421
20
283.11207127776
30
0
11
1474.24132941598
21
278.578948580638
31
0
0
LINE
8
layer0
10
1471.81203628421
20
283.11207127776
30
0
11
1471.81203628421
21
279.647969662622
31
0
0
LINE
8
layer0
10
1471.81203628421
20
279.647969662622
30
0
11
1466.70001731926
21
283.583879111868
31
0
0
LINE
8
layer0
10
1466.70001731926
20
283.583879111868
30
0
11
1466.70001731926
21
287.047980727006
31
0
0
LINE
8
layer0
10
1466.70001731926
20
287.047980727006
30
0
11
1471.81203628421
21
283.11207127776
31
0
0
LINE
8
layer0
10
1466.70001731926
20
287.047980727006
30
0
11
1466.70001731926
21
283.583879111868
31
0
0
LINE
8
layer0
10
1466.70001731926
20
283.583879111868
30
0
11
1459.40567255494
21
286.537301073252
31
0
0
LINE
8
layer0
10
1459.40567255494
20
286.537301073252
30
0
11
1459.40567255494
21
290.00140268839
31
0
0
LINE
8
layer0
10
1459.40567255494
20
290.00140268839
30
0
11
1466.70001731926
21
287.047980727006
31
0
0
LINE
8
layer0
10
1418.4249104414
20
281.046920016485
30
0
11
1418.4249104414
21
284.511021631623
31
0
0
LINE
8
layer0
10
1418.4249104414
20
284.511021631623
30
0
11
1136.96665421146
21
365.761021631623
31
0
0
LINE
8
layer0
10
1136.96665421146
20
365.761021631623
30
0
11
1136.96665421146
21
362.296920016485
31
0
0
LINE
8
layer0
10
1136.96665421146
20
362.296920016485
30
0
11
1418.4249104414
21
281.046920016485
31
0
0
LINE
8
layer0
10
1136.96665421146
20
362.296920016485
30
0
11
1136.96665421146
21
365.761021631623
31
0
0
LINE
8
layer0
10
1136.96665421146
20
365.761021631623
30
0
11
1128.20400493599
21
367.442854585864
31
0
0
LINE
8
layer0
10
1128.20400493599
20
367.442854585864
30
0
11
1128.20400493599
21
363.978752970726
31
0
0
LINE
8
layer0
10
1128.20400493599
20
363.978752970726
30
0
11
1136.96665421146
21
362.296920016485
31
0
0
LINE
8
layer0
10
1128.20400493599
20
363.978752970726
30
0
11
1128.20400493599
21
367.442854585864
31
0
0
LINE
8
layer0
10
1128.20400493599
20
367.442854585864
30
0
11
1118.83080031343
21
367.688469005381
31
0
0
LINE
8
layer0
10
1118.83080031343
20
367.688469005381
30
0
11
1118.83080031343
21
364.224367390243
31
0
0
LINE
8
layer0
10
1118.83080031343
20
364.224367390243
30
0
11
1128.20400493599
21
363.978752970726
31
0
0
LINE
8
layer0
10
1118.83080031343
20
364.224367390243
30
0
11
1118.83080031343
21
367.688469005381
31
0
0
LINE
8
layer0
10
1118.83080031343
20
367.688469005381
30
0
11
1109.76455491919
21
366.473822439495
31
0
0
LINE
8
layer0
10
1109.76455491919
20
366.473822439495
30
0
11
1109.76455491919
21
363.009720824358
31
0
0
LINE
8
layer0
10
1109.76455491919
20
363.009720824358
30
0
11
1118.83080031343
21
364.224367390243
31
0
0
LINE
8
layer0
10
1109.76455491919
20
363.009720824358
30
0
11
1109.76455491919
21
366.473822439495
31
0
0
LINE
8
layer0
10
1109.76455491919
20
366.473822439495
30
0
11
1101.89273602069
21
363.917812957017
31
0
0
LINE
8
layer0
10
1101.89273602069
20
363.917812957017
30
0
11
1101.89273602069
21
360.45371134188
31
0
0
LINE
8
layer0
10
1101.89273602069
20
360.45371134188
30
0
11
1109.76455491919
21
363.009720824358
31
0
0
LINE
8
layer0
10
1101.89273602069
20
360.45371134188
30
0
11
1101.89273602069
21
363.917812957017
31
0
0
LINE
8
layer0
10
1101.89273602069
20
363.917812957017
30
0
11
1095.98589209793
21
360.270640574856
31
0
0
LINE
8
layer0
10
1095.98589209793
20
360.270640574856
30
0
11
1095.98589209793
21
356.806538959719
31
0
0
LINE
8
layer0
10
1095.98589209793
20
356.806538959719
30
0
11
1101.89273602069
21
360.45371134188
31
0
0
LINE
8
layer0
10
1095.98589209793
20
356.806538959719
30
0
11
1095.98589209793
21
360.270640574856
31
0
0
LINE
8
layer0
10
1095.98589209793
20
360.270640574856
30
0
11
959.485892097927
21
242.058172958281
31
0
0
LINE
8
layer0
10
959.485892097927
20
242.058172958281
30
0
11
959.485892097927
21
238.594071343143
31
0
0
LINE
8
layer0
10
959.485892097927
20
238.594071343143
30
0
11
1095.98589209793
21
356.806538959719
31
0
0
LINE
8
layer0
10
959.485892097927
20
238.594071343143
30
0
11
959.485892097927
21
242.058172958281
31
0
0
LINE
8
layer0
10
959.485892097927
20
242.058172958281
30
0
11
956.122226189446
21
237.676848320547
31
0
0
LINE
8
layer0
10
956.122226189446
20
237.676848320547
30
0
11
956.122226189446
21
234.212746705409
31
0
0
LINE
8
layer0
10
956.122226189446
20
234.212746705409
30
0
11
959.485892097927
21
238.594071343143
31
0
0
LINE
8
layer0
10
956.122226189446
20
234.212746705409
30
0
11
956.122226189446
21
237.676848320547
31
0
0
LINE
8
layer0
10
956.122226189446
20
237.676848320547
30
0
11
955.630997350411
21
232.990246009266
31
0
0
LINE
8
layer0
10
955.630997350411
20
232.990246009266
30
0
11
955.630997350411
21
229.526144394128
31
0
0
LINE
8
layer0
10
955.630997350411
20
229.526144394128
30
0
11
956.122226189446
21
234.212746705409
31
0
0
LINE
8
layer0
10
955.630997350411
20
229.526144394128
30
0
11
955.630997350411
21
232.990246009266
31
0
0
LINE
8
layer0
10
955.630997350411
20
232.990246009266
30
0
11
958.060290482182
21
228.457123312144
31
0
0
LINE
8
layer0
10
958.060290482182
20
228.457123312144
30
0
11
958.060290482182
21
224.993021697006
31
0
0
LINE
8
layer0
10
958.060290482182
20
224.993021697006
30
0
11
955.630997350411
21
229.526144394128
31
0
0
LINE
8
layer0
10
958.060290482182
20
224.993021697006
30
0
11
958.060290482182
21
228.457123312144
31
0
0
LINE
8
layer0
10
958.060290482182
20
228.457123312144
30
0
11
963.172309447138
21
224.521213862898
31
0
0
LINE
8
layer0
10
963.172309447138
20
224.521213862898
30
0
11
963.172309447138
21
221.05711224776
31
0
0
LINE
8
layer0
10
963.172309447138
20
221.05711224776
30
0
11
958.060290482182
21
224.993021697006
31
0
0
LINE
8
layer0
10
963.172309447138
20
221.05711224776
30
0
11
963.172309447138
21
224.521213862898
31
0
0
LINE
8
layer0
10
963.172309447138
20
224.521213862898
30
0
11
970.46665421146
21
221.567791901514
31
0
0
LINE
8
layer0
10
970.46665421146
20
221.567791901514
30
0
11
970.46665421146
21
218.103690286376
31
0
0
LINE
8
layer0
10
970.46665421146
20
218.103690286376
30
0
11
963.172309447138
21
221.05711224776
31
0
0
LINE
8
layer0
10
970.46665421146
20
218.103690286376
30
0
11
970.46665421146
21
221.567791901514
31
0
0
LINE
8
layer0
10
970.46665421146
20
221.567791901514
30
0
11
1251.9249104414
21
140.317791901514
31
0
0
LINE
8
layer0
10
1251.9249104414
20
140.317791901514
30
0
11
1251.9249104414
21
136.853690286376
31
0
0
LINE
8
layer0
10
1251.9249104414
20
136.853690286376
30
0
11
970.46665421146
21
218.103690286376
31
0
0
LINE
8
layer0
10
1251.9249104414
20
136.853690286376
30
0
11
1251.9249104414
21
140.317791901514
31
0
0
LINE
8
layer0
10
1251.9249104414
20
140.317791901514
30
0
11
1260.68755971687
21
138.635958947273
31
0
0
LINE
8
layer0
10
1260.68755971687
20
138.635958947273
30
0
11
1260.68755971687
21
135.171857332136
31
0
0
LINE
8
layer0
10
1260.68755971687
20
135.171857332136
30
0
11
1251.9249104414
21
136.853690286376
31
0
0
LINE
8
layer0
10
1260.68755971687
20
135.171857332136
30
0
11
1260.68755971687
21
138.635958947273
31
0
0
LINE
8
layer0
10
1260.68755971687
20
138.635958947273
30
0
11
1270.06076433943
21
138.390344527757
31
0
0
LINE
8
layer0
10
1270.06076433943
20
138.390344527757
30
0
11
1270.06076433943
21
134.926242912619
31
0
0
LINE
8
layer0
10
1270.06076433943
20
134.926242912619
30
0
11
1260.68755971687
21
135.171857332136
31
0
0
LINE
8
layer0
10
1270.06076433943
20
134.926242912619
30
0
11
1270.06076433943
21
138.390344527757
31
0
0
LINE
8
layer0
10
1270.06076433943
20
138.390344527757
30
0
11
1279.12700973368
21
139.604991093642
31
0
0
LINE
8
layer0
10
1279.12700973368
20
139.604991093642
30
0
11
1279.12700973368
21
136.140889478504
31
0
0
LINE
8
layer0
10
1279.12700973368
20
136.140889478504
30
0
11
1270.06076433943
21
134.926242912619
31
0
0
LINE
8
layer0
10
1279.12700973368
20
136.140889478504
30
0
11
1279.12700973368
21
139.604991093642
31
0
0
LINE
8
layer0
10
1279.12700973368
20
139.604991093642
30
0
11
1286.99882863217
21
142.16100057612
31
0
0
LINE
8
layer0
10
1286.99882863217
20
142.16100057612
30
0
11
1286.99882863217
21
138.696898960982
31
0
0
LINE
8
layer0
10
1286.99882863217
20
138.696898960982
30
0
11
1279.12700973368
21
136.140889478504
31
0
0
LINE
8
layer0
10
1286.99882863217
20
138.696898960982
30
0
11
1286.99882863217
21
142.16100057612
31
0
0
LINE
8
layer0
10
1286.99882863217
20
142.16100057612
30
0
11
1292.90567255494
21
145.808172958281
31
0
0
LINE
8
layer0
10
1292.90567255494
20
145.808172958281
30
0
11
1292.90567255494
21
142.344071343143
31
0
0
LINE
8
layer0
10
1292.90567255494
20
142.344071343143
30
0
11
1286.99882863217
21
138.696898960982
31
0
0
LINE
8
layer0
10
1292.90567255494
20
142.344071343143
30
0
11
1292.90567255494
21
145.808172958281
31
0
0
LINE
8
layer0
10
1292.90567255494
20
145.808172958281
30
0
11
1429.40567255494
21
264.020640574856
31
0
0
LINE
8
layer0
10
1429.40567255494
20
264.020640574856
30
0
11
1429.40567255494
21
260.556538959719
31
0
0
LINE
8
layer0
10
1429.40567255494
20
260.556538959719
30
0
11
1292.90567255494
21
142.344071343143
31
0
0
LINE
8
layer0
10
1429.40567255494
20
260.556538959719
30
0
11
1429.40567255494
21
264.020640574856
31
0
0
LINE
8
layer0
10
1429.40567255494
20
264.020640574856
30
0
11
1432.76933846342
21
268.40196521259
31
0
0
LINE
8
layer0
10
1432.76933846342
20
268.40196521259
30
0
11
1432.76933846342
21
264.937863597452
31
0
0
LINE
8
layer0
10
1432.76933846342
20
264.937863597452
30
0
11
1429.40567255494
21
260.556538959719
31
0
0
LINE
8
layer0
10
1432.76933846342
20
264.937863597452
30
0
11
1432.76933846342
21
268.40196521259
31
0
0
LINE
8
layer0
10
1432.76933846342
20
268.40196521259
30
0
11
1433.26056730245
21
273.088567523871
31
0
0
LINE
8
layer0
10
1433.26056730245
20
273.088567523871
30
0
11
1433.26056730245
21
269.624465908734
31
0
0
LINE
8
layer0
10
1433.26056730245
20
269.624465908734
30
0
11
1432.76933846342
21
264.937863597452
31
0
0
LINE
8
layer0
10
1433.26056730245
20
269.624465908734
30
0
11
1433.26056730245
21
273.088567523871
31
0
0
LINE
8
layer0
10
1433.26056730245
20
273.088567523871
30
0
11
1430.83127417068
21
277.621690220993
31
0
0
LINE
8
layer0
10
1430.83127417068
20
277.621690220993
30
0
11
1430.83127417068
21
274.157588605856
31
0
0
LINE
8
layer0
10
1430.83127417068
20
274.157588605856
30
0
11
1433.26056730245
21
269.624465908734
31
0
0
LINE
8
layer0
10
1430.83127417068
20
274.157588605856
30
0
11
1430.83127417068
21
277.621690220993
31
0
0
LINE
8
layer0
10
1430.83127417068
20
277.621690220993
30
0
11
1425.71925520572
21
281.557599670239
31
0
0
LINE
8
layer0
10
1425.71925520572
20
281.557599670239
30
0
11
1425.71925520572
21
278.093498055102
31
0
0
LINE
8
layer0
10
1425.71925520572
20
278.093498055102
30
0
11
1430.83127417068
21
274.157588605856
31
0
0
LINE
8
layer0
10
1425.71925520572
20
278.093498055102
30
0
11
1425.71925520572
21
281.557599670239
31
0
0
LINE
8
layer0
10
1425.71925520572
20
281.557599670239
30
0
11
1418.4249104414
21
284.511021631623
31
0
0
LINE
8
layer0
10
1418.4249104414
20
284.511021631623
30
0
11
1418.4249104414
21
281.046920016485
31
0
0
LINE
8
layer0
10
1418.4249104414
20
281.046920016485
30
0
11
1425.71925520572
21
278.093498055102
31
0
0
LINE
8
layer0
10
1459.40567255494
20
290.00140268839
30
0
11
1125.98589209793
21
386.25140268839
31
0
0
LINE
8
layer0
10
1125.98589209793
20
386.25140268839
30
0
11
1117.22324282246
21
387.93323564263
31
0
0
LINE
8
layer0
10
1117.22324282246
20
387.93323564263
30
0
11
1107.8500381999
21
388.178850062147
31
0
0
LINE
8
layer0
10
1107.8500381999
20
388.178850062147
30
0
11
1098.78379280565
21
386.964203496262
31
0
0
LINE
8
layer0
10
1098.78379280565
20
386.964203496262
30
0
11
1090.91197390716
21
384.408194013784
31
0
0
LINE
8
layer0
10
1090.91197390716
20
384.408194013784
30
0
11
1085.00512998439
21
380.761021631623
31
0
0
LINE
8
layer0
10
1085.00512998439
20
380.761021631623
30
0
11
1085.00512998439
21
380.761021631623
31
0
0
LINE
8
layer0
10
1085.00512998439
20
380.761021631623
30
0
11
1470.38643466847
21
269.511021631623
31
0
0
LINE
8
layer0
10
1470.38643466847
20
269.511021631623
30
0
11
1473.75010057695
21
273.892346269357
31
0
0
LINE
8
layer0
10
1473.75010057695
20
273.892346269357
30
0
11
1474.24132941598
21
278.578948580638
31
0
0
LINE
8
layer0
10
1474.24132941598
20
278.578948580638
30
0
11
1471.81203628421
21
283.11207127776
31
0
0
LINE
8
layer0
10
1471.81203628421
20
283.11207127776
30
0
11
1466.70001731926
21
287.047980727006
31
0
0
LINE
8
layer0
10
1466.70001731926
20
287.047980727006
30
0
11
1459.40567255494
21
290.00140268839
31
0
0
LINE
8
layer0
10
1080.25359677466
20
376.646073165066
30
0
11
1136.96665421146
21
365.761021631623
31
0
0
LINE
8
layer0
10
1136.96665421146
20
365.761021631623
30
0
11
1085.00512998439
21
380.761021631623
31
0
0
LINE
8
layer0
10
1085.00512998439
20
380.761021631623
30
0
11
1080.25359677466
21
376.646073165066
31
0
0
LINE
8
layer0
10
1071.34699458839
20
368.932729410359
30
0
11
1128.20400493599
21
367.442854585864
31
0
0
LINE
8
layer0
10
1128.20400493599
20
367.442854585864
30
0
11
1080.25359677466
21
376.646073165066
31
0
0
LINE
8
layer0
10
1080.25359677466
20
376.646073165066
30
0
11
1071.34699458839
21
368.932729410359
31
0
0
LINE
8
layer0
10
1060.9571636844
20
359.934871906481
30
0
11
1118.83080031343
21
367.688469005381
31
0
0
LINE
8
layer0
10
1118.83080031343
20
367.688469005381
30
0
11
1071.34699458839
21
368.932729410359
31
0
0
LINE
8
layer0
10
1071.34699458839
20
368.932729410359
30
0
11
1060.9571636844
21
359.934871906481
31
0
0
LINE
8
layer0
10
1043.76037238801
20
345.042013780226
30
0
11
1109.76455491919
21
366.473822439495
31
0
0
LINE
8
layer0
10
1109.76455491919
20
366.473822439495
30
0
11
1060.9571636844
21
359.934871906481
31
0
0
LINE
8
layer0
10
1060.9571636844
20
359.934871906481
30
0
11
1043.76037238801
21
345.042013780226
31
0
0
LINE
8
layer0
10
975.298857264268
20
285.75260250149
30
0
11
1101.89273602069
21
363.917812957017
31
0
0
LINE
8
layer0
10
1101.89273602069
20
363.917812957017
30
0
11
1043.76037238801
21
345.042013780226
31
0
0
LINE
8
layer0
10
1043.76037238801
20
345.042013780226
30
0
11
975.298857264268
21
285.75260250149
31
0
0
LINE
8
layer0
10
929.485892097927
20
216.077410844747
30
0
11
1095.98589209793
21
360.270640574856
31
0
0
LINE
8
layer0
10
1095.98589209793
20
360.270640574856
30
0
11
975.298857264268
21
285.75260250149
31
0
0
LINE
8
layer0
10
975.298857264268
20
285.75260250149
30
0
11
918.505129984393
21
236.567791901514
31
0
0
LINE
8
layer0
10
918.505129984393
20
236.567791901514
30
0
11
915.141464075912
21
232.18646726378
31
0
0
LINE
8
layer0
10
915.141464075912
20
232.18646726378
30
0
11
914.650235236878
21
227.499864952499
31
0
0
LINE
8
layer0
10
914.650235236878
20
227.499864952499
30
0
11
917.079528368649
21
222.966742255377
31
0
0
LINE
8
layer0
10
917.079528368649
20
222.966742255377
30
0
11
922.191547333605
21
219.030832806131
31
0
0
LINE
8
layer0
10
922.191547333605
20
219.030832806131
30
0
11
929.485892097927
21
216.077410844747
31
0
0
LINE
8
layer0
10
929.485892097927
20
216.077410844747
30
0
11
929.485892097927
21
216.077410844747
31
0
0
LINE
8
layer0
10
937.71578903104
20
213.701644239879
30
0
11
959.485892097927
21
242.058172958281
31
0
0
LINE
8
layer0
10
959.485892097927
20
242.058172958281
30
0
11
929.485892097927
21
216.077410844747
31
0
0
LINE
8
layer0
10
929.485892097927
20
216.077410844747
30
0
11
937.71578903104
21
213.701644239879
31
0
0
LINE
8
layer0
10
953.142476540455
20
209.248343146747
30
0
11
956.122226189446
21
237.676848320547
31
0
0
LINE
8
layer0
10
956.122226189446
20
237.676848320547
30
0
11
937.71578903104
21
213.701644239879
31
0
0
LINE
8
layer0
10
937.71578903104
20
213.701644239879
30
0
11
953.142476540455
21
209.248343146747
31
0
0
LINE
8
layer0
10
971.138191548211
20
204.053427694753
30
0
11
955.630997350411
21
232.990246009266
31
0
0
LINE
8
layer0
10
955.630997350411
20
232.990246009266
30
0
11
953.142476540455
21
209.248343146747
31
0
0
LINE
8
layer0
10
953.142476540455
20
209.248343146747
30
0
11
971.138191548211
21
204.053427694753
31
0
0
LINE
8
layer0
10
1000.92390780072
20
195.455032046557
30
0
11
958.060290482182
21
228.457123312144
31
0
0
LINE
8
layer0
10
958.060290482182
20
228.457123312144
30
0
11
971.138191548211
21
204.053427694753
31
0
0
LINE
8
layer0
10
971.138191548211
20
204.053427694753
30
0
11
1000.92390780072
21
195.455032046557
31
0
0
LINE
8
layer0
10
1119.50273035819
20
161.224274484685
30
0
11
963.172309447138
21
224.521213862898
31
0
0
LINE
8
layer0
10
963.172309447138
20
224.521213862898
30
0
11
1000.92390780072
21
195.455032046557
31
0
0
LINE
8
layer0
10
1000.92390780072
20
195.455032046557
30
0
11
1119.50273035819
21
161.224274484685
31
0
0
LINE
8
layer0
10
1303.88643466847
20
125.317791901514
30
0
11
970.46665421146
21
221.567791901514
31
0
0
LINE
8
layer0
10
970.46665421146
20
221.567791901514
30
0
11
1119.50273035819
21
161.224274484685
31
0
0
LINE
8
layer0
10
1119.50273035819
20
161.224274484685
30
0
11
1262.90567255494
21
119.827410844747
31
0
0
LINE
8
layer0
10
1262.90567255494
20
119.827410844747
30
0
11
1271.6683218304
21
118.145577890507
31
0
0
LINE
8
layer0
10
1271.6683218304
20
118.145577890507
30
0
11
1281.04152645297
21
117.89996347099
31
0
0
LINE
8
layer0
10
1281.04152645297
20
117.89996347099
30
0
11
1290.10777184721
21
119.114610036875
31
0
0
LINE
8
layer0
10
1290.10777184721
20
119.114610036875
30
0
11
1297.9795907457
21
121.670619519353
31
0
0
LINE
8
layer0
10
1297.9795907457
20
121.670619519353
30
0
11
1303.88643466847
21
125.317791901514
31
0
0
LINE
8
layer0
10
1303.88643466847
20
125.317791901514
30
0
11
1303.88643466847
21
125.317791901514
31
0
0
LINE
8
layer0
10
1308.6379678782
20
129.432740368071
30
0
11
1251.9249104414
21
140.317791901514
31
0
0
LINE
8
layer0
10
1251.9249104414
20
140.317791901514
30
0
11
1303.88643466847
21
125.317791901514
31
0
0
LINE
8
layer0
10
1303.88643466847
20
125.317791901514
30
0
11
1308.6379678782
21
129.432740368071
31
0
0
LINE
8
layer0
10
1317.54457006447
20
137.146084122778
30
0
11
1260.68755971687
21
138.635958947273
31
0
0
LINE
8
layer0
10
1260.68755971687
20
138.635958947273
30
0
11
1308.6379678782
21
129.432740368071
31
0
0
LINE
8
layer0
10
1308.6379678782
20
129.432740368071
30
0
11
1317.54457006447
21
137.146084122778
31
0
0
LINE
8
layer0
10
1327.93440096846
20
146.143941626656
30
0
11
1270.06076433943
21
138.390344527757
31
0
0
LINE
8
layer0
10
1270.06076433943
20
138.390344527757
30
0
11
1317.54457006447
21
137.146084122778
31
0
0
LINE
8
layer0
10
1317.54457006447
20
137.146084122778
30
0
11
1327.93440096846
21
146.143941626656
31
0
0
LINE
8
layer0
10
1345.13119226485
20
161.036799752911
30
0
11
1279.12700973368
21
139.604991093642
31
0
0
LINE
8
layer0
10
1279.12700973368
20
139.604991093642
30
0
11
1327.93440096846
21
146.143941626656
31
0
0
LINE
8
layer0
10
1327.93440096846
20
146.143941626656
30
0
11
1345.13119226485
21
161.036799752911
31
0
0
LINE
8
layer0
10
1413.59270738859
20
220.326211031647
30
0
11
1286.99882863217
21
142.16100057612
31
0
0
LINE
8
layer0
10
1286.99882863217
20
142.16100057612
30
0
11
1345.13119226485
21
161.036799752911
31
0
0
LINE
8
layer0
10
1345.13119226485
20
161.036799752911
30
0
11
1413.59270738859
21
220.326211031647
31
0
0
LINE
8
layer0
10
1470.38643466847
20
269.511021631623
30
0
11
1444.40567255494
21
277.011021631623
31
0
0
LINE
8
layer0
10
1444.40567255494
20
277.011021631623
30
0
11
1292.90567255494
21
145.808172958281
31
0
0
LINE
8
layer0
10
1292.90567255494
20
145.808172958281
30
0
11
1413.59270738859
21
220.326211031647
31
0
0
LINE
8
layer0
10
1413.59270738859
20
220.326211031647
30
0
11
1470.38643466847
21
269.511021631623
31
0
0
LINE
8
layer0
10
1470.38643466847
20
269.511021631623
30
0
11
1470.38643466847
21
269.511021631623
31
0
0
LINE
8
layer0
10
1440.29072408838
20
278.198904934057
30
0
11
1429.40567255494
21
264.020640574856
31
0
0
LINE
8
layer0
10
1429.40567255494
20
264.020640574856
30
0
11
1444.40567255494
21
277.011021631623
31
0
0
LINE
8
layer0
10
1444.40567255494
20
277.011021631623
30
0
11
1440.29072408838
21
278.198904934057
31
0
0
LINE
8
layer0
10
1433.98694760651
20
280.018648458415
30
0
11
1432.76933846342
21
268.40196521259
31
0
0
LINE
8
layer0
10
1432.76933846342
20
268.40196521259
30
0
11
1440.29072408838
21
278.198904934057
31
0
0
LINE
8
layer0
10
1440.29072408838
20
278.198904934057
30
0
11
1433.98694760651
21
280.018648458415
31
0
0
LINE
8
layer0
10
1428.73413521818
20
281.535004781617
30
0
11
1433.26056730245
21
273.088567523871
31
0
0
LINE
8
layer0
10
1433.26056730245
20
273.088567523871
30
0
11
1433.98694760651
21
280.018648458415
31
0
0
LINE
8
layer0
10
1433.98694760651
20
280.018648458415
30
0
11
1428.73413521818
21
281.535004781617
31
0
0
LINE
8
layer0
10
1423.95777351719
20
282.913821638525
30
0
11
1430.83127417068
21
277.621690220993
31
0
0
LINE
8
layer0
10
1430.83127417068
20
277.621690220993
30
0
11
1428.73413521818
21
281.535004781617
31
0
0
LINE
8
layer0
10
1428.73413521818
20
281.535004781617
30
0
11
1423.95777351719
21
282.913821638525
31
0
0
LINE
8
layer0
10
1418.4249104414
20
284.511021631623
30
0
11
1425.71925520572
21
281.557599670239
31
0
0
LINE
8
layer0
10
1425.71925520572
20
281.557599670239
30
0
11
1423.95777351719
21
282.913821638525
31
0
0
LINE
8
layer0
10
1423.95777351719
20
282.913821638525
30
0
11
1418.4249104414
21
284.511021631623
31
0
0
ENDBLK
0
BLOCK
8
layer0
2
PF_OBJECT40
70
0
10
0
20
0
30
0
0
LINE
8
layer0
10
1136.051590702
20
234.10064120355
30
0
11
1426.17010096979
21
150.35064120355
31
0
0
LINE
8
layer0
10
1426.17010096979
20
150.35064120355
30
0
11
1433.46444573411
21
147.397219242166
31
0
0
LINE
8
layer0
10
1433.46444573411
20
147.397219242166
30
0
11
1438.57646469906
21
143.46130979292
31
0
0
LINE
8
layer0
10
1438.57646469906
20
143.46130979292
30
0
11
1441.00575783083
21
138.928187095798
31
0
0
LINE
8
layer0
10
1441.00575783083
20
138.928187095798
30
0
11
1440.5145289918
21
134.241584784517
31
0
0
LINE
8
layer0
10
1440.5145289918
20
134.241584784517
30
0
11
1437.15086308332
21
129.860260146784
31
0
0
LINE
8
layer0
10
1437.15086308332
20
129.860260146784
30
0
11
1295.65086308332
21
7.31766551128544
31
0
0
LINE
8
layer0
10
1295.65086308332
20
7.31766551128544
30
0
11
1289.74401916055
21
3.67049312912445
31
0
0
LINE
8
layer0
10
1289.74401916055
20
3.67049312912445
30
0
11
1281.87220026206
21
1.11448364664636
31
0
0
LINE
8
layer0
10
1281.87220026206
20
1.11448364664636
30
0
11
1272.80595486782
21
-0.100162919238642
31
0
0
LINE
8
layer0
10
1272.80595486782
20
-0.100162919238642
30
0
11
1263.43275024525
21
0.145451500278227
31
0
0
LINE
8
layer0
10
1263.43275024525
20
0.145451500278227
30
0
11
1254.67010096979
21
1.8272844545188
31
0
0
LINE
8
layer0
10
1254.67010096979
20
1.8272844545188
30
0
11
964.551590701999
21
85.5772844545188
31
0
0
LINE
8
layer0
10
964.551590701999
20
85.5772844545188
30
0
11
957.257245937677
21
88.5307064159025
31
0
0
LINE
8
layer0
10
957.257245937677
20
88.5307064159025
30
0
11
952.145226972721
21
92.4666158651484
31
0
0
LINE
8
layer0
10
952.145226972721
20
92.4666158651484
30
0
11
949.71593384095
21
96.9997385622706
31
0
0
LINE
8
layer0
10
949.71593384095
20
96.9997385622706
30
0
11
950.207162679985
21
101.686340873552
31
0
0
LINE
8
layer0
10
950.207162679985
20
101.686340873552
30
0
11
953.570828588465
21
106.067665511285
31
0
0
LINE
8
layer0
10
953.570828588465
20
106.067665511285
30
0
11
1095.07082858847
21
228.610260146783
31
0
0
LINE
8
layer0
10
1095.07082858847
20
228.610260146783
30
0
11
1100.97767251123
21
232.257432528944
31
0
0
LINE
8
layer0
10
1100.97767251123
20
232.257432528944
30
0
11
1108.84949140972
21
234.813442011422
31
0
0
LINE
8
layer0
10
1108.84949140972
20
234.813442011422
30
0
11
1117.91573680397
21
236.028088577308
31
0
0
LINE
8
layer0
10
1117.91573680397
20
236.028088577308
30
0
11
1127.28894142653
21
235.78247415779
31
0
0
LINE
8
layer0
10
1127.28894142653
20
235.78247415779
30
0
11
1136.051590702
21
234.10064120355
31
0
0
LINE
8
layer0
10
1136.051590702
20
238.430768222472
30
0
11
1426.17010096979
21
154.680768222472
31
0
0
LINE
8
layer0
10
1426.17010096979
20
154.680768222472
30
0
11
1426.17010096979
21
150.35064120355
31
0
0
LINE
8
layer0
10
1426.17010096979
20
150.35064120355
30
0
11
1136.051590702
21
234.10064120355
31
0
0
LINE
8
layer0
10
1136.051590702
20
234.10064120355
30
0
11
1136.051590702
21
238.430768222472
31
0
0
LINE
8
layer0
10
1426.17010096979
20
280.254451771216
30
0
11
1426.17010096979
21
154.680768222472
31
0
0
LINE
8
layer0
10
1426.17010096979
20
154.680768222472
30
0
11
1136.051590702
21
238.430768222472
31
0
0
LINE
8
layer0
10
1136.051590702
20
238.430768222472
30
0
11
1136.051590702
21
364.004451771216
31
0
0
LINE
8
layer0
10
1136.051590702
20
364.004451771216
30
0
11
1426.17010096979
21
280.254451771216
31
0
0
LINE
8
layer0
10
1127.28894142653
20
240.112601176713
30
0
11
1136.051590702
21
238.430768222472
31
0
0
LINE
8
layer0
10
1136.051590702
20
238.430768222472
30
0
11
1136.051590702
21
234.10064120355
31
0
0
LINE
8
layer0
10
1136.051590702
20
234.10064120355
30
0
11
1127.28894142653
21
235.78247415779
31
0
0
LINE
8
layer0
10
1127.28894142653
20
235.78247415779
30
0
11
1127.28894142653
21
240.112601176713
31
0
0
LINE
8
layer0
10
1136.051590702
20
364.004451771216
30
0
11
1136.051590702
21
238.430768222472
31
0
0
LINE
8
layer0
10
1136.051590702
20
238.430768222472
30
0
11
1127.28894142653
21
240.112601176713
31
0
0
LINE
8
layer0
10
1127.28894142653
20
240.112601176713
30
0
11
1127.28894142653
21
365.686284725456
31
0
0
LINE
8
layer0
10
1127.28894142653
20
365.686284725456
30
0
11
1136.051590702
21
364.004451771216
31
0
0
LINE
8
layer0
10
1117.91573680397
20
240.35821559623
30
0
11
1127.28894142653
21
240.112601176713
31
0
0
LINE
8
layer0
10
1127.28894142653
20
240.112601176713
30
0
11
1127.28894142653
21
235.78247415779
31
0
0
LINE
8
layer0
10
1127.28894142653
20
235.78247415779
30
0
11
1117.91573680397
21
236.028088577308
31
0
0
LINE
8
layer0
10
1117.91573680397
20
236.028088577308
30
0
11
1117.91573680397
21
240.35821559623
31
0
0
LINE
8
layer0
10
1127.28894142653
20
365.686284725456
30
0
11
1127.28894142653
21
240.112601176713
31
0
0
LINE
8
layer0
10
1127.28894142653
20
240.112601176713
30
0
11
1125.01955123745
21
240.172068026781
31
0
0
LINE
8
layer0
10
1125.01955123745
20
240.172068026781
30
0
11
1125.01955123745
21
365.745751575524
31
0
0
LINE
8
layer0
10
1125.01955123745
20
365.745751575524
30
0
11
1127.28894142653
21
365.686284725456
31
0
0
LINE
8
layer0
10
1125.01955123745
20
365.745751575524
30
0
11
1125.01955123745
21
240.172068026781
31
0
0
LINE
8
layer0
10
1125.01955123745
20
240.172068026781
30
0
11
1118.04547872147
21
240.354815853342
31
0
0
LINE
8
layer0
10
1118.04547872147
20
240.354815853342
30
0
11
1118.04547872147
21
365.928499402085
31
0
0
LINE
8
layer0
10
1118.04547872147
20
365.928499402085
30
0
11
1125.01955123745
21
365.745751575524
31
0
0
LINE
8
layer0
10
1118.04547872147
20
365.928499402085
30
0
11
1118.04547872147
21
240.354815853342
31
0
0
LINE
8
layer0
10
1118.04547872147
20
240.354815853342
30
0
11
1117.91573680397
21
240.35821559623
31
0
0
LINE
8
layer0
10
1117.91573680397
20
240.35821559623
30
0
11
1117.91573680397
21
365.931899144973
31
0
0
LINE
8
layer0
10
1117.91573680397
20
365.931899144973
30
0
11
1118.04547872147
21
365.928499402085
31
0
0
LINE
8
layer0
10
1108.84949140972
20
239.143569030345
30
0
11
1117.91573680397
21
240.35821559623
31
0
0
LINE
8
layer0
10
1117.91573680397
20
240.35821559623
30
0
11
1117.91573680397
21
236.028088577308
31
0
0
LINE
8
layer0
10
1117.91573680397
20
236.028088577308
30
0
11
1108.84949140972
21
234.813442011422
31
0
0
LINE
8
layer0
10
1108.84949140972
20
234.813442011422
30
0
11
1108.84949140972
21
239.143569030345
31
0
0
LINE
8
layer0
10
1117.91573680397
20
365.931899144973
30
0
11
1117.91573680397
21
240.35821559623
31
0
0
LINE
8
layer0
10
1117.91573680397
20
240.35821559623
30
0
11
1108.84949140972
21
239.143569030345
31
0
0
LINE
8
layer0
10
1108.84949140972
20
239.143569030345
30
0
11
1108.84949140972
21
364.717252579088
31
0
0
LINE
8
layer0
10
1108.84949140972
20
364.717252579088
30
0
11
1117.91573680397
21
365.931899144973
31
0
0
LINE
8
layer0
10
1100.97767251123
20
236.587559547867
30
0
11
1108.84949140972
21
239.143569030345
31
0
0
LINE
8
layer0
10
1108.84949140972
20
239.143569030345
30
0
11
1108.84949140972
21
234.813442011422
31
0
0
LINE
8
layer0
10
1108.84949140972
20
234.813442011422
30
0
11
1100.97767251123
21
232.257432528944
31
0
0
LINE
8
layer0
10
1100.97767251123
20
232.257432528944
30
0
11
1100.97767251123
21
236.587559547867
31
0
0
LINE
8
layer0
10
1108.84949140972
20
364.717252579088
30
0
11
1108.84949140972
21
239.143569030345
31
0
0
LINE
8
layer0
10
1108.84949140972
20
239.143569030345
30
0
11
1108.19024089762
21
238.929507886155
31
0
0
LINE
8
layer0
10
1108.19024089762
20
238.929507886155
30
0
11
1108.19024089762
21
364.503191434899
31
0
0
LINE
8
layer0
10
1108.19024089762
20
364.503191434899
30
0
11
1108.84949140972
21
364.717252579088
31
0
0
LINE
8
layer0
10
1108.19024089762
20
364.503191434899
30
0
11
1108.19024089762
21
238.929507886155
31
0
0
LINE
8
layer0
10
1108.19024089762
20
238.929507886155
30
0
11
1100.97767251123
21
236.587559547867
31
0
0
LINE
8
layer0
10
1100.97767251123
20
236.587559547867
30
0
11
1100.97767251123
21
362.16124309661
31
0
0
LINE
8
layer0
10
1100.97767251123
20
362.16124309661
30
0
11
1108.19024089762
21
364.503191434899
31
0
0
LINE
8
layer0
10
1095.07082858847
20
232.940387165706
30
0
11
1100.97767251123
21
236.587559547867
31
0
0
LINE
8
layer0
10
1100.97767251123
20
236.587559547867
30
0
11
1100.97767251123
21
232.257432528944
31
0
0
LINE
8
layer0
10
1100.97767251123
20
232.257432528944
30
0
11
1095.07082858847
21
228.610260146783
31
0
0
LINE
8
layer0
10
1095.07082858847
20
228.610260146783
30
0
11
1095.07082858847
21
232.940387165706
31
0
0
LINE
8
layer0
10
1100.97767251123
20
362.16124309661
30
0
11
1100.97767251123
21
236.587559547867
31
0
0
LINE
8
layer0
10
1100.97767251123
20
236.587559547867
30
0
11
1100.29771597364
21
236.167721350447
31
0
0
LINE
8
layer0
10
1100.29771597364
20
236.167721350447
30
0
11
1100.29771597364
21
361.741404899191
31
0
0
LINE
8
layer0
10
1100.29771597364
20
361.741404899191
30
0
11
1100.97767251123
21
362.16124309661
31
0
0
LINE
8
layer0
10
1100.29771597364
20
361.741404899191
30
0
11
1100.29771597364
21
236.167721350447
31
0
0
LINE
8
layer0
10
1100.29771597364
20
236.167721350447
30
0
11
1095.07082858847
21
232.940387165706
31
0
0
LINE
8
layer0
10
1095.07082858847
20
232.940387165706
30
0
11
1095.07082858847
21
358.514070714449
31
0
0
LINE
8
layer0
10
1095.07082858847
20
358.514070714449
30
0
11
1100.29771597364
21
361.741404899191
31
0
0
LINE
8
layer0
10
953.570828588465
20
110.397792530208
30
0
11
1095.07082858847
21
232.940387165706
31
0
0
LINE
8
layer0
10
1095.07082858847
20
232.940387165706
30
0
11
1095.07082858847
21
228.610260146783
31
0
0
LINE
8
layer0
10
1095.07082858847
20
228.610260146783
30
0
11
953.570828588465
21
106.067665511285
31
0
0
LINE
8
layer0
10
953.570828588465
20
106.067665511285
30
0
11
953.570828588465
21
110.397792530208
31
0
0
LINE
8
layer0
10
1095.07082858847
20
358.514070714449
30
0
11
1095.07082858847
21
232.940387165706
31
0
0
LINE
8
layer0
10
1095.07082858847
20
232.940387165706
30
0
11
1094.56196544278
21
232.499698754493
31
0
0
LINE
8
layer0
10
1094.56196544278
20
232.499698754493
30
0
11
1094.56196544278
21
358.073382303237
31
0
0
LINE
8
layer0
10
1094.56196544278
20
358.073382303237
30
0
11
1095.07082858847
21
358.514070714449
31
0
0
LINE
8
layer0
10
1094.56196544278
20
358.073382303237
30
0
11
1094.56196544278
21
232.499698754493
31
0
0
LINE
8
layer0
10
1094.56196544278
20
232.499698754493
30
0
11
1085.92863919512
21
225.023018904861
31
0
0
LINE
8
layer0
10
1085.92863919512
20
225.023018904861
30
0
11
1085.92863919512
21
350.596702453605
31
0
0
LINE
8
layer0
10
1085.92863919512
20
350.596702453605
30
0
11
1094.56196544278
21
358.073382303237
31
0
0
LINE
8
layer0
10
1085.92863919512
20
350.596702453605
30
0
11
1085.92863919512
21
225.023018904861
31
0
0
LINE
8
layer0
10
1085.92863919512
20
225.023018904861
30
0
11
953.570828588465
21
110.397792530208
31
0
0
LINE
8
layer0
10
953.570828588465
20
110.397792530208
30
0
11
953.570828588465
21
235.971476078951
31
0
0
LINE
8
layer0
10
953.570828588465
20
235.971476078951
30
0
11
1085.92863919512
21
350.596702453605
31
0
0
LINE
8
layer0
10
950.207162679985
20
106.016467892474
30
0
11
953.570828588465
21
110.397792530208
31
0
0
LINE
8
layer0
10
953.570828588465
20
110.397792530208
30
0
11
953.570828588465
21
106.067665511285
31
0
0
LINE
8
layer0
10
953.570828588465
20
106.067665511285
30
0
11
950.207162679985
21
101.686340873552
31
0
0
LINE
8
layer0
10
950.207162679985
20
101.686340873552
30
0
11
950.207162679985
21
106.016467892474
31
0
0
LINE
8
layer0
10
953.570828588465
20
235.971476078951
30
0
11
953.570828588465
21
110.397792530208
31
0
0
LINE
8
layer0
10
953.570828588465
20
110.397792530208
30
0
11
950.207162679985
21
106.016467892474
31
0
0
LINE
8
layer0
10
950.207162679985
20
106.016467892474
30
0
11
950.207162679985
21
231.590151441218
31
0
0
LINE
8
layer0
10
950.207162679985
20
231.590151441218
30
0
11
953.570828588465
21
235.971476078951
31
0
0
LINE
8
layer0
10
949.71593384095
20
101.329865581193
30
0
11
950.207162679985
21
106.016467892474
31
0
0
LINE
8
layer0
10
950.207162679985
20
106.016467892474
30
0
11
950.207162679985
21
101.686340873552
31
0
0
LINE
8
layer0
10
950.207162679985
20
101.686340873552
30
0
11
949.71593384095
21
96.9997385622706
31
0
0
LINE
8
layer0
10
949.71593384095
20
96.9997385622706
30
0
11
949.71593384095
21
101.329865581193
31
0
0
LINE
8
layer0
10
950.207162679985
20
231.590151441218
30
0
11
950.207162679985
21
106.016467892474
31
0
0
LINE
8
layer0
10
950.207162679985
20
106.016467892474
30
0
11
950.088228979848
21
104.881772797935
31
0
0
LINE
8
layer0
10
950.088228979848
20
104.881772797935
30
0
11
950.088228979848
21
230.455456346679
31
0
0
LINE
8
layer0
10
950.088228979848
20
230.455456346679
30
0
11
950.207162679985
21
231.590151441218
31
0
0
LINE
8
layer0
10
950.088228979848
20
230.455456346679
30
0
11
950.088228979848
21
104.881772797935
31
0
0
LINE
8
layer0
10
950.088228979848
20
104.881772797935
30
0
11
949.71593384095
21
101.329865581193
31
0
0
LINE
8
layer0
10
949.71593384095
20
101.329865581193
30
0
11
949.71593384095
21
226.903549129936
31
0
0
LINE
8
layer0
10
949.71593384095
20
226.903549129936
30
0
11
950.088228979848
21
230.455456346679
31
0
0
LINE
8
layer0
10
952.145226972721
20
96.7967428840706
30
0
11
949.71593384095
21
101.329865581193
31
0
0
LINE
8
layer0
10
949.71593384095
20
101.329865581193
30
0
11
949.71593384095
21
96.9997385622706
31
0
0
LINE
8
layer0
10
949.71593384095
20
96.9997385622706
30
0
11
952.145226972721
21
92.4666158651484
31
0
0
LINE
8
layer0
10
952.145226972721
20
92.4666158651484
30
0
11
952.145226972721
21
96.7967428840706
31
0
0
LINE
8
layer0
10
949.71593384095
20
226.903549129936
30
0
11
949.71593384095
21
101.329865581193
31
0
0
LINE
8
layer0
10
949.71593384095
20
101.329865581193
30
0
11
950.042669092671
21
100.720169301171
31
0
0
LINE
8
layer0
10
950.042669092671
20
100.720169301171
30
0
11
950.042669092671
21
226.293852849914
31
0
0
LINE
8
layer0
10
950.042669092671
20
226.293852849914
30
0
11
949.71593384095
21
226.903549129936
31
0
0
LINE
8
layer0
10
950.042669092671
20
226.293852849914
30
0
11
950.042669092671
21
100.720169301171
31
0
0
LINE
8
layer0
10
950.042669092671
20
100.720169301171
30
0
11
952.145226972721
21
96.7967428840706
31
0
0
LINE
8
layer0
10
952.145226972721
20
96.7967428840706
30
0
11
952.145226972721
21
222.370426432814
31
0
0
LINE
8
layer0
10
952.145226972721
20
222.370426432814
30
0
11
950.042669092671
21
226.293852849914
31
0
0
LINE
8
layer0
10
957.257245937677
20
92.8608334348247
30
0
11
952.145226972721
21
96.7967428840706
31
0
0
LINE
8
layer0
10
952.145226972721
20
96.7967428840706
30
0
11
952.145226972721
21
92.4666158651484
31
0
0
LINE
8
layer0
10
952.145226972721
20
92.4666158651484
30
0
11
957.257245937677
21
88.5307064159025
31
0
0
LINE
8
layer0
10
957.257245937677
20
88.5307064159025
30
0
11
957.257245937677
21
92.8608334348247
31
0
0
LINE
8
layer0
10
952.145226972721
20
222.370426432814
30
0
11
952.145226972721
21
96.7967428840706
31
0
0
LINE
8
layer0
10
952.145226972721
20
96.7967428840706
30
0
11
954.676676511314
21
94.8476976579985
31
0
0
LINE
8
layer0
10
954.676676511314
20
94.8476976579985
30
0
11
954.676676511314
21
220.421381206742
31
0
0
LINE
8
layer0
10
954.676676511314
20
220.421381206742
30
0
11
952.145226972721
21
222.370426432814
31
0
0
LINE
8
layer0
10
954.676676511314
20
220.421381206742
30
0
11
954.676676511314
21
94.8476976579985
31
0
0
LINE
8
layer0
10
954.676676511314
20
94.8476976579985
30
0
11
957.257245937677
21
92.8608334348247
31
0
0
LINE
8
layer0
10
957.257245937677
20
92.8608334348247
30
0
11
957.257245937677
21
218.434516983568
31
0
0
LINE
8
layer0
10
957.257245937677
20
218.434516983568
30
0
11
954.676676511314
21
220.421381206742
31
0
0
LINE
8
layer0
10
964.551590701999
20
89.907411473441
30
0
11
957.257245937677
21
92.8608334348247
31
0
0
LINE
8
layer0
10
957.257245937677
20
92.8608334348247
30
0
11
957.257245937677
21
88.5307064159025
31
0
0
LINE
8
layer0
10
957.257245937677
20
88.5307064159025
30
0
11
964.551590701999
21
85.5772844545188
31
0
0
LINE
8
layer0
10
964.551590701999
20
85.5772844545188
30
0
11
964.551590701999
21
89.907411473441
31
0
0
LINE
8
layer0
10
957.257245937677
20
218.434516983568
30
0
11
957.257245937677
21
92.8608334348247
31
0
0
LINE
8
layer0
10
957.257245937677
20
92.8608334348247
30
0
11
962.771462712482
21
90.628171084918
31
0
0
LINE
8
layer0
10
962.771462712482
20
90.628171084918
30
0
11
962.771462712482
21
216.201854633662
31
0
0
LINE
8
layer0
10
962.771462712482
20
216.201854633662
30
0
11
957.257245937677
21
218.434516983568
31
0
0
LINE
8
layer0
10
962.771462712482
20
216.201854633662
30
0
11
962.771462712482
21
90.628171084918
31
0
0
LINE
8
layer0
10
962.771462712482
20
90.628171084918
30
0
11
964.551590701999
21
89.907411473441
31
0
0
LINE
8
layer0
10
964.551590701999
20
89.907411473441
30
0
11
964.551590701999
21
215.481095022185
31
0
0
LINE
8
layer0
10
964.551590701999
20
215.481095022185
30
0
11
962.771462712482
21
216.201854633662
31
0
0
LINE
8
layer0
10
1254.67010096979
20
6.15741147344102
30
0
11
964.551590701999
21
89.907411473441
31
0
0
LINE
8
layer0
10
964.551590701999
20
89.907411473441
30
0
11
964.551590701999
21
85.5772844545188
31
0
0
LINE
8
layer0
10
964.551590701999
20
85.5772844545188
30
0
11
1254.67010096979
21
1.8272844545188
31
0
0
LINE
8
layer0
10
1254.67010096979
20
1.8272844545188
30
0
11
1254.67010096979
21
6.15741147344102
31
0
0
LINE
8
layer0
10
964.551590701999
20
215.481095022185
30
0
11
964.551590701999
21
89.907411473441
31
0
0
LINE
8
layer0
10
964.551590701999
20
89.907411473441
30
0
11
973.931320301932
21
87.1997167687173
31
0
0
LINE
8
layer0
10
973.931320301932
20
87.1997167687173
30
0
11
973.931320301932
21
212.773400317461
31
0
0
LINE
8
layer0
10
973.931320301932
20
212.773400317461
30
0
11
964.551590701999
21
215.481095022185
31
0
0
LINE
8
layer0
10
973.931320301932
20
212.773400317461
30
0
11
973.931320301932
21
87.1997167687173
31
0
0
LINE
8
layer0
10
973.931320301932
20
87.1997167687173
30
0
11
1007.72567324814
21
77.4441273834254
31
0
0
LINE
8
layer0
10
1007.72567324814
20
77.4441273834254
30
0
11
1007.72567324814
21
203.017810932169
31
0
0
LINE
8
layer0
10
1007.72567324814
20
203.017810932169
30
0
11
973.931320301932
21
212.773400317461
31
0
0
LINE
8
layer0
10
1007.72567324814
20
203.017810932169
30
0
11
1007.72567324814
21
77.4441273834254
31
0
0
LINE
8
layer0
10
1007.72567324814
20
77.4441273834254
30
0
11
1254.67010096979
21
6.15741147344102
31
0
0
LINE
8
layer0
10
1254.67010096979
20
6.15741147344102
30
0
11
1254.67010096979
21
131.731095022185
31
0
0
LINE
8
layer0
10
1254.67010096979
20
131.731095022185
30
0
11
1007.72567324814
21
203.017810932169
31
0
0
LINE
8
layer0
10
1263.43275024525
20
4.47557851920044
30
0
11
1254.67010096979
21
6.15741147344102
31
0
0
LINE
8
layer0
10
1254.67010096979
20
6.15741147344102
30
0
11
1254.67010096979
21
1.8272844545188
31
0
0
LINE
8
layer0
10
1254.67010096979
20
1.8272844545188
30
0
11
1263.43275024525
21
0.145451500278227
31
0
0
LINE
8
layer0
10
1263.43275024525
20
0.145451500278227
30
0
11
1263.43275024525
21
4.47557851920044
31
0
0
LINE
8
layer0
10
1254.67010096979
20
131.731095022185
30
0
11
1254.67010096979
21
6.15741147344102
31
0
0
LINE
8
layer0
10
1254.67010096979
20
6.15741147344102
30
0
11
1263.43275024525
21
4.47557851920044
31
0
0
LINE
8
layer0
10
1263.43275024525
20
4.47557851920044
30
0
11
1263.43275024525
21
130.049262067944
31
0
0
LINE
8
layer0
10
1263.43275024525
20
130.049262067944
30
0
11
1254.67010096979
21
131.731095022185
31
0
0
LINE
8
layer0
10
1272.80595486782
20
4.22996409968357
30
0
11
1263.43275024525
21
4.47557851920044
31
0
0
LINE
8
layer0
10
1263.43275024525
20
4.47557851920044
30
0
11
1263.43275024525
21
0.145451500278227
31
0
0
LINE
8
layer0
10
1263.43275024525
20
0.145451500278227
30
0
11
1272.80595486782
21
-0.100162919238642
31
0
0
LINE
8
layer0
10
1272.80595486782
20
-0.100162919238642
30
0
11
1272.80595486782
21
4.22996409968357
31
0
0
LINE
8
layer0
10
1263.43275024525
20
130.049262067944
30
0
11
1263.43275024525
21
4.47557851920044
31
0
0
LINE
8
layer0
10
1263.43275024525
20
4.47557851920044
30
0
11
1272.80595486782
21
4.22996409968357
31
0
0
LINE
8
layer0
10
1272.80595486782
20
4.22996409968357
30
0
11
1272.80595486782
21
129.803647648427
31
0
0
LINE
8
layer0
10
1272.80595486782
20
129.803647648427
30
0
11
1263.43275024525
21
130.049262067944
31
0
0
LINE
8
layer0
10
1281.87220026206
20
5.44461066556858
30
0
11
1272.80595486782
21
4.22996409968357
31
0
0
LINE
8
layer0
10
1272.80595486782
20
4.22996409968357
30
0
11
1272.80595486782
21
-0.100162919238642
31
0
0
LINE
8
layer0
10
1272.80595486782
20
-0.100162919238642
30
0
11
1281.87220026206
21
1.11448364664636
31
0
0
LINE
8
layer0
10
1281.87220026206
20
1.11448364664636
30
0
11
1281.87220026206
21
5.44461066556858
31
0
0
LINE
8
layer0
10
1272.80595486782
20
129.803647648427
30
0
11
1272.80595486782
21
4.22996409968357
31
0
0
LINE
8
layer0
10
1272.80595486782
20
4.22996409968357
30
0
11
1275.22451627495
21
4.55398988762704
31
0
0
LINE
8
layer0
10
1275.22451627495
20
4.55398988762704
30
0
11
1275.22451627495
21
130.127673436371
31
0
0
LINE
8
layer0
10
1275.22451627495
20
130.127673436371
30
0
11
1272.80595486782
21
129.803647648427
31
0
0
LINE
8
layer0
10
1275.22451627495
20
130.127673436371
30
0
11
1275.22451627495
21
4.55398988762704
31
0
0
LINE
8
layer0
10
1275.22451627495
20
4.55398988762704
30
0
11
1281.87220026206
21
5.44461066556858
31
0
0
LINE
8
layer0
10
1281.87220026206
20
5.44461066556858
30
0
11
1281.87220026206
21
131.018294214312
31
0
0
LINE
8
layer0
10
1281.87220026206
20
131.018294214312
30
0
11
1275.22451627495
21
130.127673436371
31
0
0
LINE
8
layer0
10
1289.74401916055
20
8.00062014804666
30
0
11
1281.87220026206
21
5.44461066556858
31
0
0
LINE
8
layer0
10
1281.87220026206
20
5.44461066556858
30
0
11
1281.87220026206
21
1.11448364664636
31
0
0
LINE
8
layer0
10
1281.87220026206
20
1.11448364664636
30
0
11
1289.74401916055
21
3.67049312912445
31
0
0
LINE
8
layer0
10
1289.74401916055
20
3.67049312912445
30
0
11
1289.74401916055
21
8.00062014804666
31
0
0
LINE
8
layer0
10
1281.87220026206
20
131.018294214312
30
0
11
1281.87220026206
21
5.44461066556858
31
0
0
LINE
8
layer0
10
1281.87220026206
20
5.44461066556858
30
0
11
1282.04166648025
21
5.49963699000887
31
0
0
LINE
8
layer0
10
1282.04166648025
20
5.49963699000887
30
0
11
1282.04166648025
21
131.073320538752
31
0
0
LINE
8
layer0
10
1282.04166648025
20
131.073320538752
30
0
11
1281.87220026206
21
131.018294214312
31
0
0
LINE
8
layer0
10
1282.04166648025
20
131.073320538752
30
0
11
1282.04166648025
21
5.49963699000887
31
0
0
LINE
8
layer0
10
1282.04166648025
20
5.49963699000887
30
0
11
1289.74401916055
21
8.00062014804666
31
0
0
LINE
8
layer0
10
1289.74401916055
20
8.00062014804666
30
0
11
1289.74401916055
21
133.57430369679
31
0
0
LINE
8
layer0
10
1289.74401916055
20
133.57430369679
30
0
11
1282.04166648025
21
131.073320538752
31
0
0
LINE
8
layer0
10
1295.65086308332
20
11.6477925302077
30
0
11
1289.74401916055
21
8.00062014804666
31
0
0
LINE
8
layer0
10
1289.74401916055
20
8.00062014804666
30
0
11
1289.74401916055
21
3.67049312912445
31
0
0
LINE
8
layer0
10
1289.74401916055
20
3.67049312912445
30
0
11
1295.65086308332
21
7.31766551128544
31
0
0
LINE
8
layer0
10
1295.65086308332
20
7.31766551128544
30
0
11
1295.65086308332
21
11.6477925302077
31
0
0
LINE
8
layer0
10
1289.74401916055
20
133.57430369679
30
0
11
1289.74401916055
21
8.00062014804666
31
0
0
LINE
8
layer0
10
1289.74401916055
20
8.00062014804666
30
0
11
1291.0431074425
21
8.80274036078174
31
0
0
LINE
8
layer0
10
1291.0431074425
20
8.80274036078174
30
0
11
1291.0431074425
21
134.376423909525
31
0
0
LINE
8
layer0
10
1291.0431074425
20
134.376423909525
30
0
11
1289.74401916055
21
133.57430369679
31
0
0
LINE
8
layer0
10
1291.0431074425
20
134.376423909525
30
0
11
1291.0431074425
21
8.80274036078174
31
0
0
LINE
8
layer0
10
1291.0431074425
20
8.80274036078174
30
0
11
1295.65086308332
21
11.6477925302077
31
0
0
LINE
8
layer0
10
1295.65086308332
20
11.6477925302077
30
0
11
1295.65086308332
21
137.221476078951
31
0
0
LINE
8
layer0
10
1295.65086308332
20
137.221476078951
30
0
11
1291.0431074425
21
134.376423909525
31
0
0
LINE
8
layer0
10
1437.15086308332
20
134.190387165706
30
0
11
1295.65086308332
21
11.6477925302077
31
0
0
LINE
8
layer0
10
1295.65086308332
20
11.6477925302077
30
0
11
1295.65086308332
21
7.31766551128544
31
0
0
LINE
8
layer0
10
1295.65086308332
20
7.31766551128544
30
0
11
1437.15086308332
21
129.860260146784
31
0
0
LINE
8
layer0
10
1437.15086308332
20
129.860260146784
30
0
11
1437.15086308332
21
134.190387165706
31
0
0
LINE
8
layer0
10
1295.65086308332
20
137.221476078951
30
0
11
1295.65086308332
21
11.6477925302077
31
0
0
LINE
8
layer0
10
1295.65086308332
20
11.6477925302077
30
0
11
1297.19882938331
21
12.9883706702
31
0
0
LINE
8
layer0
10
1297.19882938331
20
12.9883706702
30
0
11
1297.19882938331
21
138.562054218944
31
0
0
LINE
8
layer0
10
1297.19882938331
20
138.562054218944
30
0
11
1295.65086308332
21
137.221476078951
31
0
0
LINE
8
layer0
10
1297.19882938331
20
138.562054218944
30
0
11
1297.19882938331
21
12.9883706702
31
0
0
LINE
8
layer0
10
1297.19882938331
20
12.9883706702
30
0
11
1303.56625249277
21
18.5027208396355
31
0
0
LINE
8
layer0
10
1303.56625249277
20
18.5027208396355
30
0
11
1303.56625249277
21
144.076404388379
31
0
0
LINE
8
layer0
10
1303.56625249277
20
144.076404388379
30
0
11
1297.19882938331
21
138.562054218944
31
0
0
LINE
8
layer0
10
1303.56625249277
20
144.076404388379
30
0
11
1303.56625249277
21
18.5027208396355
31
0
0
LINE
8
layer0
10
1303.56625249277
20
18.5027208396355
30
0
11
1323.07743126335
21
35.3998973127408
31
0
0
LINE
8
layer0
10
1323.07743126335
20
35.3998973127408
30
0
11
1323.07743126335
21
160.973580861484
31
0
0
LINE
8
layer0
10
1323.07743126335
20
160.973580861484
30
0
11
1303.56625249277
21
144.076404388379
31
0
0
LINE
8
layer0
10
1323.07743126335
20
160.973580861484
30
0
11
1323.07743126335
21
35.3998973127408
31
0
0
LINE
8
layer0
10
1323.07743126335
20
35.3998973127408
30
0
11
1437.15086308332
21
134.190387165706
31
0
0
LINE
8
layer0
10
1437.15086308332
20
134.190387165706
30
0
11
1437.15086308332
21
259.764070714449
31
0
0
LINE
8
layer0
10
1437.15086308332
20
259.764070714449
30
0
11
1323.07743126335
21
160.973580861484
31
0
0
LINE
8
layer0
10
1440.5145289918
20
138.571711803439
30
0
11
1437.15086308332
21
134.190387165706
31
0
0
LINE
8
layer0
10
1437.15086308332
20
134.190387165706
30
0
11
1437.15086308332
21
129.860260146784
31
0
0
LINE
8
layer0
10
1437.15086308332
20
129.860260146784
30
0
11
1440.5145289918
21
134.241584784517
31
0
0
LINE
8
layer0
10
1440.5145289918
20
134.241584784517
30
0
11
1440.5145289918
21
138.571711803439
31
0
0
LINE
8
layer0
10
1437.15086308332
20
259.764070714449
30
0
11
1437.15086308332
21
134.190387165706
31
0
0
LINE
8
layer0
10
1437.15086308332
20
134.190387165706
30
0
11
1440.5145289918
21
138.571711803439
31
0
0
LINE
8
layer0
10
1440.5145289918
20
138.571711803439
30
0
11
1440.5145289918
21
264.145395352183
31
0
0
LINE
8
layer0
10
1440.5145289918
20
264.145395352183
30
0
11
1437.15086308332
21
259.764070714449
31
0
0
LINE
8
layer0
10
1441.00575783083
20
143.25831411472
30
0
11
1440.5145289918
21
138.571711803439
31
0
0
LINE
8
layer0
10
1440.5145289918
20
138.571711803439
30
0
11
1440.5145289918
21
134.241584784517
31
0
0
LINE
8
layer0
10
1440.5145289918
20
134.241584784517
30
0
11
1441.00575783083
21
138.928187095798
31
0
0
LINE
8
layer0
10
1441.00575783083
20
138.928187095798
30
0
11
1441.00575783083
21
143.25831411472
31
0
0
LINE
8
layer0
10
1440.5145289918
20
264.145395352183
30
0
11
1440.5145289918
21
138.571711803439
31
0
0
LINE
8
layer0
10
1440.5145289918
20
138.571711803439
30
0
11
1441.00575783083
21
143.25831411472
31
0
0
LINE
8
layer0
10
1441.00575783083
20
143.25831411472
30
0
11
1441.00575783083
21
268.831997663464
31
0
0
LINE
8
layer0
10
1441.00575783083
20
268.831997663464
30
0
11
1440.5145289918
21
264.145395352183
31
0
0
LINE
8
layer0
10
1438.57646469906
20
147.791436811843
30
0
11
1441.00575783083
21
143.25831411472
31
0
0
LINE
8
layer0
10
1441.00575783083
20
143.25831411472
30
0
11
1441.00575783083
21
138.928187095798
31
0
0
LINE
8
layer0
10
1441.00575783083
20
138.928187095798
30
0
11
1438.57646469906
21
143.46130979292
31
0
0
LINE
8
layer0
10
1438.57646469906
20
143.46130979292
30
0
11
1438.57646469906
21
147.791436811843
31
0
0
LINE
8
layer0
10
1441.00575783083
20
268.831997663464
30
0
11
1441.00575783083
21
143.25831411472
31
0
0
LINE
8
layer0
10
1441.00575783083
20
143.25831411472
30
0
11
1440.35770625495
21
144.467594818288
31
0
0
LINE
8
layer0
10
1440.35770625495
20
144.467594818288
30
0
11
1440.35770625495
21
270.041278367032
31
0
0
LINE
8
layer0
10
1440.35770625495
20
270.041278367032
30
0
11
1441.00575783083
21
268.831997663464
31
0
0
LINE
8
layer0
10
1440.35770625495
20
270.041278367032
30
0
11
1440.35770625495
21
144.467594818288
31
0
0
LINE
8
layer0
10
1440.35770625495
20
144.467594818288
30
0
11
1438.84889556019
21
147.283073904204
31
0
0
LINE
8
layer0
10
1438.84889556019
20
147.283073904204
30
0
11
1438.84889556019
21
272.856757452947
31
0
0
LINE
8
layer0
10
1438.84889556019
20
272.856757452947
30
0
11
1440.35770625495
21
270.041278367032
31
0
0
LINE
8
layer0
10
1438.84889556019
20
272.856757452947
30
0
11
1438.84889556019
21
147.283073904204
31
0
0
LINE
8
layer0
10
1438.84889556019
20
147.283073904204
30
0
11
1438.57646469906
21
147.791436811843
31
0
0
LINE
8
layer0
10
1438.57646469906
20
147.791436811843
30
0
11
1438.57646469906
21
273.365120360586
31
0
0
LINE
8
layer0
10
1438.57646469906
20
273.365120360586
30
0
11
1438.84889556019
21
272.856757452947
31
0
0
LINE
8
layer0
10
1433.46444573411
20
151.727346261088
30
0
11
1438.57646469906
21
147.791436811843
31
0
0
LINE
8
layer0
10
1438.57646469906
20
147.791436811843
30
0
11
1438.57646469906
21
143.46130979292
31
0
0
LINE
8
layer0
10
1438.57646469906
20
143.46130979292
30
0
11
1433.46444573411
21
147.397219242166
31
0
0
LINE
8
layer0
10
1433.46444573411
20
147.397219242166
30
0
11
1433.46444573411
21
151.727346261088
31
0
0
LINE
8
layer0
10
1434.70214043433
20
276.348088457446
30
0
11
1434.70214043433
21
150.774404908702
31
0
0
LINE
8
layer0
10
1434.70214043433
20
150.774404908702
30
0
11
1433.46444573411
21
151.727346261088
31
0
0
LINE
8
layer0
10
1433.46444573411
20
151.727346261088
30
0
11
1433.46444573411
21
277.301029809832
31
0
0
LINE
8
layer0
10
1433.46444573411
20
277.301029809832
30
0
11
1434.70214043433
21
276.348088457446
31
0
0
LINE
8
layer0
10
1438.57646469906
20
273.365120360586
30
0
11
1438.57646469906
21
147.791436811843
31
0
0
LINE
8
layer0
10
1438.57646469906
20
147.791436811843
30
0
11
1434.70214043433
21
150.774404908702
31
0
0
LINE
8
layer0
10
1434.70214043433
20
150.774404908702
30
0
11
1434.70214043433
21
276.348088457446
31
0
0
LINE
8
layer0
10
1434.70214043433
20
276.348088457446
30
0
11
1438.57646469906
21
273.365120360586
31
0
0
LINE
8
layer0
10
1426.17010096979
20
154.680768222472
30
0
11
1433.46444573411
21
151.727346261088
31
0
0
LINE
8
layer0
10
1433.46444573411
20
151.727346261088
30
0
11
1433.46444573411
21
147.397219242166
31
0
0
LINE
8
layer0
10
1433.46444573411
20
147.397219242166
30
0
11
1426.17010096979
21
150.35064120355
31
0
0
LINE
8
layer0
10
1426.17010096979
20
150.35064120355
30
0
11
1426.17010096979
21
154.680768222472
31
0
0
LINE
8
layer0
10
1433.46444573411
20
277.301029809832
30
0
11
1433.46444573411
21
151.727346261088
31
0
0
LINE
8
layer0
10
1433.46444573411
20
151.727346261088
30
0
11
1426.17010096979
21
154.680768222472
31
0
0
LINE
8
layer0
10
1426.17010096979
20
154.680768222472
30
0
11
1426.17010096979
21
280.254451771216
31
0
0
LINE
8
layer0
10
1426.17010096979
20
280.254451771216
30
0
11
1433.46444573411
21
277.301029809832
31
0
0
LINE
8
layer0
10
1418.4249104414
20
155.473236467742
30
0
11
1136.96665421146
21
236.723236467742
31
0
0
LINE
8
layer0
10
1136.96665421146
20
236.723236467742
30
0
11
1128.20400493599
21
238.405069421982
31
0
0
LINE
8
layer0
10
1128.20400493599
20
238.405069421982
30
0
11
1118.83080031343
21
238.650683841499
31
0
0
LINE
8
layer0
10
1118.83080031343
20
238.650683841499
30
0
11
1109.76455491919
21
237.436037275614
31
0
0
LINE
8
layer0
10
1109.76455491919
20
237.436037275614
30
0
11
1101.89273602069
21
234.880027793136
31
0
0
LINE
8
layer0
10
1101.89273602069
20
234.880027793136
30
0
11
1095.98589209793
21
231.232855410975
31
0
0
LINE
8
layer0
10
1095.98589209793
20
231.232855410975
30
0
11
959.485892097927
21
113.020387794399
31
0
0
LINE
8
layer0
10
959.485892097927
20
113.020387794399
30
0
11
956.122226189446
21
108.639063156666
31
0
0
LINE
8
layer0
10
956.122226189446
20
108.639063156666
30
0
11
955.630997350411
21
103.952460845384
31
0
0
LINE
8
layer0
10
955.630997350411
20
103.952460845384
30
0
11
958.060290482182
21
99.4193381482622
31
0
0
LINE
8
layer0
10
958.060290482182
20
99.4193381482622
30
0
11
963.172309447138
21
95.4834286990164
31
0
0
LINE
8
layer0
10
963.172309447138
20
95.4834286990164
30
0
11
970.46665421146
21
92.5300067376326
31
0
0
LINE
8
layer0
10
970.46665421146
20
92.5300067376326
30
0
11
1251.9249104414
21
11.2800067376327
31
0
0
LINE
8
layer0
10
1251.9249104414
20
11.2800067376327
30
0
11
1260.68755971687
21
9.5981737833921
31
0
0
LINE
8
layer0
10
1260.68755971687
20
9.5981737833921
30
0
11
1270.06076433943
21
9.35255936387512
31
0
0
LINE
8
layer0
10
1270.06076433943
20
9.35255936387512
30
0
11
1279.12700973368
21
10.5672059297602
31
0
0
LINE
8
layer0
10
1279.12700973368
20
10.5672059297602
30
0
11
1286.99882863217
21
13.1232154122383
31
0
0
LINE
8
layer0
10
1286.99882863217
20
13.1232154122383
30
0
11
1292.90567255494
21
16.7703877943992
31
0
0
LINE
8
layer0
10
1292.90567255494
20
16.7703877943992
30
0
11
1429.40567255494
21
134.982855410975
31
0
0
LINE
8
layer0
10
1429.40567255494
20
134.982855410975
30
0
11
1432.76933846342
21
139.364180048709
31
0
0
LINE
8
layer0
10
1432.76933846342
20
139.364180048709
30
0
11
1433.26056730245
21
144.05078235999
31
0
0
LINE
8
layer0
10
1433.26056730245
20
144.05078235999
30
0
11
1430.83127417068
21
148.583905057112
31
0
0
LINE
8
layer0
10
1430.83127417068
20
148.583905057112
30
0
11
1425.71925520572
21
152.519814506358
31
0
0
LINE
8
layer0
10
1425.71925520572
20
152.519814506358
30
0
11
1418.4249104414
21
155.473236467742
31
0
0
LINE
8
layer0
10
1418.4249104414
20
155.473236467742
30
0
11
1418.4249104414
21
281.046920016485
31
0
0
LINE
8
layer0
10
1418.4249104414
20
281.046920016485
30
0
11
1136.96665421146
21
362.296920016485
31
0
0
LINE
8
layer0
10
1136.96665421146
20
362.296920016485
30
0
11
1136.96665421146
21
236.723236467742
31
0
0
LINE
8
layer0
10
1136.96665421146
20
236.723236467742
30
0
11
1418.4249104414
21
155.473236467742
31
0
0
LINE
8
layer0
10
1136.96665421146
20
236.723236467742
30
0
11
1136.96665421146
21
362.296920016485
31
0
0
LINE
8
layer0
10
1136.96665421146
20
362.296920016485
30
0
11
1128.20400493599
21
363.978752970726
31
0
0
LINE
8
layer0
10
1128.20400493599
20
363.978752970726
30
0
11
1128.20400493599
21
238.405069421982
31
0
0
LINE
8
layer0
10
1128.20400493599
20
238.405069421982
30
0
11
1136.96665421146
21
236.723236467742
31
0
0
LINE
8
layer0
10
1128.20400493599
20
238.405069421982
30
0
11
1128.20400493599
21
363.978752970726
31
0
0
LINE
8
layer0
10
1128.20400493599
20
363.978752970726
30
0
11
1118.83080031343
21
364.224367390243
31
0
0
LINE
8
layer0
10
1118.83080031343
20
364.224367390243
30
0
11
1118.83080031343
21
238.650683841499
31
0
0
LINE
8
layer0
10
1118.83080031343
20
238.650683841499
30
0
11
1128.20400493599
21
238.405069421982
31
0
0
LINE
8
layer0
10
1118.83080031343
20
238.650683841499
30
0
11
1118.83080031343
21
364.224367390243
31
0
0
LINE
8
layer0
10
1118.83080031343
20
364.224367390243
30
0
11
1109.76455491919
21
363.009720824358
31
0
0
LINE
8
layer0
10
1109.76455491919
20
363.009720824358
30
0
11
1109.76455491919
21
237.436037275614
31
0
0
LINE
8
layer0
10
1109.76455491919
20
237.436037275614
30
0
11
1118.83080031343
21
238.650683841499
31
0
0
LINE
8
layer0
10
1109.76455491919
20
237.436037275614
30
0
11
1109.76455491919
21
363.009720824358
31
0
0
LINE
8
layer0
10
1109.76455491919
20
363.009720824358
30
0
11
1101.89273602069
21
360.45371134188
31
0
0
LINE
8
layer0
10
1101.89273602069
20
360.45371134188
30
0
11
1101.89273602069
21
234.880027793136
31
0
0
LINE
8
layer0
10
1101.89273602069
20
234.880027793136
30
0
11
1109.76455491919
21
237.436037275614
31
0
0
LINE
8
layer0
10
1101.89273602069
20
234.880027793136
30
0
11
1101.89273602069
21
360.45371134188
31
0
0
LINE
8
layer0
10
1101.89273602069
20
360.45371134188
30
0
11
1095.98589209793
21
356.806538959719
31
0
0
LINE
8
layer0
10
1095.98589209793
20
356.806538959719
30
0
11
1095.98589209793
21
231.232855410975
31
0
0
LINE
8
layer0
10
1095.98589209793
20
231.232855410975
30
0
11
1101.89273602069
21
234.880027793136
31
0
0
LINE
8
layer0
10
1095.98589209793
20
231.232855410975
30
0
11
1095.98589209793
21
356.806538959719
31
0
0
LINE
8
layer0
10
1095.98589209793
20
356.806538959719
30
0
11
959.485892097927
21
238.594071343143
31
0
0
LINE
8
layer0
10
959.485892097927
20
238.594071343143
30
0
11
959.485892097927
21
113.020387794399
31
0
0
LINE
8
layer0
10
959.485892097927
20
113.020387794399
30
0
11
1095.98589209793
21
231.232855410975
31
0
0
LINE
8
layer0
10
959.485892097927
20
113.020387794399
30
0
11
959.485892097927
21
238.594071343143
31
0
0
LINE
8
layer0
10
959.485892097927
20
238.594071343143
30
0
11
956.122226189446
21
234.212746705409
31
0
0
LINE
8
layer0
10
956.122226189446
20
234.212746705409
30
0
11
956.122226189446
21
108.639063156666
31
0
0
LINE
8
layer0
10
956.122226189446
20
108.639063156666
30
0
11
959.485892097927
21
113.020387794399
31
0
0
LINE
8
layer0
10
956.122226189446
20
108.639063156666
30
0
11
956.122226189446
21
234.212746705409
31
0
0
LINE
8
layer0
10
956.122226189446
20
234.212746705409
30
0
11
955.630997350411
21
229.526144394128
31
0
0
LINE
8
layer0
10
955.630997350411
20
229.526144394128
30
0
11
955.630997350411
21
103.952460845384
31
0
0
LINE
8
layer0
10
955.630997350411
20
103.952460845384
30
0
11
956.122226189446
21
108.639063156666
31
0
0
LINE
8
layer0
10
955.630997350411
20
103.952460845384
30
0
11
955.630997350411
21
229.526144394128
31
0
0
LINE
8
layer0
10
955.630997350411
20
229.526144394128
30
0
11
958.060290482182
21
224.993021697006
31
0
0
LINE
8
layer0
10
958.060290482182
20
224.993021697006
30
0
11
958.060290482182
21
99.4193381482622
31
0
0
LINE
8
layer0
10
958.060290482182
20
99.4193381482622
30
0
11
955.630997350411
21
103.952460845384
31
0
0
LINE
8
layer0
10
958.060290482182
20
99.4193381482622
30
0
11
958.060290482182
21
224.993021697006
31
0
0
LINE
8
layer0
10
958.060290482182
20
224.993021697006
30
0
11
963.172309447138
21
221.05711224776
31
0
0
LINE
8
layer0
10
963.172309447138
20
221.05711224776
30
0
11
963.172309447138
21
95.4834286990164
31
0
0
LINE
8
layer0
10
963.172309447138
20
95.4834286990164
30
0
11
958.060290482182
21
99.4193381482622
31
0
0
LINE
8
layer0
10
963.172309447138
20
95.4834286990164
30
0
11
963.172309447138
21
221.05711224776
31
0
0
LINE
8
layer0
10
963.172309447138
20
221.05711224776
30
0
11
970.46665421146
21
218.103690286376
31
0
0
LINE
8
layer0
10
970.46665421146
20
218.103690286376
30
0
11
970.46665421146
21
92.5300067376326
31
0
0
LINE
8
layer0
10
970.46665421146
20
92.5300067376326
30
0
11
963.172309447138
21
95.4834286990164
31
0
0
LINE
8
layer0
10
970.46665421146
20
92.5300067376326
30
0
11
970.46665421146
21
218.103690286376
31
0
0
LINE
8
layer0
10
970.46665421146
20
218.103690286376
30
0
11
1251.9249104414
21
136.853690286376
31
0
0
LINE
8
layer0
10
1251.9249104414
20
136.853690286376
30
0
11
1251.9249104414
21
11.2800067376327
31
0
0
LINE
8
layer0
10
1251.9249104414
20
11.2800067376327
30
0
11
970.46665421146
21
92.5300067376326
31
0
0
LINE
8
layer0
10
1251.9249104414
20
11.2800067376327
30
0
11
1251.9249104414
21
136.853690286376
31
0
0
LINE
8
layer0
10
1251.9249104414
20
136.853690286376
30
0
11
1260.68755971687
21
135.171857332136
31
0
0
LINE
8
layer0
10
1260.68755971687
20
135.171857332136
30
0
11
1260.68755971687
21
9.5981737833921
31
0
0
LINE
8
layer0
10
1260.68755971687
20
9.5981737833921
30
0
11
1251.9249104414
21
11.2800067376327
31
0
0
LINE
8
layer0
10
1260.68755971687
20
9.5981737833921
30
0
11
1260.68755971687
21
135.171857332136
31
0
0
LINE
8
layer0
10
1260.68755971687
20
135.171857332136
30
0
11
1270.06076433943
21
134.926242912619
31
0
0
LINE
8
layer0
10
1270.06076433943
20
134.926242912619
30
0
11
1270.06076433943
21
9.35255936387512
31
0
0
LINE
8
layer0
10
1270.06076433943
20
9.35255936387512
30
0
11
1260.68755971687
21
9.5981737833921
31
0
0
LINE
8
layer0
10
1270.06076433943
20
9.35255936387512
30
0
11
1270.06076433943
21
134.926242912619
31
0
0
LINE
8
layer0
10
1270.06076433943
20
134.926242912619
30
0
11
1279.12700973368
21
136.140889478504
31
0
0
LINE
8
layer0
10
1279.12700973368
20
136.140889478504
30
0
11
1279.12700973368
21
10.5672059297602
31
0
0
LINE
8
layer0
10
1279.12700973368
20
10.5672059297602
30
0
11
1270.06076433943
21
9.35255936387512
31
0
0
LINE
8
layer0
10
1279.12700973368
20
10.5672059297602
30
0
11
1279.12700973368
21
136.140889478504
31
0
0
LINE
8
layer0
10
1279.12700973368
20
136.140889478504
30
0
11
1286.99882863217
21
138.696898960982
31
0
0
LINE
8
layer0
10
1286.99882863217
20
138.696898960982
30
0
11
1286.99882863217
21
13.1232154122383
31
0
0
LINE
8
layer0
10
1286.99882863217
20
13.1232154122383
30
0
11
1279.12700973368
21
10.5672059297602
31
0
0
LINE
8
layer0
10
1286.99882863217
20
13.1232154122383
30
0
11
1286.99882863217
21
138.696898960982
31
0
0
LINE
8
layer0
10
1286.99882863217
20
138.696898960982
30
0
11
1292.90567255494
21
142.344071343143
31
0
0
LINE
8
layer0
10
1292.90567255494
20
142.344071343143
30
0
11
1292.90567255494
21
16.7703877943992
31
0
0
LINE
8
layer0
10
1292.90567255494
20
16.7703877943992
30
0
11
1286.99882863217
21
13.1232154122383
31
0
0
LINE
8
layer0
10
1292.90567255494
20
16.7703877943992
30
0
11
1292.90567255494
21
142.344071343143
31
0
0
LINE
8
layer0
10
1292.90567255494
20
142.344071343143
30
0
11
1429.40567255494
21
260.556538959719
31
0
0
LINE
8
layer0
10
1429.40567255494
20
260.556538959719
30
0
11
1429.40567255494
21
134.982855410975
31
0
0
LINE
8
layer0
10
1429.40567255494
20
134.982855410975
30
0
11
1292.90567255494
21
16.7703877943992
31
0
0
LINE
8
layer0
10
1429.40567255494
20
134.982855410975
30
0
11
1429.40567255494
21
260.556538959719
31
0
0
LINE
8
layer0
10
1429.40567255494
20
260.556538959719
30
0
11
1432.76933846342
21
264.937863597452
31
0
0
LINE
8
layer0
10
1432.76933846342
20
264.937863597452
30
0
11
1432.76933846342
21
139.364180048709
31
0
0
LINE
8
layer0
10
1432.76933846342
20
139.364180048709
30
0
11
1429.40567255494
21
134.982855410975
31
0
0
LINE
8
layer0
10
1432.76933846342
20
139.364180048709
30
0
11
1432.76933846342
21
264.937863597452
31
0
0
LINE
8
layer0
10
1432.76933846342
20
264.937863597452
30
0
11
1433.26056730245
21
269.624465908734
31
0
0
LINE
8
layer0
10
1433.26056730245
20
269.624465908734
30
0
11
1433.26056730245
21
144.05078235999
31
0
0
LINE
8
layer0
10
1433.26056730245
20
144.05078235999
30
0
11
1432.76933846342
21
139.364180048709
31
0
0
LINE
8
layer0
10
1433.26056730245
20
144.05078235999
30
0
11
1433.26056730245
21
269.624465908734
31
0
0
LINE
8
layer0
10
1433.26056730245
20
269.624465908734
30
0
11
1430.83127417068
21
274.157588605856
31
0
0
LINE
8
layer0
10
1430.83127417068
20
274.157588605856
30
0
11
1430.83127417068
21
148.583905057112
31
0
0
LINE
8
layer0
10
1430.83127417068
20
148.583905057112
30
0
11
1433.26056730245
21
144.05078235999
31
0
0
LINE
8
layer0
10
1430.83127417068
20
148.583905057112
30
0
11
1430.83127417068
21
274.157588605856
31
0
0
LINE
8
layer0
10
1430.83127417068
20
274.157588605856
30
0
11
1425.71925520572
21
278.093498055102
31
0
0
LINE
8
layer0
10
1425.71925520572
20
278.093498055102
30
0
11
1425.71925520572
21
152.519814506358
31
0
0
LINE
8
layer0
10
1425.71925520572
20
152.519814506358
30
0
11
1430.83127417068
21
148.583905057112
31
0
0
LINE
8
layer0
10
1425.71925520572
20
152.519814506358
30
0
11
1425.71925520572
21
278.093498055102
31
0
0
LINE
8
layer0
10
1425.71925520572
20
278.093498055102
30
0
11
1418.4249104414
21
281.046920016485
31
0
0
LINE
8
layer0
10
1418.4249104414
20
281.046920016485
30
0
11
1418.4249104414
21
155.473236467742
31
0
0
LINE
8
layer0
10
1418.4249104414
20
155.473236467742
30
0
11
1425.71925520572
21
152.519814506358
31
0
0
LINE
8
layer0
10
1426.17010096979
20
280.254451771216
30
0
11
1136.051590702
21
364.004451771216
31
0
0
LINE
8
layer0
10
1136.051590702
20
364.004451771216
30
0
11
1127.28894142653
21
365.686284725456
31
0
0
LINE
8
layer0
10
1127.28894142653
20
365.686284725456
30
0
11
1125.01955123745
21
365.745751575524
31
0
0
LINE
8
layer0
10
1125.01955123745
20
365.745751575524
30
0
11
1434.70214043433
21
276.348088457446
31
0
0
LINE
8
layer0
10
1434.70214043433
20
276.348088457446
30
0
11
1433.46444573411
21
277.301029809832
31
0
0
LINE
8
layer0
10
1433.46444573411
20
277.301029809832
30
0
11
1426.17010096979
21
280.254451771216
31
0
0
LINE
8
layer0
10
1118.04547872147
20
365.928499402085
30
0
11
1136.96665421146
21
362.296920016485
31
0
0
LINE
8
layer0
10
1136.96665421146
20
362.296920016485
30
0
11
1125.01955123745
21
365.745751575524
31
0
0
LINE
8
layer0
10
1125.01955123745
20
365.745751575524
30
0
11
1118.04547872147
21
365.928499402085
31
0
0
LINE
8
layer0
10
1108.19024089762
20
364.503191434899
30
0
11
1128.20400493599
21
363.978752970726
31
0
0
LINE
8
layer0
10
1128.20400493599
20
363.978752970726
30
0
11
1118.04547872147
21
365.928499402085
31
0
0
LINE
8
layer0
10
1118.04547872147
20
365.928499402085
30
0
11
1117.91573680397
21
365.931899144973
31
0
0
LINE
8
layer0
10
1117.91573680397
20
365.931899144973
30
0
11
1108.84949140972
21
364.717252579088
31
0
0
LINE
8
layer0
10
1108.84949140972
20
364.717252579088
30
0
11
1108.19024089762
21
364.503191434899
31
0
0
LINE
8
layer0
10
1100.29771597364
20
361.741404899191
30
0
11
1118.83080031343
21
364.224367390243
31
0
0
LINE
8
layer0
10
1118.83080031343
20
364.224367390243
30
0
11
1108.19024089762
21
364.503191434899
31
0
0
LINE
8
layer0
10
1108.19024089762
20
364.503191434899
30
0
11
1100.97767251123
21
362.16124309661
31
0
0
LINE
8
layer0
10
1100.97767251123
20
362.16124309661
30
0
11
1100.29771597364
21
361.741404899191
31
0
0
LINE
8
layer0
10
1094.56196544278
20
358.073382303237
30
0
11
1109.76455491919
21
363.009720824358
31
0
0
LINE
8
layer0
10
1109.76455491919
20
363.009720824358
30
0
11
1100.29771597364
21
361.741404899191
31
0
0
LINE
8
layer0
10
1100.29771597364
20
361.741404899191
30
0
11
1095.07082858847
21
358.514070714449
31
0
0
LINE
8
layer0
10
1095.07082858847
20
358.514070714449
30
0
11
1094.56196544278
21
358.073382303237
31
0
0
LINE
8
layer0
10
1085.92863919512
20
350.596702453605
30
0
11
1101.89273602069
21
360.45371134188
31
0
0
LINE
8
layer0
10
1101.89273602069
20
360.45371134188
30
0
11
1094.56196544278
21
358.073382303237
31
0
0
LINE
8
layer0
10
1094.56196544278
20
358.073382303237
30
0
11
1085.92863919512
21
350.596702453605
31
0
0
LINE
8
layer0
10
950.088228979848
20
230.455456346679
30
0
11
1095.98589209793
21
356.806538959719
31
0
0
LINE
8
layer0
10
1095.98589209793
20
356.806538959719
30
0
11
1085.92863919512
21
350.596702453605
31
0
0
LINE
8
layer0
10
1085.92863919512
20
350.596702453605
30
0
11
953.570828588465
21
235.971476078951
31
0
0
LINE
8
layer0
10
953.570828588465
20
235.971476078951
30
0
11
950.207162679985
21
231.590151441218
31
0
0
LINE
8
layer0
10
950.207162679985
20
231.590151441218
30
0
11
950.088228979848
21
230.455456346679
31
0
0
LINE
8
layer0
10
950.042669092671
20
226.293852849914
30
0
11
959.485892097927
21
238.594071343143
31
0
0
LINE
8
layer0
10
959.485892097927
20
238.594071343143
30
0
11
950.088228979848
21
230.455456346679
31
0
0
LINE
8
layer0
10
950.088228979848
20
230.455456346679
30
0
11
949.71593384095
21
226.903549129936
31
0
0
LINE
8
layer0
10
949.71593384095
20
226.903549129936
30
0
11
950.042669092671
21
226.293852849914
31
0
0
LINE
8
layer0
10
954.676676511314
20
220.421381206742
30
0
11
956.122226189446
21
234.212746705409
31
0
0
LINE
8
layer0
10
956.122226189446
20
234.212746705409
30
0
11
950.042669092671
21
226.293852849914
31
0
0
LINE
8
layer0
10
950.042669092671
20
226.293852849914
30
0
11
952.145226972721
21
222.370426432814
31
0
0
LINE
8
layer0
10
952.145226972721
20
222.370426432814
30
0
11
954.676676511314
21
220.421381206742
31
0
0
LINE
8
layer0
10
962.771462712482
20
216.201854633662
30
0
11
955.630997350411
21
229.526144394128
31
0
0
LINE
8
layer0
10
955.630997350411
20
229.526144394128
30
0
11
954.676676511314
21
220.421381206742
31
0
0
LINE
8
layer0
10
954.676676511314
20
220.421381206742
30
0
11
957.257245937677
21
218.434516983568
31
0
0
LINE
8
layer0
10
957.257245937677
20
218.434516983568
30
0
11
962.771462712482
21
216.201854633662
31
0
0
LINE
8
layer0
10
973.931320301932
20
212.773400317461
30
0
11
958.060290482182
21
224.993021697006
31
0
0
LINE
8
layer0
10
958.060290482182
20
224.993021697006
30
0
11
962.771462712482
21
216.201854633662
31
0
0
LINE
8
layer0
10
962.771462712482
20
216.201854633662
30
0
11
964.551590701999
21
215.481095022185
31
0
0
LINE
8
layer0
10
964.551590701999
20
215.481095022185
30
0
11
973.931320301932
21
212.773400317461
31
0
0
LINE
8
layer0
10
1007.72567324814
20
203.017810932169
30
0
11
963.172309447138
21
221.05711224776
31
0
0
LINE
8
layer0
10
963.172309447138
20
221.05711224776
30
0
11
973.931320301932
21
212.773400317461
31
0
0
LINE
8
layer0
10
973.931320301932
20
212.773400317461
30
0
11
1007.72567324814
21
203.017810932169
31
0
0
LINE
8
layer0
10
1275.22451627495
20
130.127673436371
30
0
11
970.46665421146
21
218.103690286376
31
0
0
LINE
8
layer0
10
970.46665421146
20
218.103690286376
30
0
11
1007.72567324814
21
203.017810932169
31
0
0
LINE
8
layer0
10
1007.72567324814
20
203.017810932169
30
0
11
1254.67010096979
21
131.731095022185
31
0
0
LINE
8
layer0
10
1254.67010096979
20
131.731095022185
30
0
11
1263.43275024525
21
130.049262067944
31
0
0
LINE
8
layer0
10
1263.43275024525
20
130.049262067944
30
0
11
1272.80595486782
21
129.803647648427
31
0
0
LINE
8
layer0
10
1272.80595486782
20
129.803647648427
30
0
11
1275.22451627495
21
130.127673436371
31
0
0
LINE
8
layer0
10
1282.04166648025
20
131.073320538752
30
0
11
1251.9249104414
21
136.853690286376
31
0
0
LINE
8
layer0
10
1251.9249104414
20
136.853690286376
30
0
11
1275.22451627495
21
130.127673436371
31
0
0
LINE
8
layer0
10
1275.22451627495
20
130.127673436371
30
0
11
1281.87220026206
21
131.018294214312
31
0
0
LINE
8
layer0
10
1281.87220026206
20
131.018294214312
30
0
11
1282.04166648025
21
131.073320538752
31
0
0
LINE
8
layer0
10
1291.0431074425
20
134.376423909525
30
0
11
1260.68755971687
21
135.171857332136
31
0
0
LINE
8
layer0
10
1260.68755971687
20
135.171857332136
30
0
11
1282.04166648025
21
131.073320538752
31
0
0
LINE
8
layer0
10
1282.04166648025
20
131.073320538752
30
0
11
1289.74401916055
21
133.57430369679
31
0
0
LINE
8
layer0
10
1289.74401916055
20
133.57430369679
30
0
11
1291.0431074425
21
134.376423909525
31
0
0
LINE
8
layer0
10
1297.19882938331
20
138.562054218944
30
0
11
1270.06076433943
21
134.926242912619
31
0
0
LINE
8
layer0
10
1270.06076433943
20
134.926242912619
30
0
11
1291.0431074425
21
134.376423909525
31
0
0
LINE
8
layer0
10
1291.0431074425
20
134.376423909525
30
0
11
1295.65086308332
21
137.221476078951
31
0
0
LINE
8
layer0
10
1295.65086308332
20
137.221476078951
30
0
11
1297.19882938331
21
138.562054218944
31
0
0
LINE
8
layer0
10
1303.56625249277
20
144.076404388379
30
0
11
1279.12700973368
21
136.140889478504
31
0
0
LINE
8
layer0
10
1279.12700973368
20
136.140889478504
30
0
11
1297.19882938331
21
138.562054218944
31
0
0
LINE
8
layer0
10
1297.19882938331
20
138.562054218944
30
0
11
1303.56625249277
21
144.076404388379
31
0
0
LINE
8
layer0
10
1323.07743126335
20
160.973580861484
30
0
11
1286.99882863217
21
138.696898960982
31
0
0
LINE
8
layer0
10
1286.99882863217
20
138.696898960982
30
0
11
1303.56625249277
21
144.076404388379
31
0
0
LINE
8
layer0
10
1303.56625249277
20
144.076404388379
30
0
11
1323.07743126335
21
160.973580861484
31
0
0
LINE
8
layer0
10
1440.35770625495
20
270.041278367032
30
0
11
1292.90567255494
21
142.344071343143
31
0
0
LINE
8
layer0
10
1292.90567255494
20
142.344071343143
30
0
11
1323.07743126335
21
160.973580861484
31
0
0
LINE
8
layer0
10
1323.07743126335
20
160.973580861484
30
0
11
1437.15086308332
21
259.764070714449
31
0
0
LINE
8
layer0
10
1437.15086308332
20
259.764070714449
30
0
11
1440.5145289918
21
264.145395352183
31
0
0
LINE
8
layer0
10
1440.5145289918
20
264.145395352183
30
0
11
1441.00575783083
21
268.831997663464
31
0
0
LINE
8
layer0
10
1441.00575783083
20
268.831997663464
30
0
11
1440.35770625495
21
270.041278367032
31
0
0
LINE
8
layer0
10
1438.84889556019
20
272.856757452947
30
0
11
1429.40567255494
21
260.556538959719
31
0
0
LINE
8
layer0
10
1429.40567255494
20
260.556538959719
30
0
11
1440.35770625495
21
270.041278367032
31
0
0
LINE
8
layer0
10
1440.35770625495
20
270.041278367032
30
0
11
1438.84889556019
21
272.856757452947
31
0
0
LINE
8
layer0
10
1434.70214043433
20
276.348088457446
30
0
11
1433.98694760651
21
276.554546843277
31
0
0
LINE
8
layer0
10
1433.98694760651
20
276.554546843277
30
0
11
1432.76933846342
21
264.937863597452
31
0
0
LINE
8
layer0
10
1432.76933846342
20
264.937863597452
30
0
11
1438.84889556019
21
272.856757452947
31
0
0
LINE
8
layer0
10
1438.84889556019
20
272.856757452947
30
0
11
1438.57646469906
21
273.365120360586
31
0
0
LINE
8
layer0
10
1438.57646469906
20
273.365120360586
30
0
11
1434.70214043433
21
276.348088457446
31
0
0
LINE
8
layer0
10
1428.73413521818
20
278.07090316648
30
0
11
1433.26056730245
21
269.624465908734
31
0
0
LINE
8
layer0
10
1433.26056730245
20
269.624465908734
30
0
11
1433.98694760651
21
276.554546843277
31
0
0
LINE
8
layer0
10
1433.98694760651
20
276.554546843277
30
0
11
1428.73413521818
21
278.07090316648
31
0
0
LINE
8
layer0
10
1423.95777351719
20
279.449720023387
30
0
11
1430.83127417068
21
274.157588605856
31
0
0
LINE
8
layer0
10
1430.83127417068
20
274.157588605856
30
0
11
1428.73413521818
21
278.07090316648
31
0
0
LINE
8
layer0
10
1428.73413521818
20
278.07090316648
30
0
11
1423.95777351719
21
279.449720023387
31
0
0
LINE
8
layer0
10
1418.4249104414
20
281.046920016485
30
0
11
1425.71925520572
21
278.093498055102
31
0
0
LINE
8
layer0
10
1425.71925520572
20
278.093498055102
30
0
11
1423.95777351719
21
279.449720023387
31
0
0
LINE
8
layer0
10
1423.95777351719
20
279.449720023387
30
0
11
1418.4249104414
21
281.046920016485
31
0
0
ENDBLK
0
BLOCK
8
layer0
2
PF_OBJECT41
70
0
10
0
20
0
30
0
0
LINE
8
layer0
10
576.772918920436
20
1071.91632741175
30
0
11
562.916512459885
21
1075.91632741175
31
0
0
LINE
8
layer0
10
562.916512459885
20
1075.91632741175
30
0
11
562.916512459885
21
1693.39244031005
31
0
0
LINE
8
layer0
10
562.916512459885
20
1693.39244031005
30
0
11
576.772918920436
21
1689.39244031005
31
0
0
LINE
8
layer0
10
576.772918920436
20
1689.39244031005
30
0
11
576.772918920436
21
1071.91632741175
31
0
0
LINE
8
layer0
10
402.416512459885
20
936.919250104345
30
0
11
416.272918920436
21
932.919250104345
31
0
0
LINE
8
layer0
10
416.272918920436
20
932.919250104345
30
0
11
416.272918920436
21
1550.39536300265
31
0
0
LINE
8
layer0
10
416.272918920436
20
1550.39536300265
30
0
11
402.416512459885
21
1554.39536300265
31
0
0
LINE
8
layer0
10
402.416512459885
20
1554.39536300265
30
0
11
402.416512459885
21
936.919250104345
31
0
0
LINE
8
layer0
10
562.916512459885
20
1075.91632741175
30
0
11
402.416512459885
21
936.919250104345
31
0
0
LINE
8
layer0
10
402.416512459885
20
936.919250104345
30
0
11
402.416512459885
21
1554.39536300265
31
0
0
LINE
8
layer0
10
402.416512459885
20
1554.39536300265
30
0
11
562.916512459885
21
1693.39244031005
31
0
0
LINE
8
layer0
10
562.916512459885
20
1693.39244031005
30
0
11
562.916512459885
21
1075.91632741175
31
0
0
LINE
8
layer0
10
416.272918920436
20
932.919250104345
30
0
11
576.772918920436
21
1071.91632741175
31
0
0
LINE
8
layer0
10
576.772918920436
20
1071.91632741175
30
0
11
576.772918920436
21
1689.39244031005
31
0
0
LINE
8
layer0
10
576.772918920436
20
1689.39244031005
30
0
11
416.272918920436
21
1550.39536300265
31
0
0
LINE
8
layer0
10
416.272918920436
20
1550.39536300265
30
0
11
416.272918920436
21
932.919250104345
31
0
0
LINE
8
layer0
10
576.772918920436
20
1689.39244031005
30
0
11
562.916512459885
21
1693.39244031005
31
0
0
LINE
8
layer0
10
562.916512459885
20
1693.39244031005
30
0
11
402.416512459885
21
1554.39536300265
31
0
0
LINE
8
layer0
10
402.416512459885
20
1554.39536300265
30
0
11
416.272918920436
21
1550.39536300265
31
0
0
LINE
8
layer0
10
416.272918920436
20
1550.39536300265
30
0
11
576.772918920436
21
1689.39244031005
31
0
0
LINE
8
layer0
10
562.916512459885
20
1075.91632741175
30
0
11
576.772918920436
21
1071.91632741175
31
0
0
LINE
8
layer0
10
576.772918920436
20
1071.91632741175
30
0
11
416.272918920436
21
932.919250104345
31
0
0
LINE
8
layer0
10
416.272918920436
20
932.919250104345
30
0
11
402.416512459885
21
936.919250104345
31
0
0
LINE
8
layer0
10
402.416512459885
20
936.919250104345
30
0
11
562.916512459885
21
1075.91632741175
31
0
0
ENDBLK
0
BLOCK
8
layer0
2
PF_OBJECT42
70
0
10
0
20
0
30
0
0
LINE
8
layer0
10
1082.53175473055
20
925.916327411747
30
0
11
1068.67534827
21
929.916327411747
31
0
0
LINE
8
layer0
10
1068.67534827
20
929.916327411747
30
0
11
1068.67534827
21
1547.39244031005
31
0
0
LINE
8
layer0
10
1068.67534827
20
1547.39244031005
30
0
11
1082.53175473055
21
1543.39244031005
31
0
0
LINE
8
layer0
10
1082.53175473055
20
1543.39244031005
30
0
11
1082.53175473055
21
925.916327411747
31
0
0
LINE
8
layer0
10
908.175348269997
20
790.919250104345
30
0
11
922.031754730548
21
786.919250104345
31
0
0
LINE
8
layer0
10
922.031754730548
20
786.919250104345
30
0
11
922.031754730548
21
1404.39536300265
31
0
0
LINE
8
layer0
10
922.031754730548
20
1404.39536300265
30
0
11
908.175348269997
21
1408.39536300265
31
0
0
LINE
8
layer0
10
908.175348269997
20
1408.39536300265
30
0
11
908.175348269997
21
790.919250104345
31
0
0
LINE
8
layer0
10
1068.67534827
20
929.916327411747
30
0
11
908.175348269997
21
790.919250104345
31
0
0
LINE
8
layer0
10
908.175348269997
20
790.919250104345
30
0
11
908.175348269997
21
1408.39536300265
31
0
0
LINE
8
layer0
10
908.175348269997
20
1408.39536300265
30
0
11
1068.67534827
21
1547.39244031005
31
0
0
LINE
8
layer0
10
1068.67534827
20
1547.39244031005
30
0
11
1068.67534827
21
929.916327411747
31
0
0
LINE
8
layer0
10
922.031754730548
20
786.919250104345
30
0
11
1082.53175473055
21
925.916327411747
31
0
0
LINE
8
layer0
10
1082.53175473055
20
925.916327411747
30
0
11
1082.53175473055
21
1543.39244031005
31
0
0
LINE
8
layer0
10
1082.53175473055
20
1543.39244031005
30
0
11
922.031754730548
21
1404.39536300265
31
0
0
LINE
8
layer0
10
922.031754730548
20
1404.39536300265
30
0
11
922.031754730548
21
786.919250104345
31
0
0
LINE
8
layer0
10
1082.53175473055
20
1543.39244031005
30
0
11
1068.67534827
21
1547.39244031005
31
0
0
LINE
8
layer0
10
1068.67534827
20
1547.39244031005
30
0
11
908.175348269997
21
1408.39536300265
31
0
0
LINE
8
layer0
10
908.175348269997
20
1408.39536300265
30
0
11
922.031754730548
21
1404.39536300265
31
0
0
LINE
8
layer0
10
922.031754730548
20
1404.39536300265
30
0
11
1082.53175473055
21
1543.39244031005
31
0
0
LINE
8
layer0
10
1068.67534827
20
929.916327411747
30
0
11
1082.53175473055
21
925.916327411747
31
0
0
LINE
8
layer0
10
1082.53175473055
20
925.916327411747
30
0
11
922.031754730548
21
786.919250104345
31
0
0
LINE
8
layer0
10
922.031754730548
20
786.919250104345
30
0
11
908.175348269997
21
790.919250104345
31
0
0
LINE
8
layer0
10
908.175348269997
20
790.919250104345
30
0
11
1068.67534827
21
929.916327411747
31
0
0
ENDBLK
0
BLOCK
8
layer0
2
PF_OBJECT43
70
0
10
0
20
0
30
0
0
LINE
8
layer0
10
1056.67534827
20
919.524022566334
30
0
11
564.772918920436
21
1061.52402256633
31
0
0
LINE
8
layer0
10
564.772918920436
20
1061.52402256633
30
0
11
564.772918920436
21
1075.38042902688
31
0
0
LINE
8
layer0
10
564.772918920436
20
1075.38042902688
30
0
11
1056.67534827
21
933.380429026885
31
0
0
LINE
8
layer0
10
1056.67534827
20
933.380429026885
30
0
11
1056.67534827
21
919.524022566334
31
0
0
LINE
8
layer0
10
416.772918920436
20
933.352262806237
30
0
11
908.675348269997
21
791.352262806237
31
0
0
LINE
8
layer0
10
908.675348269997
20
791.352262806237
30
0
11
908.675348269997
21
805.208669266788
31
0
0
LINE
8
layer0
10
908.675348269997
20
805.208669266788
30
0
11
416.772918920436
21
947.208669266788
31
0
0
LINE
8
layer0
10
416.772918920436
20
947.208669266788
30
0
11
416.772918920436
21
933.352262806237
31
0
0
LINE
8
layer0
10
564.772918920436
20
1061.52402256633
30
0
11
416.772918920436
21
933.352262806237
31
0
0
LINE
8
layer0
10
416.772918920436
20
933.352262806237
30
0
11
416.772918920436
21
947.208669266788
31
0
0
LINE
8
layer0
10
416.772918920436
20
947.208669266788
30
0
11
564.772918920436
21
1075.38042902688
31
0
0
LINE
8
layer0
10
564.772918920436
20
1075.38042902688
30
0
11
564.772918920436
21
1061.52402256633
31
0
0
LINE
8
layer0
10
908.675348269997
20
791.352262806237
30
0
11
1056.67534827
21
919.524022566334
31
0
0
LINE
8
layer0
10
1056.67534827
20
919.524022566334
30
0
11
1056.67534827
21
933.380429026885
31
0
0
LINE
8
layer0
10
1056.67534827
20
933.380429026885
30
0
11
908.675348269997
21
805.208669266788
31
0
0
LINE
8
layer0
10
908.675348269997
20
805.208669266788
30
0
11
908.675348269997
21
791.352262806237
31
0
0
LINE
8
layer0
10
1056.67534827
20
933.380429026885
30
0
11
564.772918920436
21
1075.38042902688
31
0
0
LINE
8
layer0
10
564.772918920436
20
1075.38042902688
30
0
11
416.772918920436
21
947.208669266788
31
0
0
LINE
8
layer0
10
416.772918920436
20
947.208669266788
30
0
11
908.675348269997
21
805.208669266788
31
0
0
LINE
8
layer0
10
908.675348269997
20
805.208669266788
30
0
11
1056.67534827
21
933.380429026885
31
0
0
LINE
8
layer0
10
564.772918920436
20
1061.52402256633
30
0
11
1056.67534827
21
919.524022566334
31
0
0
LINE
8
layer0
10
1056.67534827
20
919.524022566334
30
0
11
908.675348269997
21
791.352262806237
31
0
0
LINE
8
layer0
10
908.675348269997
20
791.352262806237
30
0
11
416.772918920436
21
933.352262806237
31
0
0
LINE
8
layer0
10
416.772918920436
20
933.352262806237
30
0
11
564.772918920436
21
1061.52402256633
31
0
0
ENDBLK
0
BLOCK
8
layer0
2
PF_OBJECT44
70
0
10
0
20
0
30
0
0
LINE
8
layer0
10
1058.67534827
20
921.256073373903
30
0
11
566.772918920436
21
1063.2560733739
31
0
0
LINE
8
layer0
10
566.772918920436
20
1063.2560733739
30
0
11
566.772918920436
21
1680.73218627221
31
0
0
LINE
8
layer0
10
566.772918920436
20
1680.73218627221
30
0
11
1058.67534827
21
1538.73218627221
31
0
0
LINE
8
layer0
10
1058.67534827
20
1538.73218627221
30
0
11
1058.67534827
21
921.256073373903
31
0
0
LINE
8
layer0
10
564.772918920436
20
1061.52402256633
30
0
11
1056.67534827
21
919.524022566334
31
0
0
LINE
8
layer0
10
1056.67534827
20
919.524022566334
30
0
11
1056.67534827
21
1537.00013546464
31
0
0
LINE
8
layer0
10
1056.67534827
20
1537.00013546464
30
0
11
564.772918920436
21
1679.00013546464
31
0
0
LINE
8
layer0
10
564.772918920436
20
1679.00013546464
30
0
11
564.772918920436
21
1061.52402256633
31
0
0
LINE
8
layer0
10
566.772918920436
20
1063.2560733739
30
0
11
564.772918920436
21
1061.52402256633
31
0
0
LINE
8
layer0
10
564.772918920436
20
1061.52402256633
30
0
11
564.772918920436
21
1679.00013546464
31
0
0
LINE
8
layer0
10
564.772918920436
20
1679.00013546464
30
0
11
566.772918920436
21
1680.73218627221
31
0
0
LINE
8
layer0
10
566.772918920436
20
1680.73218627221
30
0
11
566.772918920436
21
1063.2560733739
31
0
0
LINE
8
layer0
10
1056.67534827
20
919.524022566334
30
0
11
1058.67534827
21
921.256073373903
31
0
0
LINE
8
layer0
10
1058.67534827
20
921.256073373903
30
0
11
1058.67534827
21
1538.73218627221
31
0
0
LINE
8
layer0
10
1058.67534827
20
1538.73218627221
30
0
11
1056.67534827
21
1537.00013546464
31
0
0
LINE
8
layer0
10
1056.67534827
20
1537.00013546464
30
0
11
1056.67534827
21
919.524022566334
31
0
0
LINE
8
layer0
10
1058.67534827
20
1538.73218627221
30
0
11
566.772918920436
21
1680.73218627221
31
0
0
LINE
8
layer0
10
566.772918920436
20
1680.73218627221
30
0
11
564.772918920436
21
1679.00013546464
31
0
0
LINE
8
layer0
10
564.772918920436
20
1679.00013546464
30
0
11
1056.67534827
21
1537.00013546464
31
0
0
LINE
8
layer0
10
1056.67534827
20
1537.00013546464
30
0
11
1058.67534827
21
1538.73218627221
31
0
0
LINE
8
layer0
10
566.772918920436
20
1063.2560733739
30
0
11
1058.67534827
21
921.256073373903
31
0
0
LINE
8
layer0
10
1058.67534827
20
921.256073373903
30
0
11
1056.67534827
21
919.524022566334
31
0
0
LINE
8
layer0
10
1056.67534827
20
919.524022566334
30
0
11
564.772918920436
21
1061.52402256633
31
0
0
LINE
8
layer0
10
564.772918920436
20
1061.52402256633
30
0
11
566.772918920436
21
1063.2560733739
31
0
0
ENDBLK
0
BLOCK
8
layer0
2
PF_OBJECT45
70
0
10
0
20
0
30
0
0
LINE
8
layer0
10
1056.67534827
20
1523.14372900409
30
0
11
564.772918920436
21
1665.14372900409
31
0
0
LINE
8
layer0
10
564.772918920436
20
1665.14372900409
30
0
11
564.772918920436
21
1679.00013546464
31
0
0
LINE
8
layer0
10
564.772918920436
20
1679.00013546464
30
0
11
1056.67534827
21
1537.00013546464
31
0
0
LINE
8
layer0
10
1056.67534827
20
1537.00013546464
30
0
11
1056.67534827
21
1523.14372900409
31
0
0
LINE
8
layer0
10
416.772918920436
20
1536.97196924399
30
0
11
908.675348269997
21
1394.97196924399
31
0
0
LINE
8
layer0
10
908.675348269997
20
1394.97196924399
30
0
11
908.675348269997
21
1408.82837570454
31
0
0
LINE
8
layer0
10
908.675348269997
20
1408.82837570454
30
0
11
416.772918920436
21
1550.82837570454
31
0
0
LINE
8
layer0
10
416.772918920436
20
1550.82837570454
30
0
11
416.772918920436
21
1536.97196924399
31
0
0
LINE
8
layer0
10
564.772918920436
20
1665.14372900409
30
0
11
416.772918920436
21
1536.97196924399
31
0
0
LINE
8
layer0
10
416.772918920436
20
1536.97196924399
30
0
11
416.772918920436
21
1550.82837570454
31
0
0
LINE
8
layer0
10
416.772918920436
20
1550.82837570454
30
0
11
564.772918920436
21
1679.00013546464
31
0
0
LINE
8
layer0
10
564.772918920436
20
1679.00013546464
30
0
11
564.772918920436
21
1665.14372900409
31
0
0
LINE
8
layer0
10
908.675348269997
20
1394.97196924399
30
0
11
1056.67534827
21
1523.14372900409
31
0
0
LINE
8
layer0
10
1056.67534827
20
1523.14372900409
30
0
11
1056.67534827
21
1537.00013546464
31
0
0
LINE
8
layer0
10
1056.67534827
20
1537.00013546464
30
0
11
908.675348269997
21
1408.82837570454
31
0
0
LINE
8
layer0
10
908.675348269997
20
1408.82837570454
30
0
11
908.675348269997
21
1394.97196924399
31
0
0
LINE
8
layer0
10
1056.67534827
20
1537.00013546464
30
0
11
564.772918920436
21
1679.00013546464
31
0
0
LINE
8
layer0
10
564.772918920436
20
1679.00013546464
30
0
11
416.772918920436
21
1550.82837570454
31
0
0
LINE
8
layer0
10
416.772918920436
20
1550.82837570454
30
0
11
908.675348269997
21
1408.82837570454
31
0
0
LINE
8
layer0
10
908.675348269997
20
1408.82837570454
30
0
11
1056.67534827
21
1537.00013546464
31
0
0
LINE
8
layer0
10
564.772918920436
20
1665.14372900409
30
0
11
1056.67534827
21
1523.14372900409
31
0
0
LINE
8
layer0
10
1056.67534827
20
1523.14372900409
30
0
11
908.675348269997
21
1394.97196924399
31
0
0
LINE
8
layer0
10
908.675348269997
20
1394.97196924399
30
0
11
416.772918920436
21
1536.97196924399
31
0
0
LINE
8
layer0
10
416.772918920436
20
1536.97196924399
30
0
11
564.772918920436
21
1665.14372900409
31
0
0
ENDBLK
0
BLOCK
8
layer0
2
PF_OBJECT46
70
0
10
0
20
0
30
0
0
LINE
8
layer0
10
403.014588671239
20
938.767326315698
30
0
11
917.433678519195
21
790.267326315698
31
0
0
LINE
8
layer0
10
917.433678519195
20
790.267326315698
30
0
11
917.433678519195
21
788.535275508129
31
0
0
LINE
8
layer0
10
917.433678519195
20
788.535275508129
30
0
11
403.014588671239
21
937.035275508129
31
0
0
LINE
8
layer0
10
403.014588671239
20
937.035275508129
30
0
11
403.014588671239
21
938.767326315698
31
0
0
LINE
8
layer0
10
917.433678519195
20
790.267326315698
30
0
11
907.433678519195
21
781.607072277854
31
0
0
LINE
8
layer0
10
907.433678519195
20
781.607072277854
30
0
11
907.433678519195
21
779.875021470285
31
0
0
LINE
8
layer0
10
907.433678519195
20
779.875021470285
30
0
11
917.433678519195
21
788.535275508129
31
0
0
LINE
8
layer0
10
917.433678519195
20
788.535275508129
30
0
11
917.433678519195
21
790.267326315698
31
0
0
LINE
8
layer0
10
393.014588671239
20
928.375021470285
30
0
11
393.014588671239
21
930.107072277854
31
0
0
LINE
8
layer0
10
393.014588671239
20
930.107072277854
30
0
11
403.014588671239
21
938.767326315698
31
0
0
LINE
8
layer0
10
403.014588671239
20
938.767326315698
30
0
11
403.014588671239
21
937.035275508129
31
0
0
LINE
8
layer0
10
403.014588671239
20
937.035275508129
30
0
11
393.014588671239
21
928.375021470285
31
0
0
LINE
8
layer0
10
917.433678519195
20
790.267326315698
30
0
11
403.014588671239
21
938.767326315698
31
0
0
LINE
8
layer0
10
403.014588671239
20
938.767326315698
30
0
11
393.014588671239
21
930.107072277854
31
0
0
LINE
8
layer0
10
393.014588671239
20
930.107072277854
30
0
11
907.433678519195
21
781.607072277854
31
0
0
LINE
8
layer0
10
907.433678519195
20
781.607072277854
30
0
11
917.433678519195
21
790.267326315698
31
0
0
LINE
8
layer0
10
839.311900254284
20
792.611881749471
30
0
11
846.811900254284
21
799.107072277854
31
0
0
LINE
8
layer0
10
846.811900254284
20
799.107072277854
30
0
11
453.636366936149
21
912.607072277854
31
0
0
LINE
8
layer0
10
453.636366936149
20
912.607072277854
30
0
11
446.136366936149
21
906.111881749471
31
0
0
LINE
8
layer0
10
446.136366936149
20
906.111881749471
30
0
11
839.311900254284
21
792.611881749471
31
0
0
LINE
8
layer0
10
907.433678519195
20
781.607072277854
30
0
11
846.811900254284
21
799.107072277854
31
0
0
LINE
8
layer0
10
846.811900254284
20
799.107072277854
30
0
11
846.811900254284
21
797.375021470285
31
0
0
LINE
8
layer0
10
846.811900254284
20
797.375021470285
30
0
11
907.433678519195
21
779.875021470285
31
0
0
LINE
8
layer0
10
907.433678519195
20
779.875021470285
30
0
11
907.433678519195
21
781.607072277854
31
0
0
LINE
8
layer0
10
453.636366936149
20
912.607072277854
30
0
11
393.014588671239
21
930.107072277854
31
0
0
LINE
8
layer0
10
393.014588671239
20
930.107072277854
30
0
11
393.014588671239
21
928.375021470285
31
0
0
LINE
8
layer0
10
393.014588671239
20
928.375021470285
30
0
11
453.636366936149
21
910.875021470285
31
0
0
LINE
8
layer0
10
453.636366936149
20
910.875021470285
30
0
11
453.636366936149
21
912.607072277854
31
0
0
LINE
8
layer0
10
846.811900254284
20
799.107072277854
30
0
11
839.311900254284
21
792.611881749471
31
0
0
LINE
8
layer0
10
839.311900254284
20
792.611881749471
30
0
11
839.311900254284
21
790.879830941902
31
0
0
LINE
8
layer0
10
839.311900254284
20
790.879830941902
30
0
11
846.811900254284
21
797.375021470285
31
0
0
LINE
8
layer0
10
846.811900254284
20
797.375021470285
30
0
11
846.811900254284
21
799.107072277854
31
0
0
LINE
8
layer0
10
446.136366936149
20
904.379830941902
30
0
11
446.136366936149
21
906.111881749471
31
0
0
LINE
8
layer0
10
446.136366936149
20
906.111881749471
30
0
11
453.636366936149
21
912.607072277854
31
0
0
LINE
8
layer0
10
453.636366936149
20
912.607072277854
30
0
11
453.636366936149
21
910.875021470285
31
0
0
LINE
8
layer0
10
453.636366936149
20
910.875021470285
30
0
11
446.136366936149
21
904.379830941902
31
0
0
LINE
8
layer0
10
403.014588671239
20
937.035275508129
30
0
11
917.433678519195
21
788.535275508129
31
0
0
LINE
8
layer0
10
917.433678519195
20
788.535275508129
30
0
11
907.433678519195
21
779.875021470285
31
0
0
LINE
8
layer0
10
907.433678519195
20
779.875021470285
30
0
11
393.014588671239
21
928.375021470285
31
0
0
LINE
8
layer0
10
393.014588671239
20
928.375021470285
30
0
11
403.014588671239
21
937.035275508129
31
0
0
LINE
8
layer0
10
446.136366936149
20
904.379830941902
30
0
11
453.636366936149
21
910.875021470285
31
0
0
LINE
8
layer0
10
453.636366936149
20
910.875021470285
30
0
11
846.811900254284
21
797.375021470285
31
0
0
LINE
8
layer0
10
846.811900254284
20
797.375021470285
30
0
11
839.311900254284
21
790.879830941902
31
0
0
LINE
8
layer0
10
839.311900254284
20
790.879830941902
30
0
11
446.136366936149
21
904.379830941902
31
0
0
LINE
8
layer0
10
838.311900254284
20
800.40611038353
30
0
11
839.311900254284
21
801.272135787315
31
0
0
LINE
8
layer0
10
839.311900254284
20
801.272135787315
30
0
11
446.136366936149
21
914.772135787315
31
0
0
LINE
8
layer0
10
446.136366936149
20
914.772135787315
30
0
11
445.136366936149
21
913.90611038353
31
0
0
LINE
8
layer0
10
445.136366936149
20
913.90611038353
30
0
11
838.311900254284
21
800.40611038353
31
0
0
LINE
8
layer0
10
839.311900254284
20
790.879830941902
30
0
11
839.311900254284
21
801.272135787315
31
0
0
LINE
8
layer0
10
839.311900254284
20
801.272135787315
30
0
11
838.311900254284
21
800.40611038353
31
0
0
LINE
8
layer0
10
838.311900254284
20
800.40611038353
30
0
11
838.311900254284
21
790.013805538117
31
0
0
LINE
8
layer0
10
838.311900254284
20
790.013805538117
30
0
11
839.311900254284
21
790.879830941902
31
0
0
LINE
8
layer0
10
445.136366936149
20
903.513805538117
30
0
11
445.136366936149
21
913.90611038353
31
0
0
LINE
8
layer0
10
445.136366936149
20
913.90611038353
30
0
11
446.136366936149
21
914.772135787315
31
0
0
LINE
8
layer0
10
446.136366936149
20
914.772135787315
30
0
11
446.136366936149
21
904.379830941902
31
0
0
LINE
8
layer0
10
446.136366936149
20
904.379830941902
30
0
11
445.136366936149
21
903.513805538117
31
0
0
LINE
8
layer0
10
445.136366936149
20
903.513805538117
30
0
11
446.136366936149
21
904.379830941902
31
0
0
LINE
8
layer0
10
446.136366936149
20
904.379830941902
30
0
11
839.311900254284
21
790.879830941902
31
0
0
LINE
8
layer0
10
839.311900254284
20
790.879830941902
30
0
11
838.311900254284
21
790.013805538117
31
0
0
LINE
8
layer0
10
838.311900254284
20
790.013805538117
30
0
11
445.136366936149
21
903.513805538117
31
0
0
LINE
8
layer0
10
838.311900254284
20
790.013805538117
30
0
11
838.311900254284
21
800.40611038353
31
0
0
LINE
8
layer0
10
838.311900254284
20
800.40611038353
30
0
11
445.136366936149
21
913.90611038353
31
0
0
LINE
8
layer0
10
445.136366936149
20
913.90611038353
30
0
11
445.136366936149
21
903.513805538117
31
0
0
LINE
8
layer0
10
445.136366936149
20
903.513805538117
30
0
11
838.311900254284
21
790.013805538117
31
0
0
ENDBLK
0
BLOCK
8
layer0
2
PF_OBJECT47
70
0
10
0
20
0
30
0
0
LINE
8
layer0
10
917.933678519195
20
790.70033901759
30
0
11
403.514588671239
21
939.20033901759
31
0
0
LINE
8
layer0
10
403.514588671239
20
939.20033901759
30
0
11
403.514588671239
21
1549.74824868562
31
0
0
LINE
8
layer0
10
403.514588671239
20
1549.74824868562
30
0
11
917.933678519195
21
1401.24824868562
31
0
0
LINE
8
layer0
10
917.933678519195
20
1401.24824868562
30
0
11
917.933678519195
21
790.70033901759
31
0
0
LINE
8
layer0
10
393.514588671239
20
930.540084979746
30
0
11
907.933678519195
21
782.040084979746
31
0
0
LINE
8
layer0
10
907.933678519195
20
782.040084979746
30
0
11
907.933678519195
21
1392.58799464778
31
0
0
LINE
8
layer0
10
907.933678519195
20
1392.58799464778
30
0
11
393.514588671239
21
1541.08799464778
31
0
0
LINE
8
layer0
10
393.514588671239
20
1541.08799464778
30
0
11
393.514588671239
21
930.540084979746
31
0
0
LINE
8
layer0
10
403.514588671239
20
939.20033901759
30
0
11
393.514588671239
21
930.540084979746
31
0
0
LINE
8
layer0
10
393.514588671239
20
930.540084979746
30
0
11
393.514588671239
21
1541.08799464778
31
0
0
LINE
8
layer0
10
393.514588671239
20
1541.08799464778
30
0
11
403.514588671239
21
1549.74824868562
31
0
0
LINE
8
layer0
10
403.514588671239
20
1549.74824868562
30
0
11
403.514588671239
21
939.20033901759
31
0
0
LINE
8
layer0
10
907.933678519195
20
782.040084979746
30
0
11
917.933678519195
21
790.70033901759
31
0
0
LINE
8
layer0
10
917.933678519195
20
790.70033901759
30
0
11
917.933678519195
21
1401.24824868562
31
0
0
LINE
8
layer0
10
917.933678519195
20
1401.24824868562
30
0
11
907.933678519195
21
1392.58799464778
31
0
0
LINE
8
layer0
10
907.933678519195
20
1392.58799464778
30
0
11
907.933678519195
21
782.040084979746
31
0
0
LINE
8
layer0
10
917.933678519195
20
1401.24824868562
30
0
11
403.514588671239
21
1549.74824868562
31
0
0
LINE
8
layer0
10
403.514588671239
20
1549.74824868562
30
0
11
393.514588671239
21
1541.08799464778
31
0
0
LINE
8
layer0
10
393.514588671239
20
1541.08799464778
30
0
11
907.933678519195
21
1392.58799464778
31
0
0
LINE
8
layer0
10
907.933678519195
20
1392.58799464778
30
0
11
917.933678519195
21
1401.24824868562
31
0
0
LINE
8
layer0
10
403.514588671239
20
939.20033901759
30
0
11
917.933678519195
21
790.70033901759
31
0
0
LINE
8
layer0
10
917.933678519195
20
790.70033901759
30
0
11
907.933678519195
21
782.040084979746
31
0
0
LINE
8
layer0
10
907.933678519195
20
782.040084979746
30
0
11
393.514588671239
21
930.540084979746
31
0
0
LINE
8
layer0
10
393.514588671239
20
930.540084979746
30
0
11
403.514588671239
21
939.20033901759
31
0
0
ENDBLK
0
BLOCK
8
layer0
70
0
10
0
20
0
30
0
2
PF_SKETCH48
0
LINE
8
layer0
10
562.916512459885
20
1693.39244031005
30
0
11
922.031754730548
21
1404.39536300265
31
0
0
ENDBLK
0
BLOCK
8
layer0
70
0
10
0
20
0
30
0
2
PF_SKETCH49
0
LINE
8
layer0
10
402.416512459885
20
1554.39536300265
30
0
11
1082.53175473055
21
1543.39244031005
31
0
0
ENDBLK
0
BLOCK
8
layer0
2
PF_OBJECT50
70
0
10
0
20
0
30
0
0
LINE
8
layer0
10
1096.3881611911
20
921.916327411747
30
0
11
1082.53175473055
21
925.916327411747
31
0
0
LINE
8
layer0
10
1082.53175473055
20
925.916327411747
30
0
11
1082.53175473055
21
1543.39244031005
31
0
0
LINE
8
layer0
10
1082.53175473055
20
1543.39244031005
30
0
11
1096.3881611911
21
1539.39244031005
31
0
0
LINE
8
layer0
10
1096.3881611911
20
1539.39244031005
30
0
11
1096.3881611911
21
921.916327411747
31
0
0
LINE
8
layer0
10
922.031754730548
20
786.919250104345
30
0
11
935.888161191099
21
782.919250104345
31
0
0
LINE
8
layer0
10
935.888161191099
20
782.919250104345
30
0
11
935.888161191099
21
1400.39536300265
31
0
0
LINE
8
layer0
10
935.888161191099
20
1400.39536300265
30
0
11
922.031754730548
21
1404.39536300265
31
0
0
LINE
8
layer0
10
922.031754730548
20
1404.39536300265
30
0
11
922.031754730548
21
786.919250104345
31
0
0
LINE
8
layer0
10
1082.53175473055
20
925.916327411747
30
0
11
922.031754730548
21
786.919250104345
31
0
0
LINE
8
layer0
10
922.031754730548
20
786.919250104345
30
0
11
922.031754730548
21
1404.39536300265
31
0
0
LINE
8
layer0
10
922.031754730548
20
1404.39536300265
30
0
11
1082.53175473055
21
1543.39244031005
31
0
0
LINE
8
layer0
10
1082.53175473055
20
1543.39244031005
30
0
11
1082.53175473055
21
925.916327411747
31
0
0
LINE
8
layer0
10
935.888161191099
20
782.919250104345
30
0
11
1096.3881611911
21
921.916327411747
31
0
0
LINE
8
layer0
10
1096.3881611911
20
921.916327411747
30
0
11
1096.3881611911
21
1539.39244031005
31
0
0
LINE
8
layer0
10
1096.3881611911
20
1539.39244031005
30
0
11
935.888161191099
21
1400.39536300265
31
0
0
LINE
8
layer0
10
935.888161191099
20
1400.39536300265
30
0
11
935.888161191099
21
782.919250104345
31
0
0
LINE
8
layer0
10
1096.3881611911
20
1539.39244031005
30
0
11
1082.53175473055
21
1543.39244031005
31
0
0
LINE
8
layer0
10
1082.53175473055
20
1543.39244031005
30
0
11
922.031754730548
21
1404.39536300265
31
0
0
LINE
8
layer0
10
922.031754730548
20
1404.39536300265
30
0
11
935.888161191099
21
1400.39536300265
31
0
0
LINE
8
layer0
10
935.888161191099
20
1400.39536300265
30
0
11
1096.3881611911
21
1539.39244031005
31
0
0
LINE
8
layer0
10
1082.53175473055
20
925.916327411747
30
0
11
1096.3881611911
21
921.916327411747
31
0
0
LINE
8
layer0
10
1096.3881611911
20
921.916327411747
30
0
11
935.888161191099
21
782.919250104345
31
0
0
LINE
8
layer0
10
935.888161191099
20
782.919250104345
30
0
11
922.031754730548
21
786.919250104345
31
0
0
LINE
8
layer0
10
922.031754730548
20
786.919250104345
30
0
11
1082.53175473055
21
925.916327411747
31
0
0
ENDBLK
0
BLOCK
8
layer0
2
PF_OBJECT51
70
0
10
0
20
0
30
0
0
LINE
8
layer0
10
2121.76223927187
20
625.916327411747
30
0
11
2107.90583281132
21
629.916327411747
31
0
0
LINE
8
layer0
10
2107.90583281132
20
629.916327411747
30
0
11
2107.90583281132
21
1247.39244031005
31
0
0
LINE
8
layer0
10
2107.90583281132
20
1247.39244031005
30
0
11
2121.76223927187
21
1243.39244031005
31
0
0
LINE
8
layer0
10
2121.76223927187
20
1243.39244031005
30
0
11
2121.76223927187
21
625.916327411747
31
0
0
LINE
8
layer0
10
1947.40583281132
20
490.919250104345
30
0
11
1961.26223927187
21
486.919250104345
31
0
0
LINE
8
layer0
10
1961.26223927187
20
486.919250104345
30
0
11
1961.26223927187
21
1104.39536300265
31
0
0
LINE
8
layer0
10
1961.26223927187
20
1104.39536300265
30
0
11
1947.40583281132
21
1108.39536300265
31
0
0
LINE
8
layer0
10
1947.40583281132
20
1108.39536300265
30
0
11
1947.40583281132
21
490.919250104345
31
0
0
LINE
8
layer0
10
2107.90583281132
20
629.916327411747
30
0
11
1947.40583281132
21
490.919250104345
31
0
0
LINE
8
layer0
10
1947.40583281132
20
490.919250104345
30
0
11
1947.40583281132
21
1108.39536300265
31
0
0
LINE
8
layer0
10
1947.40583281132
20
1108.39536300265
30
0
11
2107.90583281132
21
1247.39244031005
31
0
0
LINE
8
layer0
10
2107.90583281132
20
1247.39244031005
30
0
11
2107.90583281132
21
629.916327411747
31
0
0
LINE
8
layer0
10
1961.26223927187
20
486.919250104345
30
0
11
2121.76223927187
21
625.916327411747
31
0
0
LINE
8
layer0
10
2121.76223927187
20
625.916327411747
30
0
11
2121.76223927187
21
1243.39244031005
31
0
0
LINE
8
layer0
10
2121.76223927187
20
1243.39244031005
30
0
11
1961.26223927187
21
1104.39536300265
31
0
0
LINE
8
layer0
10
1961.26223927187
20
1104.39536300265
30
0
11
1961.26223927187
21
486.919250104345
31
0
0
LINE
8
layer0
10
2121.76223927187
20
1243.39244031005
30
0
11
2107.90583281132
21
1247.39244031005
31
0
0
LINE
8
layer0
10
2107.90583281132
20
1247.39244031005
30
0
11
1947.40583281132
21
1108.39536300265
31
0
0
LINE
8
layer0
10
1947.40583281132
20
1108.39536300265
30
0
11
1961.26223927187
21
1104.39536300265
31
0
0
LINE
8
layer0
10
1961.26223927187
20
1104.39536300265
30
0
11
2121.76223927187
21
1243.39244031005
31
0
0
LINE
8
layer0
10
2107.90583281132
20
629.916327411747
30
0
11
2121.76223927187
21
625.916327411747
31
0
0
LINE
8
layer0
10
2121.76223927187
20
625.916327411747
30
0
11
1961.26223927187
21
486.919250104345
31
0
0
LINE
8
layer0
10
1961.26223927187
20
486.919250104345
30
0
11
1947.40583281132
21
490.919250104345
31
0
0
LINE
8
layer0
10
1947.40583281132
20
490.919250104345
30
0
11
2107.90583281132
21
629.916327411747
31
0
0
ENDBLK
0
BLOCK
8
layer0
2
PF_OBJECT52
70
0
10
0
20
0
30
0
0
LINE
8
layer0
10
2095.90583281132
20
619.524022566334
30
0
11
1084.3881611911
21
911.524022566334
31
0
0
LINE
8
layer0
10
1084.3881611911
20
911.524022566334
30
0
11
1084.3881611911
21
925.380429026885
31
0
0
LINE
8
layer0
10
1084.3881611911
20
925.380429026885
30
0
11
2095.90583281132
21
633.380429026885
31
0
0
LINE
8
layer0
10
2095.90583281132
20
633.380429026885
30
0
11
2095.90583281132
21
619.524022566334
31
0
0
LINE
8
layer0
10
936.388161191099
20
783.352262806237
30
0
11
1947.90583281132
21
491.352262806237
31
0
0
LINE
8
layer0
10
1947.90583281132
20
491.352262806237
30
0
11
1947.90583281132
21
505.208669266788
31
0
0
LINE
8
layer0
10
1947.90583281132
20
505.208669266788
30
0
11
936.388161191099
21
797.208669266788
31
0
0
LINE
8
layer0
10
936.388161191099
20
797.208669266788
30
0
11
936.388161191099
21
783.352262806237
31
0
0
LINE
8
layer0
10
1084.3881611911
20
911.524022566334
30
0
11
936.388161191099
21
783.352262806237
31
0
0
LINE
8
layer0
10
936.388161191099
20
783.352262806237
30
0
11
936.388161191099
21
797.208669266788
31
0
0
LINE
8
layer0
10
936.388161191099
20
797.208669266788
30
0
11
1084.3881611911
21
925.380429026885
31
0
0
LINE
8
layer0
10
1084.3881611911
20
925.380429026885
30
0
11
1084.3881611911
21
911.524022566334
31
0
0
LINE
8
layer0
10
1947.90583281132
20
491.352262806237
30
0
11
2095.90583281132
21
619.524022566334
31
0
0
LINE
8
layer0
10
2095.90583281132
20
619.524022566334
30
0
11
2095.90583281132
21
633.380429026885
31
0
0
LINE
8
layer0
10
2095.90583281132
20
633.380429026885
30
0
11
1947.90583281132
21
505.208669266788
31
0
0
LINE
8
layer0
10
1947.90583281132
20
505.208669266788
30
0
11
1947.90583281132
21
491.352262806237
31
0
0
LINE
8
layer0
10
2095.90583281132
20
633.380429026885
30
0
11
1084.3881611911
21
925.380429026885
31
0
0
LINE
8
layer0
10
1084.3881611911
20
925.380429026885
30
0
11
936.388161191099
21
797.208669266788
31
0
0
LINE
8
layer0
10
936.388161191099
20
797.208669266788
30
0
11
1947.90583281132
21
505.208669266788
31
0
0
LINE
8
layer0
10
1947.90583281132
20
505.208669266788
30
0
11
2095.90583281132
21
633.380429026885
31
0
0
LINE
8
layer0
10
1084.3881611911
20
911.524022566334
30
0
11
2095.90583281132
21
619.524022566334
31
0
0
LINE
8
layer0
10
2095.90583281132
20
619.524022566334
30
0
11
1947.90583281132
21
491.352262806237
31
0
0
LINE
8
layer0
10
1947.90583281132
20
491.352262806237
30
0
11
936.388161191099
21
783.352262806237
31
0
0
LINE
8
layer0
10
936.388161191099
20
783.352262806237
30
0
11
1084.3881611911
21
911.524022566334
31
0
0
ENDBLK
0
BLOCK
8
layer0
2
PF_OBJECT53
70
0
10
0
20
0
30
0
0
LINE
8
layer0
10
2097.90583281132
20
621.256073373903
30
0
11
1086.3881611911
21
913.256073373903
31
0
0
LINE
8
layer0
10
1086.3881611911
20
913.256073373903
30
0
11
1086.3881611911
21
1530.73218627221
31
0
0
LINE
8
layer0
10
1086.3881611911
20
1530.73218627221
30
0
11
2097.90583281132
21
1238.73218627221
31
0
0
LINE
8
layer0
10
2097.90583281132
20
1238.73218627221
30
0
11
2097.90583281132
21
621.256073373903
31
0
0
LINE
8
layer0
10
1084.3881611911
20
911.524022566334
30
0
11
2095.90583281132
21
619.524022566334
31
0
0
LINE
8
layer0
10
2095.90583281132
20
619.524022566334
30
0
11
2095.90583281132
21
1237.00013546464
31
0
0
LINE
8
layer0
10
2095.90583281132
20
1237.00013546464
30
0
11
1084.3881611911
21
1529.00013546464
31
0
0
LINE
8
layer0
10
1084.3881611911
20
1529.00013546464
30
0
11
1084.3881611911
21
911.524022566334
31
0
0
LINE
8
layer0
10
1086.3881611911
20
913.256073373903
30
0
11
1084.3881611911
21
911.524022566334
31
0
0
LINE
8
layer0
10
1084.3881611911
20
911.524022566334
30
0
11
1084.3881611911
21
1529.00013546464
31
0
0
LINE
8
layer0
10
1084.3881611911
20
1529.00013546464
30
0
11
1086.3881611911
21
1530.73218627221
31
0
0
LINE
8
layer0
10
1086.3881611911
20
1530.73218627221
30
0
11
1086.3881611911
21
913.256073373903
31
0
0
LINE
8
layer0
10
2095.90583281132
20
619.524022566334
30
0
11
2097.90583281132
21
621.256073373903
31
0
0
LINE
8
layer0
10
2097.90583281132
20
621.256073373903
30
0
11
2097.90583281132
21
1238.73218627221
31
0
0
LINE
8
layer0
10
2097.90583281132
20
1238.73218627221
30
0
11
2095.90583281132
21
1237.00013546464
31
0
0
LINE
8
layer0
10
2095.90583281132
20
1237.00013546464
30
0
11
2095.90583281132
21
619.524022566334
31
0
0
LINE
8
layer0
10
2097.90583281132
20
1238.73218627221
30
0
11
1086.3881611911
21
1530.73218627221
31
0
0
LINE
8
layer0
10
1086.3881611911
20
1530.73218627221
30
0
11
1084.3881611911
21
1529.00013546464
31
0
0
LINE
8
layer0
10
1084.3881611911
20
1529.00013546464
30
0
11
2095.90583281132
21
1237.00013546464
31
0
0
LINE
8
layer0
10
2095.90583281132
20
1237.00013546464
30
0
11
2097.90583281132
21
1238.73218627221
31
0
0
LINE
8
layer0
10
1086.3881611911
20
913.256073373903
30
0
11
2097.90583281132
21
621.256073373903
31
0
0
LINE
8
layer0
10
2097.90583281132
20
621.256073373903
30
0
11
2095.90583281132
21
619.524022566334
31
0
0
LINE
8
layer0
10
2095.90583281132
20
619.524022566334
30
0
11
1084.3881611911
21
911.524022566334
31
0
0
LINE
8
layer0
10
1084.3881611911
20
911.524022566334
30
0
11
1086.3881611911
21
913.256073373903
31
0
0
ENDBLK
0
BLOCK
8
layer0
2
PF_OBJECT54
70
0
10
0
20
0
30
0
0
LINE
8
layer0
10
2095.90583281132
20
1223.14372900409
30
0
11
1084.3881611911
21
1515.14372900409
31
0
0
LINE
8
layer0
10
1084.3881611911
20
1515.14372900409
30
0
11
1084.3881611911
21
1529.00013546464
31
0
0
LINE
8
layer0
10
1084.3881611911
20
1529.00013546464
30
0
11
2095.90583281132
21
1237.00013546464
31
0
0
LINE
8
layer0
10
2095.90583281132
20
1237.00013546464
30
0
11
2095.90583281132
21
1223.14372900409
31
0
0
LINE
8
layer0
10
936.388161191099
20
1386.97196924399
30
0
11
1947.90583281132
21
1094.97196924399
31
0
0
LINE
8
layer0
10
1947.90583281132
20
1094.97196924399
30
0
11
1947.90583281132
21
1108.82837570454
31
0
0
LINE
8
layer0
10
1947.90583281132
20
1108.82837570454
30
0
11
936.388161191099
21
1400.82837570454
31
0
0
LINE
8
layer0
10
936.388161191099
20
1400.82837570454
30
0
11
936.388161191099
21
1386.97196924399
31
0
0
LINE
8
layer0
10
1084.3881611911
20
1515.14372900409
30
0
11
936.388161191099
21
1386.97196924399
31
0
0
LINE
8
layer0
10
936.388161191099
20
1386.97196924399
30
0
11
936.388161191099
21
1400.82837570454
31
0
0
LINE
8
layer0
10
936.388161191099
20
1400.82837570454
30
0
11
1084.3881611911
21
1529.00013546464
31
0
0
LINE
8
layer0
10
1084.3881611911
20
1529.00013546464
30
0
11
1084.3881611911
21
1515.14372900409
31
0
0
LINE
8
layer0
10
1947.90583281132
20
1094.97196924399
30
0
11
2095.90583281132
21
1223.14372900409
31
0
0
LINE
8
layer0
10
2095.90583281132
20
1223.14372900409
30
0
11
2095.90583281132
21
1237.00013546464
31
0
0
LINE
8
layer0
10
2095.90583281132
20
1237.00013546464
30
0
11
1947.90583281132
21
1108.82837570454
31
0
0
LINE
8
layer0
10
1947.90583281132
20
1108.82837570454
30
0
11
1947.90583281132
21
1094.97196924399
31
0
0
LINE
8
layer0
10
2095.90583281132
20
1237.00013546464
30
0
11
1084.3881611911
21
1529.00013546464
31
0
0
LINE
8
layer0
10
1084.3881611911
20
1529.00013546464
30
0
11
936.388161191099
21
1400.82837570454
31
0
0
LINE
8
layer0
10
936.388161191099
20
1400.82837570454
30
0
11
1947.90583281132
21
1108.82837570454
31
0
0
LINE
8
layer0
10
1947.90583281132
20
1108.82837570454
30
0
11
2095.90583281132
21
1237.00013546464
31
0
0
LINE
8
layer0
10
1084.3881611911
20
1515.14372900409
30
0
11
2095.90583281132
21
1223.14372900409
31
0
0
LINE
8
layer0
10
2095.90583281132
20
1223.14372900409
30
0
11
1947.90583281132
21
1094.97196924399
31
0
0
LINE
8
layer0
10
1947.90583281132
20
1094.97196924399
30
0
11
936.388161191099
21
1386.97196924399
31
0
0
LINE
8
layer0
10
936.388161191099
20
1386.97196924399
30
0
11
1084.3881611911
21
1515.14372900409
31
0
0
ENDBLK
0
BLOCK
8
layer0
2
PF_OBJECT55
70
0
10
0
20
0
30
0
0
LINE
8
layer0
10
922.629830941902
20
788.767326315698
30
0
11
1437.04892078986
21
640.267326315698
31
0
0
LINE
8
layer0
10
1437.04892078986
20
640.267326315698
30
0
11
1437.04892078986
21
638.535275508129
31
0
0
LINE
8
layer0
10
1437.04892078986
20
638.535275508129
30
0
11
922.629830941902
21
787.035275508129
31
0
0
LINE
8
layer0
10
922.629830941902
20
787.035275508129
30
0
11
922.629830941902
21
788.767326315698
31
0
0
LINE
8
layer0
10
1437.04892078986
20
640.267326315698
30
0
11
1427.04892078986
21
631.607072277854
31
0
0
LINE
8
layer0
10
1427.04892078986
20
631.607072277854
30
0
11
1427.04892078986
21
629.875021470285
31
0
0
LINE
8
layer0
10
1427.04892078986
20
629.875021470285
30
0
11
1437.04892078986
21
638.535275508129
31
0
0
LINE
8
layer0
10
1437.04892078986
20
638.535275508129
30
0
11
1437.04892078986
21
640.267326315698
31
0
0
LINE
8
layer0
10
912.629830941902
20
778.375021470285
30
0
11
912.629830941902
21
780.107072277854
31
0
0
LINE
8
layer0
10
912.629830941902
20
780.107072277854
30
0
11
922.629830941902
21
788.767326315698
31
0
0
LINE
8
layer0
10
922.629830941902
20
788.767326315698
30
0
11
922.629830941902
21
787.035275508129
31
0
0
LINE
8
layer0
10
922.629830941902
20
787.035275508129
30
0
11
912.629830941902
21
778.375021470285
31
0
0
LINE
8
layer0
10
1437.04892078986
20
640.267326315698
30
0
11
922.629830941902
21
788.767326315698
31
0
0
LINE
8
layer0
10
922.629830941902
20
788.767326315698
30
0
11
912.629830941902
21
780.107072277854
31
0
0
LINE
8
layer0
10
912.629830941902
20
780.107072277854
30
0
11
1427.04892078986
21
631.607072277854
31
0
0
LINE
8
layer0
10
1427.04892078986
20
631.607072277854
30
0
11
1437.04892078986
21
640.267326315698
31
0
0
LINE
8
layer0
10
1358.92714252495
20
642.611881749471
30
0
11
1366.42714252495
21
649.107072277854
31
0
0
LINE
8
layer0
10
1366.42714252495
20
649.107072277854
30
0
11
973.251609206812
21
762.607072277854
31
0
0
LINE
8
layer0
10
973.251609206812
20
762.607072277854
30
0
11
965.751609206812
21
756.111881749471
31
0
0
LINE
8
layer0
10
965.751609206812
20
756.111881749471
30
0
11
1358.92714252495
21
642.611881749471
31
0
0
LINE
8
layer0
10
1427.04892078986
20
631.607072277854
30
0
11
1366.42714252495
21
649.107072277854
31
0
0
LINE
8
layer0
10
1366.42714252495
20
649.107072277854
30
0
11
1366.42714252495
21
647.375021470285
31
0
0
LINE
8
layer0
10
1366.42714252495
20
647.375021470285
30
0
11
1427.04892078986
21
629.875021470285
31
0
0
LINE
8
layer0
10
1427.04892078986
20
629.875021470285
30
0
11
1427.04892078986
21
631.607072277854
31
0
0
LINE
8
layer0
10
973.251609206812
20
762.607072277854
30
0
11
912.629830941902
21
780.107072277854
31
0
0
LINE
8
layer0
10
912.629830941902
20
780.107072277854
30
0
11
912.629830941902
21
778.375021470285
31
0
0
LINE
8
layer0
10
912.629830941902
20
778.375021470285
30
0
11
973.251609206812
21
760.875021470285
31
0
0
LINE
8
layer0
10
973.251609206812
20
760.875021470285
30
0
11
973.251609206812
21
762.607072277854
31
0
0
LINE
8
layer0
10
1366.42714252495
20
649.107072277854
30
0
11
1358.92714252495
21
642.611881749471
31
0
0
LINE
8
layer0
10
1358.92714252495
20
642.611881749471
30
0
11
1358.92714252495
21
640.879830941902
31
0
0
LINE
8
layer0
10
1358.92714252495
20
640.879830941902
30
0
11
1366.42714252495
21
647.375021470285
31
0
0
LINE
8
layer0
10
1366.42714252495
20
647.375021470285
30
0
11
1366.42714252495
21
649.107072277854
31
0
0
LINE
8
layer0
10
965.751609206812
20
754.379830941902
30
0
11
965.751609206812
21
756.111881749471
31
0
0
LINE
8
layer0
10
965.751609206812
20
756.111881749471
30
0
11
973.251609206812
21
762.607072277854
31
0
0
LINE
8
layer0
10
973.251609206812
20
762.607072277854
30
0
11
973.251609206812
21
760.875021470285
31
0
0
LINE
8
layer0
10
973.251609206812
20
760.875021470285
30
0
11
965.751609206812
21
754.379830941902
31
0
0
LINE
8
layer0
10
922.629830941902
20
787.035275508129
30
0
11
1437.04892078986
21
638.535275508129
31
0
0
LINE
8
layer0
10
1437.04892078986
20
638.535275508129
30
0
11
1427.04892078986
21
629.875021470285
31
0
0
LINE
8
layer0
10
1427.04892078986
20
629.875021470285
30
0
11
912.629830941902
21
778.375021470285
31
0
0
LINE
8
layer0
10
912.629830941902
20
778.375021470285
30
0
11
922.629830941902
21
787.035275508129
31
0
0
LINE
8
layer0
10
965.751609206812
20
754.379830941902
30
0
11
973.251609206812
21
760.875021470285
31
0
0
LINE
8
layer0
10
973.251609206812
20
760.875021470285
30
0
11
1366.42714252495
21
647.375021470285
31
0
0
LINE
8
layer0
10
1366.42714252495
20
647.375021470285
30
0
11
1358.92714252495
21
640.879830941902
31
0
0
LINE
8
layer0
10
1358.92714252495
20
640.879830941902
30
0
11
965.751609206812
21
754.379830941902
31
0
0
LINE
8
layer0
10
1357.92714252495
20
650.40611038353
30
0
11
1358.92714252495
21
651.272135787315
31
0
0
LINE
8
layer0
10
1358.92714252495
20
651.272135787315
30
0
11
965.751609206812
21
764.772135787315
31
0
0
LINE
8
layer0
10
965.751609206812
20
764.772135787315
30
0
11
964.751609206812
21
763.90611038353
31
0
0
LINE
8
layer0
10
964.751609206812
20
763.90611038353
30
0
11
1357.92714252495
21
650.40611038353
31
0
0
LINE
8
layer0
10
1358.92714252495
20
640.879830941902
30
0
11
1358.92714252495
21
651.272135787315
31
0
0
LINE
8
layer0
10
1358.92714252495
20
651.272135787315
30
0
11
1357.92714252495
21
650.40611038353
31
0
0
LINE
8
layer0
10
1357.92714252495
20
650.40611038353
30
0
11
1357.92714252495
21
640.013805538117
31
0
0
LINE
8
layer0
10
1357.92714252495
20
640.013805538117
30
0
11
1358.92714252495
21
640.879830941902
31
0
0
LINE
8
layer0
10
964.751609206812
20
753.513805538117
30
0
11
964.751609206812
21
763.90611038353
31
0
0
LINE
8
layer0
10
964.751609206812
20
763.90611038353
30
0
11
965.751609206812
21
764.772135787315
31
0
0
LINE
8
layer0
10
965.751609206812
20
764.772135787315
30
0
11
965.751609206812
21
754.379830941902
31
0
0
LINE
8
layer0
10
965.751609206812
20
754.379830941902
30
0
11
964.751609206812
21
753.513805538117
31
0
0
LINE
8
layer0
10
964.751609206812
20
753.513805538117
30
0
11
965.751609206812
21
754.379830941902
31
0
0
LINE
8
layer0
10
965.751609206812
20
754.379830941902
30
0
11
1358.92714252495
21
640.879830941902
31
0
0
LINE
8
layer0
10
1358.92714252495
20
640.879830941902
30
0
11
1357.92714252495
21
640.013805538117
31
0
0
LINE
8
layer0
10
1357.92714252495
20
640.013805538117
30
0
11
964.751609206812
21
753.513805538117
31
0
0
LINE
8
layer0
10
1357.92714252495
20
640.013805538117
30
0
11
1357.92714252495
21
650.40611038353
31
0
0
LINE
8
layer0
10
1357.92714252495
20
650.40611038353
30
0
11
964.751609206812
21
763.90611038353
31
0
0
LINE
8
layer0
10
964.751609206812
20
763.90611038353
30
0
11
964.751609206812
21
753.513805538117
31
0
0
LINE
8
layer0
10
964.751609206812
20
753.513805538117
30
0
11
1357.92714252495
21
640.013805538117
31
0
0
ENDBLK
0
BLOCK
8
layer0
2
PF_OBJECT56
70
0
10
0
20
0
30
0
0
LINE
8
layer0
10
1437.54892078986
20
640.70033901759
30
0
11
923.129830941902
21
789.20033901759
31
0
0
LINE
8
layer0
10
923.129830941902
20
789.20033901759
30
0
11
923.129830941902
21
1399.74824868562
31
0
0
LINE
8
layer0
10
923.129830941902
20
1399.74824868562
30
0
11
1437.54892078986
21
1251.24824868562
31
0
0
LINE
8
layer0
10
1437.54892078986
20
1251.24824868562
30
0
11
1437.54892078986
21
640.70033901759
31
0
0
LINE
8
layer0
10
913.129830941902
20
780.540084979746
30
0
11
1427.54892078986
21
632.040084979746
31
0
0
LINE
8
layer0
10
1427.54892078986
20
632.040084979746
30
0
11
1427.54892078986
21
1242.58799464778
31
0
0
LINE
8
layer0
10
1427.54892078986
20
1242.58799464778
30
0
11
913.129830941902
21
1391.08799464778
31
0
0
LINE
8
layer0
10
913.129830941902
20
1391.08799464778
30
0
11
913.129830941902
21
780.540084979746
31
0
0
LINE
8
layer0
10
923.129830941902
20
789.20033901759
30
0
11
913.129830941902
21
780.540084979746
31
0
0
LINE
8
layer0
10
913.129830941902
20
780.540084979746
30
0
11
913.129830941902
21
1391.08799464778
31
0
0
LINE
8
layer0
10
913.129830941902
20
1391.08799464778
30
0
11
923.129830941902
21
1399.74824868562
31
0
0
LINE
8
layer0
10
923.129830941902
20
1399.74824868562
30
0
11
923.129830941902
21
789.20033901759
31
0
0
LINE
8
layer0
10
1427.54892078986
20
632.040084979746
30
0
11
1437.54892078986
21
640.70033901759
31
0
0
LINE
8
layer0
10
1437.54892078986
20
640.70033901759
30
0
11
1437.54892078986
21
1251.24824868562
31
0
0
LINE
8
layer0
10
1437.54892078986
20
1251.24824868562
30
0
11
1427.54892078986
21
1242.58799464778
31
0
0
LINE
8
layer0
10
1427.54892078986
20
1242.58799464778
30
0
11
1427.54892078986
21
632.040084979746
31
0
0
LINE
8
layer0
10
1437.54892078986
20
1251.24824868562
30
0
11
923.129830941902
21
1399.74824868562
31
0
0
LINE
8
layer0
10
923.129830941902
20
1399.74824868562
30
0
11
913.129830941902
21
1391.08799464778
31
0
0
LINE
8
layer0
10
913.129830941902
20
1391.08799464778
30
0
11
1427.54892078986
21
1242.58799464778
31
0
0
LINE
8
layer0
10
1427.54892078986
20
1242.58799464778
30
0
11
1437.54892078986
21
1251.24824868562
31
0
0
LINE
8
layer0
10
923.129830941902
20
789.20033901759
30
0
11
1437.54892078986
21
640.70033901759
31
0
0
LINE
8
layer0
10
1437.54892078986
20
640.70033901759
30
0
11
1427.54892078986
21
632.040084979746
31
0
0
LINE
8
layer0
10
1427.54892078986
20
632.040084979746
30
0
11
913.129830941902
21
780.540084979746
31
0
0
LINE
8
layer0
10
913.129830941902
20
780.540084979746
30
0
11
923.129830941902
21
789.20033901759
31
0
0
ENDBLK
0
BLOCK
8
layer0
2
PF_OBJECT57
70
0
10
0
20
0
30
0
0
LINE
8
layer0
10
1442.24507321256
20
638.767326315698
30
0
11
1956.66416306052
21
490.267326315698
31
0
0
LINE
8
layer0
10
1956.66416306052
20
490.267326315698
30
0
11
1956.66416306052
21
488.535275508129
31
0
0
LINE
8
layer0
10
1956.66416306052
20
488.535275508129
30
0
11
1442.24507321256
21
637.035275508129
31
0
0
LINE
8
layer0
10
1442.24507321256
20
637.035275508129
30
0
11
1442.24507321256
21
638.767326315698
31
0
0
LINE
8
layer0
10
1956.66416306052
20
490.267326315698
30
0
11
1946.66416306052
21
481.607072277854
31
0
0
LINE
8
layer0
10
1946.66416306052
20
481.607072277854
30
0
11
1946.66416306052
21
479.875021470285
31
0
0
LINE
8
layer0
10
1946.66416306052
20
479.875021470285
30
0
11
1956.66416306052
21
488.535275508129
31
0
0
LINE
8
layer0
10
1956.66416306052
20
488.535275508129
30
0
11
1956.66416306052
21
490.267326315698
31
0
0
LINE
8
layer0
10
1432.24507321256
20
628.375021470285
30
0
11
1432.24507321256
21
630.107072277854
31
0
0
LINE
8
layer0
10
1432.24507321256
20
630.107072277854
30
0
11
1442.24507321256
21
638.767326315698
31
0
0
LINE
8
layer0
10
1442.24507321256
20
638.767326315698
30
0
11
1442.24507321256
21
637.035275508129
31
0
0
LINE
8
layer0
10
1442.24507321256
20
637.035275508129
30
0
11
1432.24507321256
21
628.375021470285
31
0
0
LINE
8
layer0
10
1956.66416306052
20
490.267326315698
30
0
11
1442.24507321256
21
638.767326315698
31
0
0
LINE
8
layer0
10
1442.24507321256
20
638.767326315698
30
0
11
1432.24507321256
21
630.107072277854
31
0
0
LINE
8
layer0
10
1432.24507321256
20
630.107072277854
30
0
11
1946.66416306052
21
481.607072277854
31
0
0
LINE
8
layer0
10
1946.66416306052
20
481.607072277854
30
0
11
1956.66416306052
21
490.267326315698
31
0
0
LINE
8
layer0
10
1878.54238479561
20
492.611881749471
30
0
11
1886.04238479561
21
499.107072277854
31
0
0
LINE
8
layer0
10
1886.04238479561
20
499.107072277854
30
0
11
1492.86685147748
21
612.607072277854
31
0
0
LINE
8
layer0
10
1492.86685147748
20
612.607072277854
30
0
11
1485.36685147748
21
606.111881749471
31
0
0
LINE
8
layer0
10
1485.36685147748
20
606.111881749471
30
0
11
1878.54238479561
21
492.611881749471
31
0
0
LINE
8
layer0
10
1946.66416306052
20
481.607072277854
30
0
11
1886.04238479561
21
499.107072277854
31
0
0
LINE
8
layer0
10
1886.04238479561
20
499.107072277854
30
0
11
1886.04238479561
21
497.375021470285
31
0
0
LINE
8
layer0
10
1886.04238479561
20
497.375021470285
30
0
11
1946.66416306052
21
479.875021470285
31
0
0
LINE
8
layer0
10
1946.66416306052
20
479.875021470285
30
0
11
1946.66416306052
21
481.607072277854
31
0
0
LINE
8
layer0
10
1492.86685147748
20
612.607072277854
30
0
11
1432.24507321256
21
630.107072277854
31
0
0
LINE
8
layer0
10
1432.24507321256
20
630.107072277854
30
0
11
1432.24507321256
21
628.375021470285
31
0
0
LINE
8
layer0
10
1432.24507321256
20
628.375021470285
30
0
11
1492.86685147748
21
610.875021470285
31
0
0
LINE
8
layer0
10
1492.86685147748
20
610.875021470285
30
0
11
1492.86685147748
21
612.607072277854
31
0
0
LINE
8
layer0
10
1886.04238479561
20
499.107072277854
30
0
11
1878.54238479561
21
492.611881749471
31
0
0
LINE
8
layer0
10
1878.54238479561
20
492.611881749471
30
0
11
1878.54238479561
21
490.879830941902
31
0
0
LINE
8
layer0
10
1878.54238479561
20
490.879830941902
30
0
11
1886.04238479561
21
497.375021470285
31
0
0
LINE
8
layer0
10
1886.04238479561
20
497.375021470285
30
0
11
1886.04238479561
21
499.107072277854
31
0
0
LINE
8
layer0
10
1485.36685147748
20
604.379830941902
30
0
11
1485.36685147748
21
606.111881749471
31
0
0
LINE
8
layer0
10
1485.36685147748
20
606.111881749471
30
0
11
1492.86685147748
21
612.607072277854
31
0
0
LINE
8
layer0
10
1492.86685147748
20
612.607072277854
30
0
11
1492.86685147748
21
610.875021470285
31
0
0
LINE
8
layer0
10
1492.86685147748
20
610.875021470285
30
0
11
1485.36685147748
21
604.379830941902
31
0
0
LINE
8
layer0
10
1442.24507321256
20
637.035275508129
30
0
11
1956.66416306052
21
488.535275508129
31
0
0
LINE
8
layer0
10
1956.66416306052
20
488.535275508129
30
0
11
1946.66416306052
21
479.875021470285
31
0
0
LINE
8
layer0
10
1946.66416306052
20
479.875021470285
30
0
11
1432.24507321256
21
628.375021470285
31
0
0
LINE
8
layer0
10
1432.24507321256
20
628.375021470285
30
0
11
1442.24507321256
21
637.035275508129
31
0
0
LINE
8
layer0
10
1485.36685147748
20
604.379830941902
30
0
11
1492.86685147748
21
610.875021470285
31
0
0
LINE
8
layer0
10
1492.86685147748
20
610.875021470285
30
0
11
1886.04238479561
21
497.375021470285
31
0
0
LINE
8
layer0
10
1886.04238479561
20
497.375021470285
30
0
11
1878.54238479561
21
490.879830941902
31
0
0
LINE
8
layer0
10
1878.54238479561
20
490.879830941902
30
0
11
1485.36685147748
21
604.379830941902
31
0
0
LINE
8
layer0
10
1877.54238479561
20
500.406110383531
30
0
11
1878.54238479561
21
501.272135787315
31
0
0
LINE
8
layer0
10
1878.54238479561
20
501.272135787315
30
0
11
1485.36685147748
21
614.772135787315
31
0
0
LINE
8
layer0
10
1485.36685147748
20
614.772135787315
30
0
11
1484.36685147748
21
613.90611038353
31
0
0
LINE
8
layer0
10
1484.36685147748
20
613.90611038353
30
0
11
1877.54238479561
21
500.406110383531
31
0
0
LINE
8
layer0
10
1878.54238479561
20
490.879830941902
30
0
11
1878.54238479561
21
501.272135787315
31
0
0
LINE
8
layer0
10
1878.54238479561
20
501.272135787315
30
0
11
1877.54238479561
21
500.406110383531
31
0
0
LINE
8
layer0
10
1877.54238479561
20
500.406110383531
30
0
11
1877.54238479561
21
490.013805538117
31
0
0
LINE
8
layer0
10
1877.54238479561
20
490.013805538117
30
0
11
1878.54238479561
21
490.879830941902
31
0
0
LINE
8
layer0
10
1484.36685147748
20
603.513805538117
30
0
11
1484.36685147748
21
613.90611038353
31
0
0
LINE
8
layer0
10
1484.36685147748
20
613.90611038353
30
0
11
1485.36685147748
21
614.772135787315
31
0
0
LINE
8
layer0
10
1485.36685147748
20
614.772135787315
30
0
11
1485.36685147748
21
604.379830941902
31
0
0
LINE
8
layer0
10
1485.36685147748
20
604.379830941902
30
0
11
1484.36685147748
21
603.513805538117
31
0
0
LINE
8
layer0
10
1484.36685147748
20
603.513805538117
30
0
11
1485.36685147748
21
604.379830941902
31
0
0
LINE
8
layer0
10
1485.36685147748
20
604.379830941902
30
0
11
1878.54238479561
21
490.879830941902
31
0
0
LINE
8
layer0
10
1878.54238479561
20
490.879830941902
30
0
11
1877.54238479561
21
490.013805538117
31
0
0
LINE
8
layer0
10
1877.54238479561
20
490.013805538117
30
0
11
1484.36685147748
21
603.513805538117
31
0
0
LINE
8
layer0
10
1877.54238479561
20
490.013805538117
30
0
11
1877.54238479561
21
500.406110383531
31
0
0
LINE
8
layer0
10
1877.54238479561
20
500.406110383531
30
0
11
1484.36685147748
21
613.90611038353
31
0
0
LINE
8
layer0
10
1484.36685147748
20
613.90611038353
30
0
11
1484.36685147748
21
603.513805538117
31
0
0
LINE
8
layer0
10
1484.36685147748
20
603.513805538117
30
0
11
1877.54238479561
21
490.013805538117
31
0
0
ENDBLK
0
BLOCK
8
layer0
2
PF_OBJECT58
70
0
10
0
20
0
30
0
0
LINE
8
layer0
10
1957.16416306052
20
490.70033901759
30
0
11
1442.74507321256
21
639.20033901759
31
0
0
LINE
8
layer0
10
1442.74507321256
20
639.20033901759
30
0
11
1442.74507321256
21
1249.74824868562
31
0
0
LINE
8
layer0
10
1442.74507321256
20
1249.74824868562
30
0
11
1957.16416306052
21
1101.24824868562
31
0
0
LINE
8
layer0
10
1957.16416306052
20
1101.24824868562
30
0
11
1957.16416306052
21
490.70033901759
31
0
0
LINE
8
layer0
10
1432.74507321256
20
630.540084979746
30
0
11
1947.16416306052
21
482.040084979746
31
0
0
LINE
8
layer0
10
1947.16416306052
20
482.040084979746
30
0
11
1947.16416306052
21
1092.58799464778
31
0
0
LINE
8
layer0
10
1947.16416306052
20
1092.58799464778
30
0
11
1432.74507321256
21
1241.08799464778
31
0
0
LINE
8
layer0
10
1432.74507321256
20
1241.08799464778
30
0
11
1432.74507321256
21
630.540084979746
31
0
0
LINE
8
layer0
10
1442.74507321256
20
639.20033901759
30
0
11
1432.74507321256
21
630.540084979746
31
0
0
LINE
8
layer0
10
1432.74507321256
20
630.540084979746
30
0
11
1432.74507321256
21
1241.08799464778
31
0
0
LINE
8
layer0
10
1432.74507321256
20
1241.08799464778
30
0
11
1442.74507321256
21
1249.74824868562
31
0
0
LINE
8
layer0
10
1442.74507321256
20
1249.74824868562
30
0
11
1442.74507321256
21
639.20033901759
31
0
0
LINE
8
layer0
10
1947.16416306052
20
482.040084979746
30
0
11
1957.16416306052
21
490.70033901759
31
0
0
LINE
8
layer0
10
1957.16416306052
20
490.70033901759
30
0
11
1957.16416306052
21
1101.24824868562
31
0
0
LINE
8
layer0
10
1957.16416306052
20
1101.24824868562
30
0
11
1947.16416306052
21
1092.58799464778
31
0
0
LINE
8
layer0
10
1947.16416306052
20
1092.58799464778
30
0
11
1947.16416306052
21
482.040084979746
31
0
0
LINE
8
layer0
10
1957.16416306052
20
1101.24824868562
30
0
11
1442.74507321256
21
1249.74824868562
31
0
0
LINE
8
layer0
10
1442.74507321256
20
1249.74824868562
30
0
11
1432.74507321256
21
1241.08799464778
31
0
0
LINE
8
layer0
10
1432.74507321256
20
1241.08799464778
30
0
11
1947.16416306052
21
1092.58799464778
31
0
0
LINE
8
layer0
10
1947.16416306052
20
1092.58799464778
30
0
11
1957.16416306052
21
1101.24824868562
31
0
0
LINE
8
layer0
10
1442.74507321256
20
639.20033901759
30
0
11
1957.16416306052
21
490.70033901759
31
0
0
LINE
8
layer0
10
1957.16416306052
20
490.70033901759
30
0
11
1947.16416306052
21
482.040084979746
31
0
0
LINE
8
layer0
10
1947.16416306052
20
482.040084979746
30
0
11
1432.74507321256
21
630.540084979746
31
0
0
LINE
8
layer0
10
1432.74507321256
20
630.540084979746
30
0
11
1442.74507321256
21
639.20033901759
31
0
0
ENDBLK
0
BLOCK
8
layer0
70
0
10
0
20
0
30
0
2
PF_SKETCH59
0
LINE
8
layer0
10
1082.53175473055
20
1543.39244031005
30
0
11
1961.26223927187
21
1104.39536300265
31
0
0
ENDBLK
0
BLOCK
8
layer0
70
0
10
0
20
0
30
0
2
PF_SKETCH60
0
LINE
8
layer0
10
922.031754730548
20
1404.39536300265
30
0
11
2121.76223927187
21
1243.39244031005
31
0
0
ENDBLK
0
BLOCK
8
layer0
2
PF_OBJECT61
70
0
10
0
20
0
30
0
0
LINE
8
layer0
10
1318.32826326022
20
362.254079006132
30
0
11
1311.33937586588
21
366.808126696246
31
0
0
LINE
8
layer0
10
1311.33937586588
20
366.808126696246
30
0
11
1311.33937586588
21
496.711937263912
31
0
0
LINE
8
layer0
10
1311.33937586588
20
496.711937263912
30
0
11
1318.32826326022
21
492.157889573798
31
0
0
LINE
8
layer0
10
1318.32826326022
20
492.157889573798
30
0
11
1318.32826326022
21
362.254079006132
31
0
0
LINE
8
layer0
10
1316.82975692265
20
356.562936167863
30
0
11
1318.32826326022
21
362.254079006132
31
0
0
LINE
8
layer0
10
1318.32826326022
20
362.254079006132
30
0
11
1318.32826326022
21
492.157889573798
31
0
0
LINE
8
layer0
10
1318.32826326022
20
492.157889573798
30
0
11
1316.82975692265
21
486.466746735529
31
0
0
LINE
8
layer0
10
1316.82975692265
20
486.466746735529
30
0
11
1316.82975692265
21
356.562936167863
31
0
0
LINE
8
layer0
10
1307.72166154242
20
353.068492470695
30
0
11
1316.82975692265
21
356.562936167863
31
0
0
LINE
8
layer0
10
1316.82975692265
20
356.562936167863
30
0
11
1316.82975692265
21
486.466746735529
31
0
0
LINE
8
layer0
10
1316.82975692265
20
486.466746735529
30
0
11
1307.72166154242
21
482.972303038361
31
0
0
LINE
8
layer0
10
1307.72166154242
20
482.972303038361
30
0
11
1307.72166154242
21
353.068492470695
31
0
0
LINE
8
layer0
10
1296.33937586588
20
353.81774563948
30
0
11
1307.72166154242
21
353.068492470695
31
0
0
LINE
8
layer0
10
1307.72166154242
20
353.068492470695
30
0
11
1307.72166154242
21
482.972303038361
31
0
0
LINE
8
layer0
10
1307.72166154242
20
482.972303038361
30
0
11
1296.33937586588
21
483.721556207145
31
0
0
LINE
8
layer0
10
1296.33937586588
20
483.721556207145
30
0
11
1296.33937586588
21
353.81774563948
31
0
0
LINE
8
layer0
10
1289.35048847154
20
358.371793329594
30
0
11
1296.33937586588
21
353.81774563948
31
0
0
LINE
8
layer0
10
1296.33937586588
20
353.81774563948
30
0
11
1296.33937586588
21
483.721556207145
31
0
0
LINE
8
layer0
10
1296.33937586588
20
483.721556207145
30
0
11
1289.35048847154
21
488.27560389726
31
0
0
LINE
8
layer0
10
1289.35048847154
20
488.27560389726
30
0
11
1289.35048847154
21
358.371793329594
31
0
0
LINE
8
layer0
10
1290.84899480911
20
364.062936167863
30
0
11
1289.35048847154
21
358.371793329594
31
0
0
LINE
8
layer0
10
1289.35048847154
20
358.371793329594
30
0
11
1289.35048847154
21
488.27560389726
31
0
0
LINE
8
layer0
10
1289.35048847154
20
488.27560389726
30
0
11
1290.84899480911
21
493.966746735529
31
0
0
LINE
8
layer0
10
1290.84899480911
20
493.966746735529
30
0
11
1290.84899480911
21
364.062936167863
31
0
0
LINE
8
layer0
10
1299.95709018934
20
367.557379865031
30
0
11
1290.84899480911
21
364.062936167863
31
0
0
LINE
8
layer0
10
1290.84899480911
20
364.062936167863
30
0
11
1290.84899480911
21
493.966746735529
31
0
0
LINE
8
layer0
10
1290.84899480911
20
493.966746735529
30
0
11
1299.95709018934
21
497.461190432697
31
0
0
LINE
8
layer0
10
1299.95709018934
20
497.461190432697
30
0
11
1299.95709018934
21
367.557379865031
31
0
0
LINE
8
layer0
10
1311.33937586588
20
366.808126696246
30
0
11
1299.95709018934
21
367.557379865031
31
0
0
LINE
8
layer0
10
1299.95709018934
20
367.557379865031
30
0
11
1299.95709018934
21
497.461190432697
31
0
0
LINE
8
layer0
10
1299.95709018934
20
497.461190432697
30
0
11
1311.33937586588
21
496.711937263912
31
0
0
LINE
8
layer0
10
1311.33937586588
20
496.711937263912
30
0
11
1311.33937586588
21
366.808126696246
31
0
0
LINE
8
layer0
10
1311.33937586588
20
496.711937263912
30
0
11
1299.95709018934
21
497.461190432697
31
0
0
LINE
8
layer0
10
1299.95709018934
20
497.461190432697
30
0
11
1290.84899480911
21
493.966746735529
31
0
0
LINE
8
layer0
10
1290.84899480911
20
493.966746735529
30
0
11
1289.35048847154
21
488.27560389726
31
0
0
LINE
8
layer0
10
1289.35048847154
20
488.27560389726
30
0
11
1296.33937586588
21
483.721556207145
31
0
0
LINE
8
layer0
10
1296.33937586588
20
483.721556207145
30
0
11
1307.72166154242
21
482.972303038361
31
0
0
LINE
8
layer0
10
1307.72166154242
20
482.972303038361
30
0
11
1316.82975692265
21
486.466746735529
31
0
0
LINE
8
layer0
10
1316.82975692265
20
486.466746735529
30
0
11
1318.32826326022
21
492.157889573798
31
0
0
LINE
8
layer0
10
1318.32826326022
20
492.157889573798
30
0
11
1311.33937586588
21
496.711937263912
31
0
0
LINE
8
layer0
10
1299.95709018934
20
367.557379865031
30
0
11
1311.33937586588
21
366.808126696246
31
0
0
LINE
8
layer0
10
1311.33937586588
20
366.808126696246
30
0
11
1318.32826326022
21
362.254079006132
31
0
0
LINE
8
layer0
10
1318.32826326022
20
362.254079006132
30
0
11
1316.82975692265
21
356.562936167863
31
0
0
LINE
8
layer0
10
1316.82975692265
20
356.562936167863
30
0
11
1307.72166154242
21
353.068492470695
31
0
0
LINE
8
layer0
10
1307.72166154242
20
353.068492470695
30
0
11
1296.33937586588
21
353.81774563948
31
0
0
LINE
8
layer0
10
1296.33937586588
20
353.81774563948
30
0
11
1289.35048847154
21
358.371793329594
31
0
0
LINE
8
layer0
10
1289.35048847154
20
358.371793329594
30
0
11
1290.84899480911
21
364.062936167863
31
0
0
LINE
8
layer0
10
1290.84899480911
20
364.062936167863
30
0
11
1299.95709018934
21
367.557379865031
31
0
0
ENDBLK
0
BLOCK
8
layer0
2
PF_OBJECT62
70
0
10
0
20
0
30
0
0
LINE
8
layer0
10
1308.49962990372
20
380.329596666258
30
0
11
1312.49962990372
21
383.793698281396
31
0
0
LINE
8
layer0
10
1312.49962990372
20
383.793698281396
30
0
11
1272.49962990372
21
418.434714432774
31
0
0
LINE
8
layer0
10
1272.49962990372
20
418.434714432774
30
0
11
1270.20561040446
21
419.102948424054
31
0
0
LINE
8
layer0
10
1270.20561040446
20
419.102948424054
30
0
11
1267.49962990372
21
417.568689028989
31
0
0
LINE
8
layer0
10
1267.49962990372
20
417.568689028989
30
0
11
1262.49962990372
21
413.238562010067
31
0
0
LINE
8
layer0
10
1262.49962990372
20
413.238562010067
30
0
11
1262.49962990372
21
408.04240958736
31
0
0
LINE
8
layer0
10
1262.49962990372
20
408.04240958736
30
0
11
1267.49962990372
21
412.372536606283
31
0
0
LINE
8
layer0
10
1267.49962990372
20
412.372536606283
30
0
11
1269.47931521418
21
413.653527025984
31
0
0
LINE
8
layer0
10
1269.47931521418
20
413.653527025984
30
0
11
1270.99962990372
21
412.805549308175
31
0
0
LINE
8
layer0
10
1270.99962990372
20
412.805549308175
30
0
11
1308.49962990372
21
380.329596666258
31
0
0
LINE
8
layer0
10
1295.17912182804
20
388.793698281396
30
0
11
1291.17912182804
21
385.329596666258
31
0
0
LINE
8
layer0
10
1291.17912182804
20
385.329596666258
30
0
11
1253.67912182804
21
417.805549308175
31
0
0
LINE
8
layer0
10
1253.67912182804
20
417.805549308175
30
0
11
1252.15880713849
21
418.653527025984
31
0
0
LINE
8
layer0
10
1252.15880713849
20
418.653527025984
30
0
11
1250.17912182804
21
417.372536606283
31
0
0
LINE
8
layer0
10
1250.17912182804
20
417.372536606283
30
0
11
1245.17912182804
21
413.04240958736
31
0
0
LINE
8
layer0
10
1245.17912182804
20
413.04240958736
30
0
11
1245.17912182804
21
418.238562010067
31
0
0
LINE
8
layer0
10
1245.17912182804
20
418.238562010067
30
0
11
1250.17912182804
21
422.568689028989
31
0
0
LINE
8
layer0
10
1250.17912182804
20
422.568689028989
30
0
11
1252.88510232877
21
424.102948424054
31
0
0
LINE
8
layer0
10
1252.88510232877
20
424.102948424054
30
0
11
1255.17912182804
21
423.434714432774
31
0
0
LINE
8
layer0
10
1255.17912182804
20
423.434714432774
30
0
11
1295.17912182804
21
388.793698281396
31
0
0
LINE
8
layer0
10
1295.17912182804
20
388.793698281396
30
0
11
1312.49962990372
21
383.793698281396
31
0
0
LINE
8
layer0
10
1312.49962990372
20
383.793698281396
30
0
11
1308.49962990372
21
380.329596666258
31
0
0
LINE
8
layer0
10
1308.49962990372
20
380.329596666258
30
0
11
1291.17912182804
21
385.329596666258
31
0
0
LINE
8
layer0
10
1291.17912182804
20
385.329596666258
30
0
11
1295.17912182804
21
388.793698281396
31
0
0
LINE
8
layer0
10
1291.17912182804
20
385.329596666258
30
0
11
1308.49962990372
21
380.329596666258
31
0
0
LINE
8
layer0
10
1308.49962990372
20
380.329596666258
30
0
11
1270.99962990372
21
412.805549308175
31
0
0
LINE
8
layer0
10
1270.99962990372
20
412.805549308175
30
0
11
1253.67912182804
21
417.805549308175
31
0
0
LINE
8
layer0
10
1253.67912182804
20
417.805549308175
30
0
11
1291.17912182804
21
385.329596666258
31
0
0
LINE
8
layer0
10
1253.67912182804
20
417.805549308175
30
0
11
1270.99962990372
21
412.805549308175
31
0
0
LINE
8
layer0
10
1270.99962990372
20
412.805549308175
30
0
11
1269.47931521418
21
413.653527025984
31
0
0
LINE
8
layer0
10
1269.47931521418
20
413.653527025984
30
0
11
1252.15880713849
21
418.653527025984
31
0
0
LINE
8
layer0
10
1252.15880713849
20
418.653527025984
30
0
11
1253.67912182804
21
417.805549308175
31
0
0
LINE
8
layer0
10
1252.15880713849
20
418.653527025984
30
0
11
1269.47931521418
21
413.653527025984
31
0
0
LINE
8
layer0
10
1269.47931521418
20
413.653527025984
30
0
11
1267.49962990372
21
412.372536606283
31
0
0
LINE
8
layer0
10
1267.49962990372
20
412.372536606283
30
0
11
1250.17912182804
21
417.372536606283
31
0
0
LINE
8
layer0
10
1250.17912182804
20
417.372536606283
30
0
11
1252.15880713849
21
418.653527025984
31
0
0
LINE
8
layer0
10
1250.17912182804
20
417.372536606283
30
0
11
1267.49962990372
21
412.372536606283
31
0
0
LINE
8
layer0
10
1267.49962990372
20
412.372536606283
30
0
11
1262.49962990372
21
408.04240958736
31
0
0
LINE
8
layer0
10
1262.49962990372
20
408.04240958736
30
0
11
1245.17912182804
21
413.04240958736
31
0
0
LINE
8
layer0
10
1245.17912182804
20
413.04240958736
30
0
11
1250.17912182804
21
417.372536606283
31
0
0
LINE
8
layer0
10
1245.17912182804
20
413.04240958736
30
0
11
1262.49962990372
21
408.04240958736
31
0
0
LINE
8
layer0
10
1262.49962990372
20
408.04240958736
30
0
11
1262.49962990372
21
413.238562010067
31
0
0
LINE
8
layer0
10
1262.49962990372
20
413.238562010067
30
0
11
1245.17912182804
21
418.238562010067
31
0
0
LINE
8
layer0
10
1245.17912182804
20
418.238562010067
30
0
11
1245.17912182804
21
413.04240958736
31
0
0
LINE
8
layer0
10
1245.17912182804
20
418.238562010067
30
0
11
1262.49962990372
21
413.238562010067
31
0
0
LINE
8
layer0
10
1262.49962990372
20
413.238562010067
30
0
11
1267.49962990372
21
417.568689028989
31
0
0
LINE
8
layer0
10
1267.49962990372
20
417.568689028989
30
0
11
1250.17912182804
21
422.568689028989
31
0
0
LINE
8
layer0
10
1250.17912182804
20
422.568689028989
30
0
11
1245.17912182804
21
418.238562010067
31
0
0
LINE
8
layer0
10
1250.17912182804
20
422.568689028989
30
0
11
1267.49962990372
21
417.568689028989
31
0
0
LINE
8
layer0
10
1267.49962990372
20
417.568689028989
30
0
11
1270.20561040446
21
419.102948424054
31
0
0
LINE
8
layer0
10
1270.20561040446
20
419.102948424054
30
0
11
1252.88510232877
21
424.102948424054
31
0
0
LINE
8
layer0
10
1252.88510232877
20
424.102948424054
30
0
11
1250.17912182804
21
422.568689028989
31
0
0
LINE
8
layer0
10
1252.88510232877
20
424.102948424054
30
0
11
1270.20561040446
21
419.102948424054
31
0
0
LINE
8
layer0
10
1270.20561040446
20
419.102948424054
30
0
11
1272.49962990372
21
418.434714432774
31
0
0
LINE
8
layer0
10
1272.49962990372
20
418.434714432774
30
0
11
1255.17912182804
21
423.434714432774
31
0
0
LINE
8
layer0
10
1255.17912182804
20
423.434714432774
30
0
11
1252.88510232877
21
424.102948424054
31
0
0
LINE
8
layer0
10
1255.17912182804
20
423.434714432774
30
0
11
1272.49962990372
21
418.434714432774
31
0
0
LINE
8
layer0
10
1272.49962990372
20
418.434714432774
30
0
11
1312.49962990372
21
383.793698281396
31
0
0
LINE
8
layer0
10
1312.49962990372
20
383.793698281396
30
0
11
1295.17912182804
21
388.793698281396
31
0
0
LINE
8
layer0
10
1295.17912182804
20
388.793698281396
30
0
11
1255.17912182804
21
423.434714432774
31
0
0
ENDBLK
0
BLOCK
8
layer0
2
PF_OBJECT63
70
0
10
0
20
0
30
0
0
LINE
8
layer0
10
1311.16469341319
20
475.400403784439
30
0
11
1289.51405831857
21
481.650403784439
31
0
0
LINE
8
layer0
10
1289.51405831857
20
481.650403784439
30
0
11
1289.94817876274
21
486.290705777152
31
0
0
LINE
8
layer0
10
1289.94817876274
20
486.290705777152
30
0
11
1311.59881385735
21
480.040705777152
31
0
0
LINE
8
layer0
10
1311.59881385735
20
480.040705777152
30
0
11
1311.16469341319
21
475.400403784439
31
0
0
LINE
8
layer0
10
1255.04578696315
20
462.326866488734
30
0
11
1276.69642205776
21
456.076866488734
31
0
0
LINE
8
layer0
10
1276.69642205776
20
456.076866488734
30
0
11
1277.13054250193
21
460.717168481447
31
0
0
LINE
8
layer0
10
1277.13054250193
20
460.717168481447
30
0
11
1255.47990740731
21
466.967168481447
31
0
0
LINE
8
layer0
10
1255.47990740731
20
466.967168481447
30
0
11
1255.04578696315
21
462.326866488734
31
0
0
LINE
8
layer0
10
1289.51405831857
20
481.650403784439
30
0
11
1255.04578696315
21
462.326866488734
31
0
0
LINE
8
layer0
10
1255.04578696315
20
462.326866488734
30
0
11
1255.47990740731
21
466.967168481447
31
0
0
LINE
8
layer0
10
1255.47990740731
20
466.967168481447
30
0
11
1289.94817876274
21
486.290705777152
31
0
0
LINE
8
layer0
10
1289.94817876274
20
486.290705777152
30
0
11
1289.51405831857
21
481.650403784439
31
0
0
LINE
8
layer0
10
1276.69642205776
20
456.076866488734
30
0
11
1311.16469341319
21
475.400403784439
31
0
0
LINE
8
layer0
10
1311.16469341319
20
475.400403784439
30
0
11
1311.59881385735
21
480.040705777152
31
0
0
LINE
8
layer0
10
1311.59881385735
20
480.040705777152
30
0
11
1277.13054250193
21
460.717168481447
31
0
0
LINE
8
layer0
10
1277.13054250193
20
460.717168481447
30
0
11
1276.69642205776
21
456.076866488734
31
0
0
LINE
8
layer0
10
1311.59881385735
20
480.040705777152
30
0
11
1289.94817876274
21
486.290705777152
31
0
0
LINE
8
layer0
10
1289.94817876274
20
486.290705777152
30
0
11
1255.47990740731
21
466.967168481447
31
0
0
LINE
8
layer0
10
1255.47990740731
20
466.967168481447
30
0
11
1277.13054250193
21
460.717168481447
31
0
0
LINE
8
layer0
10
1277.13054250193
20
460.717168481447
30
0
11
1311.59881385735
21
480.040705777152
31
0
0
LINE
8
layer0
10
1289.51405831857
20
481.650403784439
30
0
11
1311.16469341319
21
475.400403784439
31
0
0
LINE
8
layer0
10
1311.16469341319
20
475.400403784439
30
0
11
1276.69642205776
21
456.076866488734
31
0
0
LINE
8
layer0
10
1276.69642205776
20
456.076866488734
30
0
11
1255.04578696315
21
462.326866488734
31
0
0
LINE
8
layer0
10
1255.04578696315
20
462.326866488734
30
0
11
1289.51405831857
21
481.650403784439
31
0
0
ENDBLK
0
BLOCK
8
layer0
2
PF_OBJECT64
70
0
10
0
20
0
30
0
0
LINE
8
layer0
10
1089.15611038353
20
-298.246479222419
30
0
11
573.004969728005
21
-149.246479222419
31
0
0
LINE
8
layer0
10
573.004969728005
20
-149.246479222419
30
0
11
573.004969728005
21
559.162301073252
31
0
0
LINE
8
layer0
10
573.004969728005
20
559.162301073252
30
0
11
1089.15611038353
21
410.162301073252
31
0
0
LINE
8
layer0
10
1089.15611038353
20
410.162301073252
30
0
11
1089.15611038353
21
-298.246479222419
31
0
0
LINE
8
layer0
10
300.504969728005
20
-255.334591186013
30
0
11
816.656110383531
21
-404.334591186013
31
0
0
LINE
8
layer0
10
816.656110383531
20
-404.334591186013
30
0
11
816.656110383531
21
174.170378541992
31
0
0
LINE
8
layer0
10
816.656110383531
20
174.170378541992
30
0
11
300.504969728005
21
323.170378541992
31
0
0
LINE
8
layer0
10
300.504969728005
20
323.170378541992
30
0
11
300.504969728005
21
-255.334591186013
31
0
0
LINE
8
layer0
10
573.004969728005
20
-149.246479222419
30
0
11
350.504969728005
21
-341.937131564457
31
0
0
LINE
8
layer0
10
350.504969728005
20
-341.937131564457
30
0
11
350.504969728005
21
366.471648731214
31
0
0
LINE
8
layer0
10
350.504969728005
20
366.471648731214
30
0
11
573.004969728005
21
559.162301073252
31
0
0
LINE
8
layer0
10
573.004969728005
20
559.162301073252
30
0
11
573.004969728005
21
-149.246479222419
31
0
0
LINE
8
layer0
10
350.504969728005
20
366.471648731214
30
0
11
350.504969728005
21
-212.033320996791
31
0
0
LINE
8
layer0
10
350.504969728005
20
-212.033320996791
30
0
11
300.504969728005
21
-255.334591186013
31
0
0
LINE
8
layer0
10
300.504969728005
20
-255.334591186013
30
0
11
300.504969728005
21
323.170378541992
31
0
0
LINE
8
layer0
10
300.504969728005
20
323.170378541992
30
0
11
350.504969728005
21
366.471648731214
31
0
0
LINE
8
layer0
10
866.656110383531
20
217.471648731214
30
0
11
866.656110383531
21
-490.937131564457
31
0
0
LINE
8
layer0
10
866.656110383531
20
-490.937131564457
30
0
11
1089.15611038353
21
-298.246479222419
31
0
0
LINE
8
layer0
10
1089.15611038353
20
-298.246479222419
30
0
11
1089.15611038353
21
410.162301073252
31
0
0
LINE
8
layer0
10
1089.15611038353
20
410.162301073252
30
0
11
866.656110383531
21
217.471648731214
31
0
0
LINE
8
layer0
10
816.656110383531
20
-404.334591186013
30
0
11
866.656110383531
21
-361.033320996791
31
0
0
LINE
8
layer0
10
866.656110383531
20
-361.033320996791
30
0
11
866.656110383531
21
217.471648731214
31
0
0
LINE
8
layer0
10
866.656110383531
20
217.471648731214
30
0
11
816.656110383531
21
174.170378541992
31
0
0
LINE
8
layer0
10
816.656110383531
20
174.170378541992
30
0
11
816.656110383531
21
-404.334591186013
31
0
0
LINE
8
layer0
10
1089.15611038353
20
410.162301073252
30
0
11
573.004969728005
21
559.162301073252
31
0
0
LINE
8
layer0
10
573.004969728005
20
559.162301073252
30
0
11
350.504969728005
21
366.471648731214
31
0
0
LINE
8
layer0
10
350.504969728005
20
366.471648731214
30
0
11
866.656110383531
21
217.471648731214
31
0
0
LINE
8
layer0
10
866.656110383531
20
217.471648731214
30
0
11
1089.15611038353
21
410.162301073252
31
0
0
LINE
8
layer0
10
866.656110383531
20
217.471648731214
30
0
11
350.504969728005
21
366.471648731214
31
0
0
LINE
8
layer0
10
350.504969728005
20
366.471648731214
30
0
11
300.504969728005
21
323.170378541992
31
0
0
LINE
8
layer0
10
300.504969728005
20
323.170378541992
30
0
11
816.656110383531
21
174.170378541992
31
0
0
LINE
8
layer0
10
816.656110383531
20
174.170378541992
30
0
11
866.656110383531
21
217.471648731214
31
0
0
LINE
8
layer0
10
573.004969728005
20
-149.246479222419
30
0
11
1089.15611038353
21
-298.246479222419
31
0
0
LINE
8
layer0
10
1089.15611038353
20
-298.246479222419
30
0
11
866.656110383531
21
-490.937131564457
31
0
0
LINE
8
layer0
10
866.656110383531
20
-490.937131564457
30
0
11
350.504969728005
21
-341.937131564457
31
0
0
LINE
8
layer0
10
350.504969728005
20
-341.937131564457
30
0
11
573.004969728005
21
-149.246479222419
31
0
0
LINE
8
layer0
10
350.504969728005
20
-212.033320996791
30
0
11
866.656110383531
21
-361.033320996791
31
0
0
LINE
8
layer0
10
866.656110383531
20
-361.033320996791
30
0
11
816.656110383531
21
-404.334591186013
31
0
0
LINE
8
layer0
10
816.656110383531
20
-404.334591186013
30
0
11
300.504969728005
21
-255.334591186013
31
0
0
LINE
8
layer0
10
300.504969728005
20
-255.334591186013
30
0
11
350.504969728005
21
-212.033320996791
31
0
0
LINE
8
layer0
10
350.504969728005
20
-341.937131564457
30
0
11
866.656110383531
21
-490.937131564457
31
0
0
LINE
8
layer0
10
866.656110383531
20
-490.937131564457
30
0
11
866.656110383531
21
-361.033320996791
31
0
0
LINE
8
layer0
10
866.656110383531
20
-361.033320996791
30
0
11
350.504969728005
21
-212.033320996791
31
0
0
LINE
8
layer0
10
350.504969728005
20
-212.033320996791
30
0
11
350.504969728005
21
-341.937131564457
31
0
0
ENDBLK
0
BLOCK
8
layer0
2
PF_OBJECT65
70
0
10
0
20
0
30
0
0
LINE
8
layer0
10
816.656110383531
20
-404.334591186013
30
0
11
300.504969728005
21
-255.334591186013
31
0
0
LINE
8
layer0
10
300.504969728005
20
-255.334591186013
30
0
11
300.504969728005
21
323.170378541992
31
0
0
LINE
8
layer0
10
300.504969728005
20
323.170378541992
30
0
11
816.656110383531
21
174.170378541992
31
0
0
LINE
8
layer0
10
816.656110383531
20
174.170378541992
30
0
11
816.656110383531
21
-404.334591186013
31
0
0
LINE
8
layer0
10
290.504969728005
20
-263.994845223857
30
0
11
806.656110383531
21
-412.994845223857
31
0
0
LINE
8
layer0
10
806.656110383531
20
-412.994845223857
30
0
11
806.656110383531
21
165.510124504148
31
0
0
LINE
8
layer0
10
806.656110383531
20
165.510124504148
30
0
11
290.504969728005
21
314.510124504148
31
0
0
LINE
8
layer0
10
290.504969728005
20
314.510124504148
30
0
11
290.504969728005
21
-263.994845223857
31
0
0
LINE
8
layer0
10
300.504969728005
20
-255.334591186013
30
0
11
290.504969728005
21
-263.994845223857
31
0
0
LINE
8
layer0
10
290.504969728005
20
-263.994845223857
30
0
11
290.504969728005
21
314.510124504148
31
0
0
LINE
8
layer0
10
290.504969728005
20
314.510124504148
30
0
11
300.504969728005
21
323.170378541992
31
0
0
LINE
8
layer0
10
300.504969728005
20
323.170378541992
30
0
11
300.504969728005
21
-255.334591186013
31
0
0
LINE
8
layer0
10
806.656110383531
20
-412.994845223857
30
0
11
816.656110383531
21
-404.334591186013
31
0
0
LINE
8
layer0
10
816.656110383531
20
-404.334591186013
30
0
11
816.656110383531
21
174.170378541992
31
0
0
LINE
8
layer0
10
816.656110383531
20
174.170378541992
30
0
11
806.656110383531
21
165.510124504148
31
0
0
LINE
8
layer0
10
806.656110383531
20
165.510124504148
30
0
11
806.656110383531
21
-412.994845223857
31
0
0
LINE
8
layer0
10
816.656110383531
20
174.170378541992
30
0
11
300.504969728005
21
323.170378541992
31
0
0
LINE
8
layer0
10
300.504969728005
20
323.170378541992
30
0
11
290.504969728005
21
314.510124504148
31
0
0
LINE
8
layer0
10
290.504969728005
20
314.510124504148
30
0
11
806.656110383531
21
165.510124504148
31
0
0
LINE
8
layer0
10
806.656110383531
20
165.510124504148
30
0
11
816.656110383531
21
174.170378541992
31
0
0
LINE
8
layer0
10
300.504969728005
20
-255.334591186013
30
0
11
816.656110383531
21
-404.334591186013
31
0
0
LINE
8
layer0
10
816.656110383531
20
-404.334591186013
30
0
11
806.656110383531
21
-412.994845223857
31
0
0
LINE
8
layer0
10
806.656110383531
20
-412.994845223857
30
0
11
290.504969728005
21
-263.994845223857
31
0
0
LINE
8
layer0
10
290.504969728005
20
-263.994845223857
30
0
11
300.504969728005
21
-255.334591186013
31
0
0
ENDBLK
0
BLOCK
8
layer0
2
PF_OBJECT66
70
0
10
0
20
0
30
0
0
LINE
8
layer0
10
2127.95358222296
20
-577.336869531592
30
0
11
1612.66846697122
21
-428.586869531592
31
0
0
LINE
8
layer0
10
1612.66846697122
20
-428.586869531592
30
0
11
1612.66846697122
21
-324.66382107746
31
0
0
LINE
8
layer0
10
1612.66846697122
20
-324.66382107746
30
0
11
2127.95358222296
21
-473.41382107746
31
0
0
LINE
8
layer0
10
2127.95358222296
20
-473.41382107746
30
0
11
2127.95358222296
21
-577.336869531592
31
0
0
LINE
8
layer0
10
1387.66846697122
20
-623.442585383091
30
0
11
1902.95358222296
21
-772.192585383091
31
0
0
LINE
8
layer0
10
1902.95358222296
20
-772.192585383091
30
0
11
1902.95358222296
21
-668.269536928958
31
0
0
LINE
8
layer0
10
1902.95358222296
20
-668.269536928958
30
0
11
1387.66846697122
21
-519.519536928958
31
0
0
LINE
8
layer0
10
1387.66846697122
20
-519.519536928958
30
0
11
1387.66846697122
21
-623.442585383091
31
0
0
LINE
8
layer0
10
1612.66846697122
20
-428.586869531592
30
0
11
1387.66846697122
21
-623.442585383091
31
0
0
LINE
8
layer0
10
1387.66846697122
20
-623.442585383091
30
0
11
1387.66846697122
21
-519.519536928958
31
0
0
LINE
8
layer0
10
1387.66846697122
20
-519.519536928958
30
0
11
1612.66846697122
21
-324.66382107746
31
0
0
LINE
8
layer0
10
1612.66846697122
20
-324.66382107746
30
0
11
1612.66846697122
21
-428.586869531592
31
0
0
LINE
8
layer0
10
1902.95358222296
20
-772.192585383091
30
0
11
2127.95358222296
21
-577.336869531592
31
0
0
LINE
8
layer0
10
2127.95358222296
20
-577.336869531592
30
0
11
2127.95358222296
21
-473.41382107746
31
0
0
LINE
8
layer0
10
2127.95358222296
20
-473.41382107746
30
0
11
1902.95358222296
21
-668.269536928958
31
0
0
LINE
8
layer0
10
1902.95358222296
20
-668.269536928958
30
0
11
1902.95358222296
21
-772.192585383091
31
0
0
LINE
8
layer0
10
2127.95358222296
20
-473.41382107746
30
0
11
1612.66846697122
21
-324.66382107746
31
0
0
LINE
8
layer0
10
1612.66846697122
20
-324.66382107746
30
0
11
1387.66846697122
21
-519.519536928958
31
0
0
LINE
8
layer0
10
1387.66846697122
20
-519.519536928958
30
0
11
1902.95358222296
21
-668.269536928958
31
0
0
LINE
8
layer0
10
1902.95358222296
20
-668.269536928958
30
0
11
2127.95358222296
21
-473.41382107746
31
0
0
LINE
8
layer0
10
1612.66846697122
20
-428.586869531592
30
0
11
2127.95358222296
21
-577.336869531592
31
0
0
LINE
8
layer0
10
2127.95358222296
20
-577.336869531592
30
0
11
1902.95358222296
21
-772.192585383091
31
0
0
LINE
8
layer0
10
1902.95358222296
20
-772.192585383091
30
0
11
1387.66846697122
21
-623.442585383091
31
0
0
LINE
8
layer0
10
1387.66846697122
20
-623.442585383091
30
0
11
1612.66846697122
21
-428.586869531592
31
0
0
ENDBLK
0
BLOCK
8
layer0
2
PF_OBJECT67
70
0
10
0
20
0
30
0
0
LINE
8
layer0
10
2127.95358222296
20
-473.41382107746
30
0
11
1612.66846697122
21
-324.66382107746
31
0
0
LINE
8
layer0
10
1612.66846697122
20
-324.66382107746
30
0
11
1612.66846697122
21
281.553961571647
31
0
0
LINE
8
layer0
10
1612.66846697122
20
281.553961571647
30
0
11
2127.95358222296
21
132.803961571647
31
0
0
LINE
8
layer0
10
2127.95358222296
20
132.803961571647
30
0
11
2127.95358222296
21
-473.41382107746
31
0
0
LINE
8
layer0
10
1337.66846697122
20
-562.82080711818
30
0
11
1852.95358222296
21
-711.57080711818
31
0
0
LINE
8
layer0
10
1852.95358222296
20
-711.57080711818
30
0
11
1852.95358222296
21
-105.353024469073
31
0
0
LINE
8
layer0
10
1852.95358222296
20
-105.353024469073
30
0
11
1337.66846697122
21
43.3969755309267
31
0
0
LINE
8
layer0
10
1337.66846697122
20
43.3969755309267
30
0
11
1337.66846697122
21
-562.82080711818
31
0
0
LINE
8
layer0
10
1612.66846697122
20
-324.66382107746
30
0
11
1337.66846697122
21
-562.82080711818
31
0
0
LINE
8
layer0
10
1337.66846697122
20
-562.82080711818
30
0
11
1337.66846697122
21
43.3969755309267
31
0
0
LINE
8
layer0
10
1337.66846697122
20
43.3969755309267
30
0
11
1612.66846697122
21
281.553961571647
31
0
0
LINE
8
layer0
10
1612.66846697122
20
281.553961571647
30
0
11
1612.66846697122
21
-324.66382107746
31
0
0
LINE
8
layer0
10
1852.95358222296
20
-711.57080711818
30
0
11
2127.95358222296
21
-473.41382107746
31
0
0
LINE
8
layer0
10
2127.95358222296
20
-473.41382107746
30
0
11
2127.95358222296
21
132.803961571647
31
0
0
LINE
8
layer0
10
2127.95358222296
20
132.803961571647
30
0
11
1852.95358222296
21
-105.353024469073
31
0
0
LINE
8
layer0
10
1852.95358222296
20
-105.353024469073
30
0
11
1852.95358222296
21
-711.57080711818
31
0
0
LINE
8
layer0
10
2127.95358222296
20
132.803961571647
30
0
11
1612.66846697122
21
281.553961571647
31
0
0
LINE
8
layer0
10
1612.66846697122
20
281.553961571647
30
0
11
1337.66846697122
21
43.3969755309267
31
0
0
LINE
8
layer0
10
1337.66846697122
20
43.3969755309267
30
0
11
1852.95358222296
21
-105.353024469073
31
0
0
LINE
8
layer0
10
1852.95358222296
20
-105.353024469073
30
0
11
2127.95358222296
21
132.803961571647
31
0
0
LINE
8
layer0
10
1612.66846697122
20
-324.66382107746
30
0
11
2127.95358222296
21
-473.41382107746
31
0
0
LINE
8
layer0
10
2127.95358222296
20
-473.41382107746
30
0
11
1852.95358222296
21
-711.57080711818
31
0
0
LINE
8
layer0
10
1852.95358222296
20
-711.57080711818
30
0
11
1337.66846697122
21
-562.82080711818
31
0
0
LINE
8
layer0
10
1337.66846697122
20
-562.82080711818
30
0
11
1612.66846697122
21
-324.66382107746
31
0
0
ENDBLK
0
ENDSEC
0
SECTION
2
ENTITIES
0
INSERT
2
PF_OBJECT0
8
0
10
0
20
0
30
0
0
INSERT
2
PF_OBJECT1
8
0
10
0
20
0
30
0
0
INSERT
2
PF_OBJECT2
8
0
10
0
20
0
30
0
0
INSERT
2
PF_OBJECT3
8
0
10
0
20
0
30
0
0
INSERT
2
PF_OBJECT4
8
0
10
0
20
0
30
0
0
INSERT
2
PF_OBJECT5
8
0
10
0
20
0
30
0
0
INSERT
2
PF_SKETCH6
8
0
10
0
20
0
30
0
0
INSERT
2
PF_SKETCH7
8
0
10
0
20
0
30
0
0
INSERT
2
PF_SKETCH8
8
0
10
0
20
0
30
0
0
INSERT
2
PF_SKETCH9
8
0
10
0
20
0
30
0
0
INSERT
2
PF_SKETCH10
8
0
10
0
20
0
30
0
0
INSERT
2
PF_SKETCH11
8
0
10
0
20
0
30
0
0
INSERT
2
PF_OBJECT12
8
0
10
0
20
0
30
0
0
INSERT
2
PF_OBJECT13
8
0
10
0
20
0
30
0
0
INSERT
2
PF_OBJECT14
8
0
10
0
20
0
30
0
0
INSERT
2
PF_OBJECT15
8
0
10
0
20
0
30
0
0
INSERT
2
PF_OBJECT16
8
0
10
0
20
0
30
0
0
INSERT
2
PF_OBJECT17
8
0
10
0
20
0
30
0
0
INSERT
2
PF_OBJECT18
8
0
10
0
20
0
30
0
0
INSERT
2
PF_OBJECT19
8
0
10
0
20
0
30
0
0
INSERT
2
PF_OBJECT20
8
0
10
0
20
0
30
0
0
INSERT
2
PF_OBJECT21
8
0
10
0
20
0
30
0
0
INSERT
2
PF_SKETCH22
8
0
10
0
20
0
30
0
0
INSERT
2
PF_SKETCH23
8
0
10
0
20
0
30
0
0
INSERT
2
PF_SKETCH24
8
0
10
0
20
0
30
0
0
INSERT
2
PF_SKETCH25
8
0
10
0
20
0
30
0
0
INSERT
2
PF_SKETCH26
8
0
10
0
20
0
30
0
0
INSERT
2
PF_SKETCH27
8
0
10
0
20
0
30
0
0
INSERT
2
PF_OBJECT28
8
0
10
0
20
0
30
0
0
INSERT
2
PF_OBJECT29
8
0
10
0
20
0
30
0
0
INSERT
2
PF_SKETCH30
8
0
10
0
20
0
30
0
0
INSERT
2
PF_SKETCH31
8
0
10
0
20
0
30
0
0
INSERT
2
PF_SKETCH32
8
0
10
0
20
0
30
0
0
INSERT
2
PF_SKETCH33
8
0
10
0
20
0
30
0
0
INSERT
2
PF_SKETCH34
8
0
10
0
20
0
30
0
0
INSERT
2
PF_SKETCH35
8
0
10
0
20
0
30
0
0
INSERT
2
PF_OBJECT36
8
0
10
0
20
0
30
0
0
INSERT
2
PF_OBJECT37
8
0
10
0
20
0
30
0
0
INSERT
2
PF_OBJECT38
8
0
10
0
20
0
30
0
0
INSERT
2
PF_OBJECT39
8
0
10
0
20
0
30
0
0
INSERT
2
PF_OBJECT40
8
0
10
0
20
0
30
0
0
INSERT
2
PF_OBJECT41
8
0
10
0
20
0
30
0
0
INSERT
2
PF_OBJECT42
8
0
10
0
20
0
30
0
0
INSERT
2
PF_OBJECT43
8
0
10
0
20
0
30
0
0
INSERT
2
PF_OBJECT44
8
0
10
0
20
0
30
0
0
INSERT
2
PF_OBJECT45
8
0
10
0
20
0
30
0
0
INSERT
2
PF_OBJECT46
8
0
10
0
20
0
30
0
0
INSERT
2
PF_OBJECT47
8
0
10
0
20
0
30
0
0
INSERT
2
PF_SKETCH48
8
0
10
0
20
0
30
0
0
INSERT
2
PF_SKETCH49
8
0
10
0
20
0
30
0
0
INSERT
2
PF_OBJECT50
8
0
10
0
20
0
30
0
0
INSERT
2
PF_OBJECT51
8
0
10
0
20
0
30
0
0
INSERT
2
PF_OBJECT52
8
0
10
0
20
0
30
0
0
INSERT
2
PF_OBJECT53
8
0
10
0
20
0
30
0
0
INSERT
2
PF_OBJECT54
8
0
10
0
20
0
30
0
0
INSERT
2
PF_OBJECT55
8
0
10
0
20
0
30
0
0
INSERT
2
PF_OBJECT56
8
0
10
0
20
0
30
0
0
INSERT
2
PF_OBJECT57
8
0
10
0
20
0
30
0
0
INSERT
2
PF_OBJECT58
8
0
10
0
20
0
30
0
0
INSERT
2
PF_SKETCH59
8
0
10
0
20
0
30
0
0
INSERT
2
PF_SKETCH60
8
0
10
0
20
0
30
0
0
INSERT
2
PF_OBJECT61
8
0
10
0
20
0
30
0
0
INSERT
2
PF_OBJECT62
8
0
10
0
20
0
30
0
0
INSERT
2
PF_OBJECT63
8
0
10
0
20
0
30
0
0
INSERT
2
PF_OBJECT64
8
0
10
0
20
0
30
0
0
INSERT
2
PF_OBJECT65
8
0
10
0
20
0
30
0
0
INSERT
2
PF_OBJECT66
8
0
10
0
20
0
30
0
0
INSERT
2
PF_OBJECT67
8
0
10
0
20
0
30
0
0
ENDSEC
0
EOF
