0
SECTION
2
HEADER
9
$EXTMIN
10
-570.000000000001
20
-570
30
0
9
$EXTMAX
10
4570
20
2750
30
0
0
ENDSEC
0
SECTION
2
TABLES
0
TABLE
2
LAYER
5
2
70
3
0
LAYER
5
14
2
layer0
5
14
70
0
62
7
6
CONTINUOUS
0
ENDTAB
0
TABLE
2
DIMSTYLE
70
2
0
DIMSTYLE
2
PFDIMSTYLE
70
0
3

4

5

6

7

40
1
41
30
42
0
43
0
44
1
45
0
46
0
47
0
48
0
71
0
72
0
73
0
74
0
75
0
76
0
77
2
78
12
140
30
141
0
142
0
143
1
144
1
145
0
146
1
147
5
170
0
171
1
172
0
173
1
174
0
175
0
176
7
177
7
178
7
0
ENDTAB
0
ENDSEC
0
SECTION
2
BLOCKS
0
BLOCK
8
layer0
2
PF_OBJECT0
70
0
10
0
20
0
30
0
0
LINE
8
layer0
10
3499.10161513775
20
1325.27820916122
30
0
11
3499.10161513775
21
-969.689110867545
31
0
0
LINE
8
layer0
10
3499.10161513775
20
-969.689110867545
30
0
11
-25.6217782649107
21
47.8108891324554
31
0
0
LINE
8
layer0
10
-25.6217782649107
20
47.8108891324554
30
0
11
-25.6217782649108
21
2342.77820916122
31
0
0
LINE
8
layer0
10
-25.6217782649108
20
2342.77820916122
30
0
11
3499.10161513775
21
1325.27820916122
31
0
0
LINE
8
layer0
10
3464.10161513775
20
1294.96732002876
30
0
11
3499.10161513775
21
1325.27820916122
31
0
0
LINE
8
layer0
10
3499.10161513775
20
1325.27820916122
30
0
11
-25.6217782649107
21
2342.77820916122
31
0
0
LINE
8
layer0
10
-25.6217782649107
20
2342.77820916122
30
0
11
-2.46139223857096E-14
21
2294.96732002876
31
0
0
LINE
8
layer0
10
-2.46139223857096E-14
20
2294.96732002876
30
0
11
3464.10161513775
21
1294.96732002876
31
0
0
LINE
8
layer0
10
0
20
0
30
0
11
-25.6217782649108
21
47.8108891324554
31
0
0
LINE
8
layer0
10
-25.6217782649108
20
47.8108891324554
30
0
11
3499.10161513775
21
-969.689110867545
31
0
0
LINE
8
layer0
10
3499.10161513775
20
-969.689110867545
30
0
11
3464.10161513775
21
-1000
31
0
0
LINE
8
layer0
10
3464.10161513775
20
-1000
30
0
11
0
21
0
31
0
0
LINE
8
layer0
10
3464.10161513775
20
1294.96732002876
30
0
11
3464.10161513775
21
-1000
31
0
0
LINE
8
layer0
10
3464.10161513775
20
-1000
30
0
11
3499.10161513775
21
-969.689110867545
31
0
0
LINE
8
layer0
10
3499.10161513775
20
-969.689110867545
30
0
11
3499.10161513775
21
1325.27820916122
31
0
0
LINE
8
layer0
10
3499.10161513775
20
1325.27820916122
30
0
11
3464.10161513775
21
1294.96732002876
31
0
0
LINE
8
layer0
10
-25.6217782649108
20
2342.77820916122
30
0
11
-25.6217782649108
21
47.8108891324554
31
0
0
LINE
8
layer0
10
-25.6217782649108
20
47.8108891324554
30
0
11
-3.69208835785644E-14
21
1.06581410364015E-14
31
0
0
LINE
8
layer0
10
-3.69208835785644E-14
20
1.06581410364015E-14
30
0
11
-2.46139223857096E-14
21
2294.96732002876
31
0
0
LINE
8
layer0
10
-2.46139223857096E-14
20
2294.96732002876
30
0
11
-25.6217782649108
21
2342.77820916122
31
0
0
LINE
8
layer0
10
0
20
2294.96732002876
30
0
11
-2.46139223857096E-14
21
7.105427357601E-15
31
0
0
LINE
8
layer0
10
-2.46139223857096E-14
20
7.105427357601E-15
30
0
11
3464.10161513775
21
-1000
31
0
0
LINE
8
layer0
10
3464.10161513775
20
-1000
30
0
11
3464.10161513775
21
1294.96732002876
31
0
0
LINE
8
layer0
10
3464.10161513775
20
1294.96732002876
30
0
11
0
21
2294.96732002876
31
0
0
ENDBLK
0
BLOCK
8
layer0
2
PF_OBJECT1
70
0
10
0
20
0
30
0
0
LINE
8
layer0
10
-25.621778264911
20
2342.77820916122
30
0
11
-25.621778264911
21
47.8108891324557
31
0
0
LINE
8
layer0
10
-25.621778264911
20
47.8108891324557
30
0
11
-1560.62177826491
21
-1281.53810567666
31
0
0
LINE
8
layer0
10
-1560.62177826491
20
-1281.53810567666
30
0
11
-1560.62177826491
21
1013.4292143521
31
0
0
LINE
8
layer0
10
-1560.62177826491
20
1013.4292143521
30
0
11
-25.621778264911
21
2342.77820916122
31
0
0
LINE
8
layer0
10
-2.27373675443232E-13
20
2294.96732002876
30
0
11
-25.621778264911
21
2342.77820916122
31
0
0
LINE
8
layer0
10
-25.621778264911
20
2342.77820916122
30
0
11
-1560.62177826491
21
1013.4292143521
31
0
0
LINE
8
layer0
10
-1560.62177826491
20
1013.4292143521
30
0
11
-1500
21
995.929214352105
31
0
0
LINE
8
layer0
10
-1500
20
995.929214352105
30
0
11
-2.27373675443232E-13
21
2294.96732002876
31
0
0
LINE
8
layer0
10
-1500
20
-1299.03810567666
30
0
11
-1560.62177826491
21
-1281.53810567666
31
0
0
LINE
8
layer0
10
-1560.62177826491
20
-1281.53810567666
30
0
11
-25.621778264911
21
47.8108891324557
31
0
0
LINE
8
layer0
10
-25.621778264911
20
47.8108891324557
30
0
11
-2.27373675443232E-13
21
4.54747350886464E-13
31
0
0
LINE
8
layer0
10
-2.27373675443232E-13
20
4.54747350886464E-13
30
0
11
-1500
21
-1299.03810567666
31
0
0
LINE
8
layer0
10
-1560.62177826491
20
1013.4292143521
30
0
11
-1560.62177826491
21
-1281.53810567666
31
0
0
LINE
8
layer0
10
-1560.62177826491
20
-1281.53810567666
30
0
11
-1500
21
-1299.03810567666
31
0
0
LINE
8
layer0
10
-1500
20
-1299.03810567666
30
0
11
-1500
21
995.929214352105
31
0
0
LINE
8
layer0
10
-1500
20
995.929214352105
30
0
11
-1560.62177826491
21
1013.4292143521
31
0
0
LINE
8
layer0
10
-4.54747350886464E-13
20
2294.96732002876
30
0
11
-4.54747350886464E-13
21
2.27373675443232E-13
31
0
0
LINE
8
layer0
10
-4.54747350886464E-13
20
2.27373675443232E-13
30
0
11
-25.6217782649112
21
47.8108891324555
31
0
0
LINE
8
layer0
10
-25.6217782649112
20
47.8108891324555
30
0
11
-25.6217782649112
21
2342.77820916122
31
0
0
LINE
8
layer0
10
-25.6217782649112
20
2342.77820916122
30
0
11
-4.54747350886464E-13
21
2294.96732002876
31
0
0
LINE
8
layer0
10
-1500
20
995.929214352105
30
0
11
-1500
21
-1299.03810567666
31
0
0
LINE
8
layer0
10
-1500
20
-1299.03810567666
30
0
11
-2.27373675443232E-13
21
4.54747350886464E-13
31
0
0
LINE
8
layer0
10
-2.27373675443232E-13
20
4.54747350886464E-13
30
0
11
-2.27373675443232E-13
21
2294.96732002876
31
0
0
LINE
8
layer0
10
-2.27373675443232E-13
20
2294.96732002876
30
0
11
-1500
21
995.929214352105
31
0
0
ENDBLK
0
BLOCK
8
layer0
2
PF_OBJECT2
70
0
10
0
20
0
30
0
0
LINE
8
layer0
10
0
20
0
30
0
11
-1500
21
-1299.03810567666
31
0
0
LINE
8
layer0
10
-1500
20
-1299.03810567666
30
0
11
1964.10161513776
21
-2299.03810567666
31
0
0
LINE
8
layer0
10
1964.10161513776
20
-2299.03810567666
30
0
11
3464.10161513775
21
-1000
31
0
0
LINE
8
layer0
10
3464.10161513775
20
-1000
30
0
11
0
21
0
31
0
0
LINE
8
layer0
10
0
20
0
30
0
11
3464.10161513775
21
-1000
31
0
0
LINE
8
layer0
10
3464.10161513775
20
-1000
30
0
11
-1500
21
-1299.03810567666
31
0
0
LINE
8
layer0
10
-1500
20
-1299.03810567666
30
0
11
0
21
0
31
0
0
LINE
8
layer0
10
3464.10161513775
20
-1000
30
0
11
1964.10161513776
21
-2299.03810567666
31
0
0
LINE
8
layer0
10
1964.10161513776
20
-2299.03810567666
30
0
11
-1500
21
-1299.03810567666
31
0
0
LINE
8
layer0
10
-1500
20
-1299.03810567666
30
0
11
3464.10161513775
21
-1000
31
0
0
ENDBLK
0
BLOCK
8
layer0
2
PF_OBJECT3
70
0
10
0
20
0
30
0
0
LINE
8
layer0
10
565.076341338959
20
-161.391438084799
30
0
11
272.076341338959
21
-415.13688139364
31
0
0
LINE
8
layer0
10
272.076341338959
20
-415.13688139364
30
0
11
272.076341338959
21
338.305219898822
31
0
0
LINE
8
layer0
10
272.076341338959
20
338.305219898822
30
0
11
565.076341338959
21
592.050663207662
31
0
0
LINE
8
layer0
10
565.076341338959
20
592.050663207662
30
0
11
565.076341338959
21
-161.391438084799
31
0
0
LINE
8
layer0
10
285.272918920436
20
-418.946405203164
30
0
11
578.272918920436
21
-165.200961894323
31
0
0
LINE
8
layer0
10
578.272918920436
20
-165.200961894323
30
0
11
578.272918920436
21
588.241139398138
31
0
0
LINE
8
layer0
10
578.272918920436
20
588.241139398138
30
0
11
285.272918920436
21
334.495696089298
31
0
0
LINE
8
layer0
10
285.272918920436
20
334.495696089298
30
0
11
285.272918920436
21
-418.946405203164
31
0
0
LINE
8
layer0
10
272.076341338959
20
-415.13688139364
30
0
11
285.272918920436
21
-418.946405203164
31
0
0
LINE
8
layer0
10
285.272918920436
20
-418.946405203164
30
0
11
285.272918920436
21
334.495696089298
31
0
0
LINE
8
layer0
10
285.272918920436
20
334.495696089298
30
0
11
272.076341338959
21
338.305219898822
31
0
0
LINE
8
layer0
10
272.076341338959
20
338.305219898822
30
0
11
272.076341338959
21
-415.13688139364
31
0
0
LINE
8
layer0
10
578.272918920436
20
-165.200961894323
30
0
11
565.076341338959
21
-161.391438084799
31
0
0
LINE
8
layer0
10
565.076341338959
20
-161.391438084799
30
0
11
565.076341338959
21
592.050663207662
31
0
0
LINE
8
layer0
10
565.076341338959
20
592.050663207662
30
0
11
578.272918920436
21
588.241139398138
31
0
0
LINE
8
layer0
10
578.272918920436
20
588.241139398138
30
0
11
578.272918920436
21
-165.200961894323
31
0
0
LINE
8
layer0
10
565.076341338959
20
592.050663207662
30
0
11
272.076341338959
21
338.305219898822
31
0
0
LINE
8
layer0
10
272.076341338959
20
338.305219898822
30
0
11
285.272918920436
21
334.495696089298
31
0
0
LINE
8
layer0
10
285.272918920436
20
334.495696089298
30
0
11
578.272918920436
21
588.241139398138
31
0
0
LINE
8
layer0
10
578.272918920436
20
588.241139398138
30
0
11
565.076341338959
21
592.050663207662
31
0
0
LINE
8
layer0
10
272.076341338959
20
-415.13688139364
30
0
11
565.076341338959
21
-161.391438084799
31
0
0
LINE
8
layer0
10
565.076341338959
20
-161.391438084799
30
0
11
578.272918920436
21
-165.200961894323
31
0
0
LINE
8
layer0
10
578.272918920436
20
-165.200961894323
30
0
11
285.272918920436
21
-418.946405203164
31
0
0
LINE
8
layer0
10
285.272918920436
20
-418.946405203164
30
0
11
272.076341338959
21
-415.13688139364
31
0
0
ENDBLK
0
BLOCK
8
layer0
2
PF_OBJECT4
70
0
10
0
20
0
30
0
0
LINE
8
layer0
10
600.97026751311
20
189.668146458447
30
0
11
604.032129691589
21
190.052527822407
31
0
0
LINE
8
layer0
10
604.032129691589
20
190.052527822407
30
0
11
595.799896644555
21
182.923204873802
31
0
0
LINE
8
layer0
10
595.799896644555
20
182.923204873802
30
0
11
590.97026751311
21
181.007892420603
31
0
0
LINE
8
layer0
10
590.97026751311
20
181.007892420603
30
0
11
600.97026751311
21
189.668146458447
31
0
0
LINE
8
layer0
10
597.908405334631
20
191.820294775373
30
0
11
600.97026751311
21
189.668146458447
31
0
0
LINE
8
layer0
10
600.97026751311
20
189.668146458447
30
0
11
590.97026751311
21
181.007892420603
31
0
0
LINE
8
layer0
10
590.97026751311
20
181.007892420603
30
0
11
586.140638381664
21
181.62910964829
31
0
0
LINE
8
layer0
10
586.140638381664
20
181.62910964829
30
0
11
597.908405334631
21
191.820294775373
31
0
0
LINE
8
layer0
10
596.640140494187
20
195.248273477369
30
0
11
597.908405334631
21
191.820294775373
31
0
0
LINE
8
layer0
10
597.908405334631
20
191.820294775373
30
0
11
586.140638381664
21
181.62910964829
31
0
0
LINE
8
layer0
10
586.140638381664
20
181.62910964829
30
0
11
584.140140494187
21
184.422955930064
31
0
0
LINE
8
layer0
10
584.140140494187
20
184.422955930064
30
0
11
596.640140494187
21
195.248273477369
31
0
0
LINE
8
layer0
10
597.908405334631
20
197.944019132331
30
0
11
596.640140494187
21
195.248273477369
31
0
0
LINE
8
layer0
10
596.640140494187
20
195.248273477369
30
0
11
584.140140494187
21
184.422955930064
31
0
0
LINE
8
layer0
10
584.140140494187
20
184.422955930064
30
0
11
584.140140494187
21
184.422955930064
31
0
0
LINE
8
layer0
10
584.140140494187
20
184.422955930064
30
0
11
586.140638381664
21
187.752834005248
31
0
0
LINE
8
layer0
10
586.140638381664
20
187.752834005248
30
0
11
597.908405334631
21
197.944019132331
31
0
0
LINE
8
layer0
10
597.908405334631
20
197.944019132331
30
0
11
600.97026751311
21
198.328400496291
31
0
0
LINE
8
layer0
10
600.97026751311
20
198.328400496291
30
0
11
604.032129691589
21
196.176252179365
31
0
0
LINE
8
layer0
10
604.032129691589
20
196.176252179365
30
0
11
605.300394532032
21
192.748273477369
31
0
0
LINE
8
layer0
10
605.300394532032
20
192.748273477369
30
0
11
604.032129691589
21
190.052527822407
31
0
0
LINE
8
layer0
10
604.032129691589
20
190.052527822407
30
0
11
600.97026751311
21
189.668146458447
31
0
0
LINE
8
layer0
10
600.97026751311
20
189.668146458447
30
0
11
597.908405334631
21
191.820294775373
31
0
0
LINE
8
layer0
10
597.908405334631
20
191.820294775373
30
0
11
596.640140494187
21
195.248273477369
31
0
0
LINE
8
layer0
10
596.640140494187
20
195.248273477369
30
0
11
597.908405334631
21
197.944019132331
31
0
0
LINE
8
layer0
10
590.97026751311
20
189.668146458447
30
0
11
586.140638381664
21
187.752834005248
31
0
0
LINE
8
layer0
10
586.140638381664
20
187.752834005248
30
0
11
584.140140494187
21
184.422955930064
31
0
0
LINE
8
layer0
10
584.140140494187
20
184.422955930064
30
0
11
586.140638381664
21
181.62910964829
31
0
0
LINE
8
layer0
10
586.140638381664
20
181.62910964829
30
0
11
590.97026751311
21
181.007892420603
31
0
0
LINE
8
layer0
10
590.97026751311
20
181.007892420603
30
0
11
595.799896644555
21
182.923204873802
31
0
0
LINE
8
layer0
10
595.799896644555
20
182.923204873802
30
0
11
597.800394532032
21
186.253082948986
31
0
0
LINE
8
layer0
10
597.800394532032
20
186.253082948986
30
0
11
595.799896644555
21
189.04692923076
31
0
0
LINE
8
layer0
10
595.799896644555
20
189.04692923076
30
0
11
590.97026751311
21
189.668146458447
31
0
0
LINE
8
layer0
10
600.97026751311
20
198.328400496291
30
0
11
597.908405334631
21
197.944019132331
31
0
0
LINE
8
layer0
10
597.908405334631
20
197.944019132331
30
0
11
586.140638381664
21
187.752834005248
31
0
0
LINE
8
layer0
10
586.140638381664
20
187.752834005248
30
0
11
590.97026751311
21
189.668146458447
31
0
0
LINE
8
layer0
10
590.97026751311
20
189.668146458447
30
0
11
600.97026751311
21
198.328400496291
31
0
0
LINE
8
layer0
10
604.032129691589
20
190.052527822407
30
0
11
605.300394532032
21
192.748273477369
31
0
0
LINE
8
layer0
10
605.300394532032
20
192.748273477369
30
0
11
597.800394532032
21
186.253082948986
31
0
0
LINE
8
layer0
10
597.800394532032
20
186.253082948986
30
0
11
595.799896644555
21
182.923204873802
31
0
0
LINE
8
layer0
10
595.799896644555
20
182.923204873802
30
0
11
604.032129691589
21
190.052527822407
31
0
0
LINE
8
layer0
10
605.300394532032
20
192.748273477369
30
0
11
604.032129691589
21
196.176252179365
31
0
0
LINE
8
layer0
10
604.032129691589
20
196.176252179365
30
0
11
595.799896644555
21
189.04692923076
31
0
0
LINE
8
layer0
10
595.799896644555
20
189.04692923076
30
0
11
597.800394532032
21
186.253082948986
31
0
0
LINE
8
layer0
10
597.800394532032
20
186.253082948986
30
0
11
605.300394532032
21
192.748273477369
31
0
0
LINE
8
layer0
10
604.032129691589
20
196.176252179365
30
0
11
600.97026751311
21
198.328400496291
31
0
0
LINE
8
layer0
10
600.97026751311
20
198.328400496291
30
0
11
590.97026751311
21
189.668146458447
31
0
0
LINE
8
layer0
10
590.97026751311
20
189.668146458447
30
0
11
595.799896644555
21
189.04692923076
31
0
0
LINE
8
layer0
10
595.799896644555
20
189.04692923076
30
0
11
604.032129691589
21
196.176252179365
31
0
0
ENDBLK
0
BLOCK
8
layer0
2
PF_OBJECT5
70
0
10
0
20
0
30
0
0
LINE
8
layer0
10
767.247145039722
20
141.668146458447
30
0
11
770.309007218201
21
142.052527822407
31
0
0
LINE
8
layer0
10
770.309007218201
20
142.052527822407
30
0
11
758.541240265234
21
131.861342695323
31
0
0
LINE
8
layer0
10
758.541240265234
20
131.861342695323
30
0
11
757.247145039722
21
133.007892420603
31
0
0
LINE
8
layer0
10
757.247145039722
20
133.007892420603
30
0
11
767.247145039722
21
141.668146458447
31
0
0
LINE
8
layer0
10
764.185282861243
20
143.820294775373
30
0
11
767.247145039722
21
141.668146458447
31
0
0
LINE
8
layer0
10
767.247145039722
20
141.668146458447
30
0
11
757.247145039722
21
133.007892420603
31
0
0
LINE
8
layer0
10
757.247145039722
20
133.007892420603
30
0
11
755.953049814209
21
136.690971826769
31
0
0
LINE
8
layer0
10
755.953049814209
20
136.690971826769
30
0
11
764.185282861243
21
143.820294775373
31
0
0
LINE
8
layer0
10
762.9170180208
20
147.248273477369
30
0
11
764.185282861243
21
143.820294775373
31
0
0
LINE
8
layer0
10
764.185282861243
20
143.820294775373
30
0
11
755.953049814209
21
136.690971826769
31
0
0
LINE
8
layer0
10
755.953049814209
20
136.690971826769
30
0
11
755.4170180208
21
140.753082948986
31
0
0
LINE
8
layer0
10
755.4170180208
20
140.753082948986
30
0
11
762.9170180208
21
147.248273477369
31
0
0
LINE
8
layer0
10
764.185282861243
20
149.944019132331
30
0
11
762.9170180208
21
147.248273477369
31
0
0
LINE
8
layer0
10
762.9170180208
20
147.248273477369
30
0
11
755.4170180208
21
140.753082948986
31
0
0
LINE
8
layer0
10
755.4170180208
20
140.753082948986
30
0
11
755.953049814209
21
142.814696183727
31
0
0
LINE
8
layer0
10
755.953049814209
20
142.814696183727
30
0
11
764.185282861243
21
149.944019132331
31
0
0
LINE
8
layer0
10
764.185282861243
20
149.944019132331
30
0
11
767.247145039722
21
150.328400496291
31
0
0
LINE
8
layer0
10
767.247145039722
20
150.328400496291
30
0
11
770.309007218201
21
148.176252179365
31
0
0
LINE
8
layer0
10
770.309007218201
20
148.176252179365
30
0
11
771.577272058644
21
144.748273477369
31
0
0
LINE
8
layer0
10
771.577272058644
20
144.748273477369
30
0
11
770.309007218201
21
142.052527822407
31
0
0
LINE
8
layer0
10
770.309007218201
20
142.052527822407
30
0
11
767.247145039722
21
141.668146458447
31
0
0
LINE
8
layer0
10
767.247145039722
20
141.668146458447
30
0
11
764.185282861243
21
143.820294775373
31
0
0
LINE
8
layer0
10
764.185282861243
20
143.820294775373
30
0
11
762.9170180208
21
147.248273477369
31
0
0
LINE
8
layer0
10
762.9170180208
20
147.248273477369
30
0
11
764.185282861243
21
149.944019132331
31
0
0
LINE
8
layer0
10
757.247145039722
20
141.668146458447
30
0
11
755.953049814209
21
142.814696183727
31
0
0
LINE
8
layer0
10
755.953049814209
20
142.814696183727
30
0
11
755.4170180208
21
140.753082948986
31
0
0
LINE
8
layer0
10
755.4170180208
20
140.753082948986
30
0
11
755.953049814209
21
136.690971826769
31
0
0
LINE
8
layer0
10
755.953049814209
20
136.690971826769
30
0
11
757.247145039722
21
133.007892420603
31
0
0
LINE
8
layer0
10
757.247145039722
20
133.007892420603
30
0
11
758.541240265234
21
131.861342695323
31
0
0
LINE
8
layer0
10
758.541240265234
20
131.861342695323
30
0
11
759.077272058644
21
133.922955930064
31
0
0
LINE
8
layer0
10
759.077272058644
20
133.922955930064
30
0
11
758.541240265234
21
137.985067052281
31
0
0
LINE
8
layer0
10
758.541240265234
20
137.985067052281
30
0
11
757.247145039722
21
141.668146458447
31
0
0
LINE
8
layer0
10
767.247145039722
20
150.328400496291
30
0
11
764.185282861243
21
149.944019132331
31
0
0
LINE
8
layer0
10
764.185282861243
20
149.944019132331
30
0
11
755.953049814209
21
142.814696183727
31
0
0
LINE
8
layer0
10
755.953049814209
20
142.814696183727
30
0
11
757.247145039722
21
141.668146458447
31
0
0
LINE
8
layer0
10
757.247145039722
20
141.668146458447
30
0
11
767.247145039722
21
150.328400496291
31
0
0
LINE
8
layer0
10
770.309007218201
20
142.052527822407
30
0
11
771.577272058644
21
144.748273477369
31
0
0
LINE
8
layer0
10
771.577272058644
20
144.748273477369
30
0
11
759.077272058644
21
133.922955930064
31
0
0
LINE
8
layer0
10
759.077272058644
20
133.922955930064
30
0
11
759.077272058644
21
133.922955930064
31
0
0
LINE
8
layer0
10
759.077272058644
20
133.922955930064
30
0
11
758.541240265234
21
131.861342695323
31
0
0
LINE
8
layer0
10
758.541240265234
20
131.861342695323
30
0
11
770.309007218201
21
142.052527822407
31
0
0
LINE
8
layer0
10
771.577272058644
20
144.748273477369
30
0
11
770.309007218201
21
148.176252179365
31
0
0
LINE
8
layer0
10
770.309007218201
20
148.176252179365
30
0
11
758.541240265234
21
137.985067052281
31
0
0
LINE
8
layer0
10
758.541240265234
20
137.985067052281
30
0
11
759.077272058644
21
133.922955930064
31
0
0
LINE
8
layer0
10
759.077272058644
20
133.922955930064
30
0
11
771.577272058644
21
144.748273477369
31
0
0
LINE
8
layer0
10
770.309007218201
20
148.176252179365
30
0
11
767.247145039722
21
150.328400496291
31
0
0
LINE
8
layer0
10
767.247145039722
20
150.328400496291
30
0
11
757.247145039722
21
141.668146458447
31
0
0
LINE
8
layer0
10
757.247145039722
20
141.668146458447
30
0
11
758.541240265234
21
137.985067052281
31
0
0
LINE
8
layer0
10
758.541240265234
20
137.985067052281
30
0
11
770.309007218201
21
148.176252179365
31
0
0
ENDBLK
0
BLOCK
8
layer0
2
PF_OBJECT6
70
0
10
0
20
0
30
0
0
LINE
8
layer0
10
590.97026751311
20
181.007892420603
30
0
11
595.799896644555
21
182.923204873802
31
0
0
LINE
8
layer0
10
595.799896644555
20
182.923204873802
30
0
11
755.953049814209
21
136.690971826769
31
0
0
LINE
8
layer0
10
755.953049814209
20
136.690971826769
30
0
11
757.247145039722
21
133.007892420603
31
0
0
LINE
8
layer0
10
757.247145039722
20
133.007892420603
30
0
11
590.97026751311
21
181.007892420603
31
0
0
LINE
8
layer0
10
586.140638381664
20
181.62910964829
30
0
11
590.97026751311
21
181.007892420603
31
0
0
LINE
8
layer0
10
590.97026751311
20
181.007892420603
30
0
11
757.247145039722
21
133.007892420603
31
0
0
LINE
8
layer0
10
757.247145039722
20
133.007892420603
30
0
11
758.541240265234
21
131.861342695323
31
0
0
LINE
8
layer0
10
758.541240265234
20
131.861342695323
30
0
11
586.140638381664
21
181.62910964829
31
0
0
LINE
8
layer0
10
584.140140494187
20
184.422955930064
30
0
11
584.140140494187
21
184.422955930064
31
0
0
LINE
8
layer0
10
584.140140494187
20
184.422955930064
30
0
11
586.140638381664
21
181.62910964829
31
0
0
LINE
8
layer0
10
586.140638381664
20
181.62910964829
30
0
11
758.541240265234
21
131.861342695323
31
0
0
LINE
8
layer0
10
758.541240265234
20
131.861342695323
30
0
11
759.077272058644
21
133.922955930064
31
0
0
LINE
8
layer0
10
759.077272058644
20
133.922955930064
30
0
11
584.140140494187
21
184.422955930064
31
0
0
LINE
8
layer0
10
586.140638381664
20
187.752834005248
30
0
11
584.140140494187
21
184.422955930064
31
0
0
LINE
8
layer0
10
584.140140494187
20
184.422955930064
30
0
11
584.140140494187
21
184.422955930064
31
0
0
LINE
8
layer0
10
584.140140494187
20
184.422955930064
30
0
11
759.077272058644
21
133.922955930064
31
0
0
LINE
8
layer0
10
759.077272058644
20
133.922955930064
30
0
11
759.077272058644
21
133.922955930064
31
0
0
LINE
8
layer0
10
759.077272058644
20
133.922955930064
30
0
11
758.541240265234
21
137.985067052281
31
0
0
LINE
8
layer0
10
758.541240265234
20
137.985067052281
30
0
11
586.140638381664
21
187.752834005248
31
0
0
LINE
8
layer0
10
595.799896644555
20
189.04692923076
30
0
11
597.800394532032
21
186.253082948986
31
0
0
LINE
8
layer0
10
597.800394532032
20
186.253082948986
30
0
11
595.799896644555
21
182.923204873802
31
0
0
LINE
8
layer0
10
595.799896644555
20
182.923204873802
30
0
11
590.97026751311
21
181.007892420603
31
0
0
LINE
8
layer0
10
590.97026751311
20
181.007892420603
30
0
11
586.140638381664
21
181.62910964829
31
0
0
LINE
8
layer0
10
586.140638381664
20
181.62910964829
30
0
11
584.140140494187
21
184.422955930064
31
0
0
LINE
8
layer0
10
584.140140494187
20
184.422955930064
30
0
11
584.140140494187
21
184.422955930064
31
0
0
LINE
8
layer0
10
584.140140494187
20
184.422955930064
30
0
11
586.140638381664
21
187.752834005248
31
0
0
LINE
8
layer0
10
586.140638381664
20
187.752834005248
30
0
11
590.97026751311
21
189.668146458447
31
0
0
LINE
8
layer0
10
590.97026751311
20
189.668146458447
30
0
11
595.799896644555
21
189.04692923076
31
0
0
LINE
8
layer0
10
757.247145039722
20
141.668146458447
30
0
11
758.541240265234
21
137.985067052281
31
0
0
LINE
8
layer0
10
758.541240265234
20
137.985067052281
30
0
11
759.077272058644
21
133.922955930064
31
0
0
LINE
8
layer0
10
759.077272058644
20
133.922955930064
30
0
11
758.541240265234
21
131.861342695323
31
0
0
LINE
8
layer0
10
758.541240265234
20
131.861342695323
30
0
11
757.247145039722
21
133.007892420603
31
0
0
LINE
8
layer0
10
757.247145039722
20
133.007892420603
30
0
11
755.953049814209
21
136.690971826769
31
0
0
LINE
8
layer0
10
755.953049814209
20
136.690971826769
30
0
11
755.4170180208
21
140.753082948986
31
0
0
LINE
8
layer0
10
755.4170180208
20
140.753082948986
30
0
11
755.953049814209
21
142.814696183727
31
0
0
LINE
8
layer0
10
755.953049814209
20
142.814696183727
30
0
11
757.247145039722
21
141.668146458447
31
0
0
LINE
8
layer0
10
590.97026751311
20
189.668146458447
30
0
11
586.140638381664
21
187.752834005248
31
0
0
LINE
8
layer0
10
586.140638381664
20
187.752834005248
30
0
11
758.541240265234
21
137.985067052281
31
0
0
LINE
8
layer0
10
758.541240265234
20
137.985067052281
30
0
11
757.247145039722
21
141.668146458447
31
0
0
LINE
8
layer0
10
757.247145039722
20
141.668146458447
30
0
11
590.97026751311
21
189.668146458447
31
0
0
LINE
8
layer0
10
595.799896644555
20
182.923204873802
30
0
11
597.800394532032
21
186.253082948986
31
0
0
LINE
8
layer0
10
597.800394532032
20
186.253082948986
30
0
11
755.4170180208
21
140.753082948986
31
0
0
LINE
8
layer0
10
755.4170180208
20
140.753082948986
30
0
11
755.953049814209
21
136.690971826769
31
0
0
LINE
8
layer0
10
755.953049814209
20
136.690971826769
30
0
11
595.799896644555
21
182.923204873802
31
0
0
LINE
8
layer0
10
597.800394532032
20
186.253082948986
30
0
11
595.799896644555
21
189.04692923076
31
0
0
LINE
8
layer0
10
595.799896644555
20
189.04692923076
30
0
11
755.953049814209
21
142.814696183727
31
0
0
LINE
8
layer0
10
755.953049814209
20
142.814696183727
30
0
11
755.4170180208
21
140.753082948986
31
0
0
LINE
8
layer0
10
755.4170180208
20
140.753082948986
30
0
11
597.800394532032
21
186.253082948986
31
0
0
LINE
8
layer0
10
595.799896644555
20
189.04692923076
30
0
11
590.97026751311
21
189.668146458447
31
0
0
LINE
8
layer0
10
590.97026751311
20
189.668146458447
30
0
11
757.247145039722
21
141.668146458447
31
0
0
LINE
8
layer0
10
757.247145039722
20
141.668146458447
30
0
11
755.953049814209
21
142.814696183727
31
0
0
LINE
8
layer0
10
755.953049814209
20
142.814696183727
30
0
11
595.799896644555
21
189.04692923076
31
0
0
ENDBLK
0
BLOCK
8
layer0
2
PF_OBJECT7
70
0
10
0
20
0
30
0
0
LINE
8
layer0
10
809.290084979746
20
-429.632340597654
30
0
11
294.87099513179
21
-281.132340597654
31
0
0
LINE
8
layer0
10
294.87099513179
20
-281.132340597654
30
0
11
294.87099513179
21
331.147619877945
31
0
0
LINE
8
layer0
10
294.87099513179
20
331.147619877945
30
0
11
809.290084979746
21
182.647619877945
31
0
0
LINE
8
layer0
10
809.290084979746
20
182.647619877945
30
0
11
809.290084979746
21
-429.632340597654
31
0
0
LINE
8
layer0
10
284.87099513179
20
-289.792594635498
30
0
11
799.290084979746
21
-438.292594635498
31
0
0
LINE
8
layer0
10
799.290084979746
20
-438.292594635498
30
0
11
799.290084979746
21
173.9873658401
31
0
0
LINE
8
layer0
10
799.290084979746
20
173.9873658401
30
0
11
284.87099513179
21
322.4873658401
31
0
0
LINE
8
layer0
10
284.87099513179
20
322.4873658401
30
0
11
284.87099513179
21
-289.792594635498
31
0
0
LINE
8
layer0
10
294.87099513179
20
-281.132340597654
30
0
11
284.87099513179
21
-289.792594635498
31
0
0
LINE
8
layer0
10
284.87099513179
20
-289.792594635498
30
0
11
284.87099513179
21
322.4873658401
31
0
0
LINE
8
layer0
10
284.87099513179
20
322.4873658401
30
0
11
294.87099513179
21
331.147619877945
31
0
0
LINE
8
layer0
10
294.87099513179
20
331.147619877945
30
0
11
294.87099513179
21
-281.132340597654
31
0
0
LINE
8
layer0
10
799.290084979746
20
-438.292594635498
30
0
11
809.290084979746
21
-429.632340597654
31
0
0
LINE
8
layer0
10
809.290084979746
20
-429.632340597654
30
0
11
809.290084979746
21
182.647619877945
31
0
0
LINE
8
layer0
10
809.290084979746
20
182.647619877945
30
0
11
799.290084979746
21
173.9873658401
31
0
0
LINE
8
layer0
10
799.290084979746
20
173.9873658401
30
0
11
799.290084979746
21
-438.292594635498
31
0
0
LINE
8
layer0
10
809.290084979746
20
182.647619877945
30
0
11
294.87099513179
21
331.147619877945
31
0
0
LINE
8
layer0
10
294.87099513179
20
331.147619877945
30
0
11
284.87099513179
21
322.4873658401
31
0
0
LINE
8
layer0
10
284.87099513179
20
322.4873658401
30
0
11
799.290084979746
21
173.9873658401
31
0
0
LINE
8
layer0
10
799.290084979746
20
173.9873658401
30
0
11
809.290084979746
21
182.647619877945
31
0
0
LINE
8
layer0
10
294.87099513179
20
-281.132340597654
30
0
11
809.290084979746
21
-429.632340597654
31
0
0
LINE
8
layer0
10
809.290084979746
20
-429.632340597654
30
0
11
799.290084979746
21
-438.292594635498
31
0
0
LINE
8
layer0
10
799.290084979746
20
-438.292594635498
30
0
11
284.87099513179
21
-289.792594635498
31
0
0
LINE
8
layer0
10
284.87099513179
20
-289.792594635498
30
0
11
294.87099513179
21
-281.132340597654
31
0
0
ENDBLK
0
BLOCK
8
layer0
70
0
10
0
20
0
30
0
2
PF_SKETCH8
0
LINE
8
layer0
10
529.60625225377
20
546.094569747296
30
0
11
482.439585587103
21
505.24703820213
31
0
0
ENDBLK
0
BLOCK
8
layer0
70
0
10
0
20
0
30
0
2
PF_SKETCH9
0
LINE
8
layer0
10
1049.22149452443
20
396.094569747296
30
0
11
1002.05482785777
21
355.24703820213
31
0
0
ENDBLK
0
BLOCK
8
layer0
70
0
10
0
20
0
30
0
2
PF_SKETCH10
0
LINE
8
layer0
10
435.272918920436
20
464.399506656964
30
0
11
388.10625225377
21
423.551975111798
31
0
0
ENDBLK
0
BLOCK
8
layer0
70
0
10
0
20
0
30
0
2
PF_SKETCH11
0
LINE
8
layer0
10
954.888161191099
20
314.399506656964
30
0
11
907.721494524433
21
273.551975111798
31
0
0
ENDBLK
0
BLOCK
8
layer0
70
0
10
0
20
0
30
0
2
PF_SKETCH12
0
LINE
8
layer0
10
340.939585587103
20
382.704443566632
30
0
11
293.772918920436
21
341.856912021466
31
0
0
ENDBLK
0
BLOCK
8
layer0
70
0
10
0
20
0
30
0
2
PF_SKETCH13
0
LINE
8
layer0
10
860.554827857766
20
232.704443566632
30
0
11
813.388161191099
21
191.856912021466
31
0
0
ENDBLK
0
BLOCK
8
layer0
2
PF_OBJECT14
70
0
10
0
20
0
30
0
0
LINE
8
layer0
10
1575.14699700121
20
-355.978875334514
30
0
11
1083.24456765165
21
-213.978875334514
31
0
0
LINE
8
layer0
10
1083.24456765165
20
-213.978875334514
30
0
11
1083.24456765165
21
-200.122468873963
31
0
0
LINE
8
layer0
10
1083.24456765165
20
-200.122468873963
30
0
11
1575.14699700121
21
-342.122468873963
31
0
0
LINE
8
layer0
10
1575.14699700121
20
-342.122468873963
30
0
11
1575.14699700121
21
-355.978875334514
31
0
0
LINE
8
layer0
10
827.744567651651
20
-435.248366001438
30
0
11
1319.64699700121
21
-577.248366001438
31
0
0
LINE
8
layer0
10
1319.64699700121
20
-577.248366001438
30
0
11
1319.64699700121
21
-563.391959540887
31
0
0
LINE
8
layer0
10
1319.64699700121
20
-563.391959540887
30
0
11
827.744567651651
21
-421.391959540887
31
0
0
LINE
8
layer0
10
827.744567651651
20
-421.391959540887
30
0
11
827.744567651651
21
-435.248366001438
31
0
0
LINE
8
layer0
10
1083.24456765165
20
-213.978875334514
30
0
11
827.744567651651
21
-435.248366001438
31
0
0
LINE
8
layer0
10
827.744567651651
20
-435.248366001438
30
0
11
827.744567651651
21
-421.391959540887
31
0
0
LINE
8
layer0
10
827.744567651651
20
-421.391959540887
30
0
11
1083.24456765165
21
-200.122468873963
31
0
0
LINE
8
layer0
10
1083.24456765165
20
-200.122468873963
30
0
11
1083.24456765165
21
-213.978875334514
31
0
0
LINE
8
layer0
10
1319.64699700121
20
-577.248366001438
30
0
11
1575.14699700121
21
-355.978875334514
31
0
0
LINE
8
layer0
10
1575.14699700121
20
-355.978875334514
30
0
11
1575.14699700121
21
-342.122468873963
31
0
0
LINE
8
layer0
10
1575.14699700121
20
-342.122468873963
30
0
11
1319.64699700121
21
-563.391959540887
31
0
0
LINE
8
layer0
10
1319.64699700121
20
-563.391959540887
30
0
11
1319.64699700121
21
-577.248366001438
31
0
0
LINE
8
layer0
10
1575.14699700121
20
-342.122468873963
30
0
11
1083.24456765165
21
-200.122468873963
31
0
0
LINE
8
layer0
10
1083.24456765165
20
-200.122468873963
30
0
11
827.744567651651
21
-421.391959540887
31
0
0
LINE
8
layer0
10
827.744567651651
20
-421.391959540887
30
0
11
1319.64699700121
21
-563.391959540887
31
0
0
LINE
8
layer0
10
1319.64699700121
20
-563.391959540887
30
0
11
1575.14699700121
21
-342.122468873963
31
0
0
LINE
8
layer0
10
1083.24456765165
20
-213.978875334514
30
0
11
1575.14699700121
21
-355.978875334514
31
0
0
LINE
8
layer0
10
1575.14699700121
20
-355.978875334514
30
0
11
1319.64699700121
21
-577.248366001438
31
0
0
LINE
8
layer0
10
1319.64699700121
20
-577.248366001438
30
0
11
827.744567651651
21
-435.248366001438
31
0
0
LINE
8
layer0
10
827.744567651651
20
-435.248366001438
30
0
11
1083.24456765165
21
-213.978875334514
31
0
0
ENDBLK
0
BLOCK
8
layer0
2
PF_OBJECT15
70
0
10
0
20
0
30
0
0
LINE
8
layer0
10
1577.14699700121
20
-354.246824526945
30
0
11
1085.24456765165
21
-212.246824526945
31
0
0
LINE
8
layer0
10
1085.24456765165
20
-212.246824526945
30
0
11
1085.24456765165
21
411.291466197851
31
0
0
LINE
8
layer0
10
1085.24456765165
20
411.291466197851
30
0
11
1577.14699700121
21
269.291466197851
31
0
0
LINE
8
layer0
10
1577.14699700121
20
269.291466197851
30
0
11
1577.14699700121
21
-354.246824526945
31
0
0
LINE
8
layer0
10
1083.24456765165
20
-213.978875334514
30
0
11
1575.14699700121
21
-355.978875334514
31
0
0
LINE
8
layer0
10
1575.14699700121
20
-355.978875334514
30
0
11
1575.14699700121
21
267.559415390282
31
0
0
LINE
8
layer0
10
1575.14699700121
20
267.559415390282
30
0
11
1083.24456765165
21
409.559415390282
31
0
0
LINE
8
layer0
10
1083.24456765165
20
409.559415390282
30
0
11
1083.24456765165
21
-213.978875334514
31
0
0
LINE
8
layer0
10
1085.24456765165
20
-212.246824526945
30
0
11
1083.24456765165
21
-213.978875334514
31
0
0
LINE
8
layer0
10
1083.24456765165
20
-213.978875334514
30
0
11
1083.24456765165
21
409.559415390282
31
0
0
LINE
8
layer0
10
1083.24456765165
20
409.559415390282
30
0
11
1085.24456765165
21
411.291466197851
31
0
0
LINE
8
layer0
10
1085.24456765165
20
411.291466197851
30
0
11
1085.24456765165
21
-212.246824526945
31
0
0
LINE
8
layer0
10
1575.14699700121
20
-355.978875334514
30
0
11
1577.14699700121
21
-354.246824526945
31
0
0
LINE
8
layer0
10
1577.14699700121
20
-354.246824526945
30
0
11
1577.14699700121
21
269.291466197851
31
0
0
LINE
8
layer0
10
1577.14699700121
20
269.291466197851
30
0
11
1575.14699700121
21
267.559415390282
31
0
0
LINE
8
layer0
10
1575.14699700121
20
267.559415390282
30
0
11
1575.14699700121
21
-355.978875334514
31
0
0
LINE
8
layer0
10
1577.14699700121
20
269.291466197851
30
0
11
1085.24456765165
21
411.291466197851
31
0
0
LINE
8
layer0
10
1085.24456765165
20
411.291466197851
30
0
11
1083.24456765165
21
409.559415390282
31
0
0
LINE
8
layer0
10
1083.24456765165
20
409.559415390282
30
0
11
1575.14699700121
21
267.559415390282
31
0
0
LINE
8
layer0
10
1575.14699700121
20
267.559415390282
30
0
11
1577.14699700121
21
269.291466197851
31
0
0
LINE
8
layer0
10
1085.24456765165
20
-212.246824526945
30
0
11
1577.14699700121
21
-354.246824526945
31
0
0
LINE
8
layer0
10
1577.14699700121
20
-354.246824526945
30
0
11
1575.14699700121
21
-355.978875334514
31
0
0
LINE
8
layer0
10
1575.14699700121
20
-355.978875334514
30
0
11
1083.24456765165
21
-213.978875334514
31
0
0
LINE
8
layer0
10
1083.24456765165
20
-213.978875334514
30
0
11
1085.24456765165
21
-212.246824526945
31
0
0
ENDBLK
0
BLOCK
8
layer0
2
PF_OBJECT16
70
0
10
0
20
0
30
0
0
LINE
8
layer0
10
1575.14699700121
20
267.559415390282
30
0
11
1083.24456765165
21
409.559415390282
31
0
0
LINE
8
layer0
10
1083.24456765165
20
409.559415390282
30
0
11
1075.24456765165
21
402.631212160006
31
0
0
LINE
8
layer0
10
1075.24456765165
20
402.631212160006
30
0
11
1567.14699700121
21
260.631212160006
31
0
0
LINE
8
layer0
10
1567.14699700121
20
260.631212160006
30
0
11
1575.14699700121
21
267.559415390282
31
0
0
LINE
8
layer0
10
1083.24456765165
20
366.25814520106
30
0
11
1575.14699700121
21
224.25814520106
31
0
0
LINE
8
layer0
10
1575.14699700121
20
224.25814520106
30
0
11
1567.14699700121
21
217.329941970784
31
0
0
LINE
8
layer0
10
1567.14699700121
20
217.329941970784
30
0
11
1075.24456765165
21
359.329941970784
31
0
0
LINE
8
layer0
10
1075.24456765165
20
359.329941970784
30
0
11
1083.24456765165
21
366.25814520106
31
0
0
LINE
8
layer0
10
1083.24456765165
20
409.559415390282
30
0
11
1083.24456765165
21
366.25814520106
31
0
0
LINE
8
layer0
10
1083.24456765165
20
366.25814520106
30
0
11
1075.24456765165
21
359.329941970784
31
0
0
LINE
8
layer0
10
1075.24456765165
20
359.329941970784
30
0
11
1075.24456765165
21
402.631212160006
31
0
0
LINE
8
layer0
10
1075.24456765165
20
402.631212160006
30
0
11
1083.24456765165
21
409.559415390282
31
0
0
LINE
8
layer0
10
1575.14699700121
20
224.25814520106
30
0
11
1575.14699700121
21
267.559415390282
31
0
0
LINE
8
layer0
10
1575.14699700121
20
267.559415390282
30
0
11
1567.14699700121
21
260.631212160006
31
0
0
LINE
8
layer0
10
1567.14699700121
20
260.631212160006
30
0
11
1567.14699700121
21
217.329941970784
31
0
0
LINE
8
layer0
10
1567.14699700121
20
217.329941970784
30
0
11
1575.14699700121
21
224.25814520106
31
0
0
LINE
8
layer0
10
1567.14699700121
20
260.631212160006
30
0
11
1075.24456765165
21
402.631212160006
31
0
0
LINE
8
layer0
10
1075.24456765165
20
402.631212160006
30
0
11
1075.24456765165
21
359.329941970784
31
0
0
LINE
8
layer0
10
1075.24456765165
20
359.329941970784
30
0
11
1567.14699700121
21
217.329941970784
31
0
0
LINE
8
layer0
10
1567.14699700121
20
217.329941970784
30
0
11
1567.14699700121
21
260.631212160006
31
0
0
LINE
8
layer0
10
1083.24456765165
20
409.559415390282
30
0
11
1575.14699700121
21
267.559415390282
31
0
0
LINE
8
layer0
10
1575.14699700121
20
267.559415390282
30
0
11
1575.14699700121
21
224.25814520106
31
0
0
LINE
8
layer0
10
1575.14699700121
20
224.25814520106
30
0
11
1083.24456765165
21
366.25814520106
31
0
0
LINE
8
layer0
10
1083.24456765165
20
366.25814520106
30
0
11
1083.24456765165
21
409.559415390282
31
0
0
ENDBLK
0
BLOCK
8
layer0
2
PF_OBJECT17
70
0
10
0
20
0
30
0
0
LINE
8
layer0
10
852.744567651651
20
196.084153357418
30
0
11
1344.64699700121
21
54.0841533574178
31
0
0
LINE
8
layer0
10
1344.64699700121
20
54.0841533574178
30
0
11
1319.64699700121
21
32.4335182628068
31
0
0
LINE
8
layer0
10
1319.64699700121
20
32.4335182628068
30
0
11
827.744567651651
21
174.433518262807
31
0
0
LINE
8
layer0
10
827.744567651651
20
174.433518262807
30
0
11
852.744567651651
21
196.084153357418
31
0
0
LINE
8
layer0
10
1344.64699700121
20
67.9405598179687
30
0
11
852.744567651651
21
209.940559817969
31
0
0
LINE
8
layer0
10
852.744567651651
20
209.940559817969
30
0
11
827.744567651651
21
188.289924723358
31
0
0
LINE
8
layer0
10
827.744567651651
20
188.289924723358
30
0
11
1319.64699700121
21
46.2899247233577
31
0
0
LINE
8
layer0
10
1319.64699700121
20
46.2899247233577
30
0
11
1344.64699700121
21
67.9405598179687
31
0
0
LINE
8
layer0
10
1319.64699700121
20
32.4335182628068
30
0
11
1344.64699700121
21
54.0841533574178
31
0
0
LINE
8
layer0
10
1344.64699700121
20
54.0841533574178
30
0
11
1344.64699700121
21
67.9405598179687
31
0
0
LINE
8
layer0
10
1344.64699700121
20
67.9405598179687
30
0
11
1319.64699700121
21
46.2899247233577
31
0
0
LINE
8
layer0
10
1319.64699700121
20
46.2899247233577
30
0
11
1319.64699700121
21
32.4335182628068
31
0
0
LINE
8
layer0
10
852.744567651651
20
196.084153357418
30
0
11
827.744567651651
21
174.433518262807
31
0
0
LINE
8
layer0
10
827.744567651651
20
174.433518262807
30
0
11
827.744567651651
21
188.289924723358
31
0
0
LINE
8
layer0
10
827.744567651651
20
188.289924723358
30
0
11
852.744567651651
21
209.940559817969
31
0
0
LINE
8
layer0
10
852.744567651651
20
209.940559817969
30
0
11
852.744567651651
21
196.084153357418
31
0
0
LINE
8
layer0
10
827.744567651651
20
174.433518262807
30
0
11
1319.64699700121
21
32.4335182628068
31
0
0
LINE
8
layer0
10
1319.64699700121
20
32.4335182628068
30
0
11
1319.64699700121
21
46.2899247233577
31
0
0
LINE
8
layer0
10
1319.64699700121
20
46.2899247233577
30
0
11
827.744567651651
21
188.289924723358
31
0
0
LINE
8
layer0
10
827.744567651651
20
188.289924723358
30
0
11
827.744567651651
21
174.433518262807
31
0
0
LINE
8
layer0
10
1344.64699700121
20
54.0841533574178
30
0
11
852.744567651651
21
196.084153357418
31
0
0
LINE
8
layer0
10
852.744567651651
20
196.084153357418
30
0
11
852.744567651651
21
209.940559817969
31
0
0
LINE
8
layer0
10
852.744567651651
20
209.940559817969
30
0
11
1344.64699700121
21
67.9405598179687
31
0
0
LINE
8
layer0
10
1344.64699700121
20
67.9405598179687
30
0
11
1344.64699700121
21
54.0841533574178
31
0
0
LINE
8
layer0
10
1602.14699700121
20
-332.596189432334
30
0
11
1616.00340346176
21
-336.596189432334
31
0
0
LINE
8
layer0
10
1616.00340346176
20
-336.596189432334
30
0
11
1333.00340346176
21
-581.68137870333
31
0
0
LINE
8
layer0
10
1333.00340346176
20
-581.68137870333
30
0
11
1319.14699700121
21
-577.68137870333
31
0
0
LINE
8
layer0
10
1319.14699700121
20
-577.68137870333
30
0
11
1602.14699700121
21
-332.596189432334
31
0
0
LINE
8
layer0
10
1616.00340346176
20
286.942101292462
30
0
11
1602.14699700121
21
290.942101292462
31
0
0
LINE
8
layer0
10
1602.14699700121
20
290.942101292462
30
0
11
1319.14699700121
21
45.8569120214656
31
0
0
LINE
8
layer0
10
1319.14699700121
20
45.8569120214656
30
0
11
1333.00340346176
21
41.8569120214656
31
0
0
LINE
8
layer0
10
1333.00340346176
20
41.8569120214656
30
0
11
1616.00340346176
21
286.942101292462
31
0
0
LINE
8
layer0
10
1333.00340346176
20
-581.68137870333
30
0
11
1616.00340346176
21
-336.596189432334
31
0
0
LINE
8
layer0
10
1616.00340346176
20
-336.596189432334
30
0
11
1616.00340346176
21
286.942101292462
31
0
0
LINE
8
layer0
10
1616.00340346176
20
286.942101292462
30
0
11
1333.00340346176
21
41.8569120214656
31
0
0
LINE
8
layer0
10
1333.00340346176
20
41.8569120214656
30
0
11
1333.00340346176
21
-581.68137870333
31
0
0
LINE
8
layer0
10
1602.14699700121
20
-332.596189432334
30
0
11
1319.14699700121
21
-577.68137870333
31
0
0
LINE
8
layer0
10
1319.14699700121
20
-577.68137870333
30
0
11
1319.14699700121
21
45.8569120214656
31
0
0
LINE
8
layer0
10
1319.14699700121
20
45.8569120214656
30
0
11
1602.14699700121
21
290.942101292462
31
0
0
LINE
8
layer0
10
1602.14699700121
20
290.942101292462
30
0
11
1602.14699700121
21
-332.596189432334
31
0
0
LINE
8
layer0
10
1319.14699700121
20
-577.68137870333
30
0
11
1333.00340346176
21
-581.68137870333
31
0
0
LINE
8
layer0
10
1333.00340346176
20
-581.68137870333
30
0
11
1333.00340346176
21
41.8569120214656
31
0
0
LINE
8
layer0
10
1333.00340346176
20
41.8569120214656
30
0
11
1319.14699700121
21
45.8569120214656
31
0
0
LINE
8
layer0
10
1319.14699700121
20
45.8569120214656
30
0
11
1319.14699700121
21
-577.68137870333
31
0
0
LINE
8
layer0
10
1616.00340346176
20
-336.596189432334
30
0
11
1602.14699700121
21
-332.596189432334
31
0
0
LINE
8
layer0
10
1602.14699700121
20
-332.596189432334
30
0
11
1602.14699700121
21
290.942101292462
31
0
0
LINE
8
layer0
10
1602.14699700121
20
290.942101292462
30
0
11
1616.00340346176
21
286.942101292462
31
0
0
LINE
8
layer0
10
1616.00340346176
20
286.942101292462
30
0
11
1616.00340346176
21
-336.596189432334
31
0
0
LINE
8
layer0
10
1096.3881611911
20
-186.596189432334
30
0
11
1110.24456765165
21
-190.596189432334
31
0
0
LINE
8
layer0
10
1110.24456765165
20
-190.596189432334
30
0
11
827.244567651651
21
-435.68137870333
31
0
0
LINE
8
layer0
10
827.244567651651
20
-435.68137870333
30
0
11
813.388161191099
21
-431.68137870333
31
0
0
LINE
8
layer0
10
813.388161191099
20
-431.68137870333
30
0
11
1096.3881611911
21
-186.596189432334
31
0
0
LINE
8
layer0
10
1110.24456765165
20
432.942101292462
30
0
11
1096.3881611911
21
436.942101292462
31
0
0
LINE
8
layer0
10
1096.3881611911
20
436.942101292462
30
0
11
813.388161191099
21
191.856912021466
31
0
0
LINE
8
layer0
10
813.388161191099
20
191.856912021466
30
0
11
827.244567651651
21
187.856912021466
31
0
0
LINE
8
layer0
10
827.244567651651
20
187.856912021466
30
0
11
1110.24456765165
21
432.942101292462
31
0
0
LINE
8
layer0
10
827.244567651651
20
-435.68137870333
30
0
11
1110.24456765165
21
-190.596189432334
31
0
0
LINE
8
layer0
10
1110.24456765165
20
-190.596189432334
30
0
11
1110.24456765165
21
432.942101292462
31
0
0
LINE
8
layer0
10
1110.24456765165
20
432.942101292462
30
0
11
827.244567651651
21
187.856912021466
31
0
0
LINE
8
layer0
10
827.244567651651
20
187.856912021466
30
0
11
827.244567651651
21
-435.68137870333
31
0
0
LINE
8
layer0
10
1096.3881611911
20
-186.596189432334
30
0
11
813.388161191099
21
-431.68137870333
31
0
0
LINE
8
layer0
10
813.388161191099
20
-431.68137870333
30
0
11
813.388161191099
21
191.856912021466
31
0
0
LINE
8
layer0
10
813.388161191099
20
191.856912021466
30
0
11
1096.3881611911
21
436.942101292462
31
0
0
LINE
8
layer0
10
1096.3881611911
20
436.942101292462
30
0
11
1096.3881611911
21
-186.596189432334
31
0
0
LINE
8
layer0
10
813.388161191099
20
-431.68137870333
30
0
11
827.244567651651
21
-435.68137870333
31
0
0
LINE
8
layer0
10
827.244567651651
20
-435.68137870333
30
0
11
827.244567651651
21
187.856912021466
31
0
0
LINE
8
layer0
10
827.244567651651
20
187.856912021466
30
0
11
813.388161191099
21
191.856912021466
31
0
0
LINE
8
layer0
10
813.388161191099
20
191.856912021466
30
0
11
813.388161191099
21
-431.68137870333
31
0
0
LINE
8
layer0
10
1110.24456765165
20
-190.596189432334
30
0
11
1096.3881611911
21
-186.596189432334
31
0
0
LINE
8
layer0
10
1096.3881611911
20
-186.596189432334
30
0
11
1096.3881611911
21
436.942101292462
31
0
0
LINE
8
layer0
10
1096.3881611911
20
436.942101292462
30
0
11
1110.24456765165
21
432.942101292462
31
0
0
LINE
8
layer0
10
1110.24456765165
20
432.942101292462
30
0
11
1110.24456765165
21
-190.596189432334
31
0
0
ENDBLK
0
BLOCK
8
layer0
2
PF_OBJECT18
70
0
10
0
20
0
30
0
0
LINE
8
layer0
10
1120.58550978377
20
39.6681464584471
30
0
11
1123.64737196225
21
40.0525278224071
31
0
0
LINE
8
layer0
10
1123.64737196225
20
40.0525278224071
30
0
11
1115.41513891522
21
32.9232048738022
31
0
0
LINE
8
layer0
10
1115.41513891522
20
32.9232048738022
30
0
11
1110.58550978377
21
31.0078924206027
31
0
0
LINE
8
layer0
10
1110.58550978377
20
31.0078924206027
30
0
11
1120.58550978377
21
39.6681464584471
31
0
0
LINE
8
layer0
10
1117.52364760529
20
41.8202947753735
30
0
11
1120.58550978377
21
39.6681464584471
31
0
0
LINE
8
layer0
10
1120.58550978377
20
39.6681464584471
30
0
11
1110.58550978377
21
31.0078924206027
31
0
0
LINE
8
layer0
10
1110.58550978377
20
31.0078924206027
30
0
11
1105.75588065233
21
31.6291096482897
31
0
0
LINE
8
layer0
10
1105.75588065233
20
31.6291096482897
30
0
11
1117.52364760529
21
41.8202947753735
31
0
0
LINE
8
layer0
10
1116.25538276485
20
45.2482734773692
30
0
11
1117.52364760529
21
41.8202947753735
31
0
0
LINE
8
layer0
10
1117.52364760529
20
41.8202947753735
30
0
11
1105.75588065233
21
31.6291096482897
31
0
0
LINE
8
layer0
10
1105.75588065233
20
31.6291096482897
30
0
11
1103.75538276485
21
34.4229559300637
31
0
0
LINE
8
layer0
10
1103.75538276485
20
34.4229559300637
30
0
11
1116.25538276485
21
45.2482734773692
31
0
0
LINE
8
layer0
10
1117.52364760529
20
47.9440191323314
30
0
11
1116.25538276485
21
45.2482734773692
31
0
0
LINE
8
layer0
10
1116.25538276485
20
45.2482734773692
30
0
11
1103.75538276485
21
34.4229559300637
31
0
0
LINE
8
layer0
10
1103.75538276485
20
34.4229559300637
30
0
11
1103.75538276485
21
34.4229559300637
31
0
0
LINE
8
layer0
10
1103.75538276485
20
34.4229559300637
30
0
11
1105.75588065233
21
37.7528340052476
31
0
0
LINE
8
layer0
10
1105.75588065233
20
37.7528340052476
30
0
11
1117.52364760529
21
47.9440191323314
31
0
0
LINE
8
layer0
10
1117.52364760529
20
47.9440191323314
30
0
11
1120.58550978377
21
48.3284004962914
31
0
0
LINE
8
layer0
10
1120.58550978377
20
48.3284004962914
30
0
11
1123.64737196225
21
46.176252179365
31
0
0
LINE
8
layer0
10
1123.64737196225
20
46.176252179365
30
0
11
1124.9156368027
21
42.7482734773692
31
0
0
LINE
8
layer0
10
1124.9156368027
20
42.7482734773692
30
0
11
1123.64737196225
21
40.0525278224071
31
0
0
LINE
8
layer0
10
1123.64737196225
20
40.0525278224071
30
0
11
1120.58550978377
21
39.6681464584471
31
0
0
LINE
8
layer0
10
1120.58550978377
20
39.6681464584471
30
0
11
1117.52364760529
21
41.8202947753735
31
0
0
LINE
8
layer0
10
1117.52364760529
20
41.8202947753735
30
0
11
1116.25538276485
21
45.2482734773692
31
0
0
LINE
8
layer0
10
1116.25538276485
20
45.2482734773692
30
0
11
1117.52364760529
21
47.9440191323314
31
0
0
LINE
8
layer0
10
1110.58550978377
20
39.668146458447
30
0
11
1105.75588065233
21
37.7528340052476
31
0
0
LINE
8
layer0
10
1105.75588065233
20
37.7528340052476
30
0
11
1103.75538276485
21
34.4229559300637
31
0
0
LINE
8
layer0
10
1103.75538276485
20
34.4229559300637
30
0
11
1105.75588065233
21
31.6291096482897
31
0
0
LINE
8
layer0
10
1105.75588065233
20
31.6291096482897
30
0
11
1110.58550978377
21
31.0078924206027
31
0
0
LINE
8
layer0
10
1110.58550978377
20
31.0078924206027
30
0
11
1115.41513891522
21
32.9232048738022
31
0
0
LINE
8
layer0
10
1115.41513891522
20
32.9232048738022
30
0
11
1117.4156368027
21
36.2530829489859
31
0
0
LINE
8
layer0
10
1117.4156368027
20
36.2530829489859
30
0
11
1115.41513891522
21
39.0469292307602
31
0
0
LINE
8
layer0
10
1115.41513891522
20
39.0469292307602
30
0
11
1110.58550978377
21
39.668146458447
31
0
0
LINE
8
layer0
10
1120.58550978377
20
48.3284004962914
30
0
11
1117.52364760529
21
47.9440191323314
31
0
0
LINE
8
layer0
10
1117.52364760529
20
47.9440191323314
30
0
11
1105.75588065233
21
37.7528340052476
31
0
0
LINE
8
layer0
10
1105.75588065233
20
37.7528340052476
30
0
11
1110.58550978377
21
39.668146458447
31
0
0
LINE
8
layer0
10
1110.58550978377
20
39.668146458447
30
0
11
1120.58550978377
21
48.3284004962914
31
0
0
LINE
8
layer0
10
1123.64737196225
20
40.0525278224071
30
0
11
1124.9156368027
21
42.7482734773692
31
0
0
LINE
8
layer0
10
1124.9156368027
20
42.7482734773692
30
0
11
1117.4156368027
21
36.2530829489859
31
0
0
LINE
8
layer0
10
1117.4156368027
20
36.2530829489859
30
0
11
1115.41513891522
21
32.9232048738022
31
0
0
LINE
8
layer0
10
1115.41513891522
20
32.9232048738022
30
0
11
1123.64737196225
21
40.0525278224071
31
0
0
LINE
8
layer0
10
1124.9156368027
20
42.7482734773692
30
0
11
1123.64737196225
21
46.176252179365
31
0
0
LINE
8
layer0
10
1123.64737196225
20
46.176252179365
30
0
11
1115.41513891522
21
39.0469292307602
31
0
0
LINE
8
layer0
10
1115.41513891522
20
39.0469292307602
30
0
11
1117.4156368027
21
36.2530829489859
31
0
0
LINE
8
layer0
10
1117.4156368027
20
36.2530829489859
30
0
11
1124.9156368027
21
42.7482734773692
31
0
0
LINE
8
layer0
10
1123.64737196225
20
46.176252179365
30
0
11
1120.58550978377
21
48.3284004962914
31
0
0
LINE
8
layer0
10
1120.58550978377
20
48.3284004962914
30
0
11
1110.58550978377
21
39.668146458447
31
0
0
LINE
8
layer0
10
1110.58550978377
20
39.668146458447
30
0
11
1115.41513891522
21
39.0469292307602
31
0
0
LINE
8
layer0
10
1115.41513891522
20
39.0469292307602
30
0
11
1123.64737196225
21
46.176252179365
31
0
0
ENDBLK
0
BLOCK
8
layer0
2
PF_OBJECT19
70
0
10
0
20
0
30
0
0
LINE
8
layer0
10
1286.86238731039
20
-8.3318535415529
30
0
11
1289.92424948886
21
-7.94747217759283
31
0
0
LINE
8
layer0
10
1289.92424948886
20
-7.94747217759283
30
0
11
1278.1564825359
21
-18.1386573046767
31
0
0
LINE
8
layer0
10
1278.1564825359
20
-18.1386573046767
30
0
11
1276.86238731039
21
-16.9921075793973
31
0
0
LINE
8
layer0
10
1276.86238731039
20
-16.9921075793973
30
0
11
1286.86238731039
21
-8.3318535415529
31
0
0
LINE
8
layer0
10
1283.80052513191
20
-6.1797052246265
30
0
11
1286.86238731039
21
-8.3318535415529
31
0
0
LINE
8
layer0
10
1286.86238731039
20
-8.3318535415529
30
0
11
1276.86238731039
21
-16.9921075793973
31
0
0
LINE
8
layer0
10
1276.86238731039
20
-16.9921075793973
30
0
11
1275.56829208487
21
-13.3090281732314
31
0
0
LINE
8
layer0
10
1275.56829208487
20
-13.3090281732314
30
0
11
1283.80052513191
21
-6.1797052246265
31
0
0
LINE
8
layer0
10
1282.53226029146
20
-2.7517265226308
30
0
11
1283.80052513191
21
-6.1797052246265
31
0
0
LINE
8
layer0
10
1283.80052513191
20
-6.1797052246265
30
0
11
1275.56829208487
21
-13.3090281732314
31
0
0
LINE
8
layer0
10
1275.56829208487
20
-13.3090281732314
30
0
11
1275.03226029146
21
-9.24691705101407
31
0
0
LINE
8
layer0
10
1275.03226029146
20
-9.24691705101407
30
0
11
1282.53226029146
21
-2.7517265226308
31
0
0
LINE
8
layer0
10
1283.80052513191
20
-0.055980867668552
30
0
11
1282.53226029146
21
-2.7517265226308
31
0
0
LINE
8
layer0
10
1282.53226029146
20
-2.7517265226308
30
0
11
1275.03226029146
21
-9.24691705101407
31
0
0
LINE
8
layer0
10
1275.03226029146
20
-9.24691705101407
30
0
11
1275.56829208487
21
-7.1853038162734
31
0
0
LINE
8
layer0
10
1275.56829208487
20
-7.1853038162734
30
0
11
1283.80052513191
21
-0.055980867668552
31
0
0
LINE
8
layer0
10
1283.80052513191
20
-0.055980867668552
30
0
11
1286.86238731039
21
0.328400496291408
31
0
0
LINE
8
layer0
10
1286.86238731039
20
0.328400496291408
30
0
11
1289.92424948886
21
-1.82374782063499
31
0
0
LINE
8
layer0
10
1289.92424948886
20
-1.82374782063499
30
0
11
1291.19251432931
21
-5.2517265226308
31
0
0
LINE
8
layer0
10
1291.19251432931
20
-5.2517265226308
30
0
11
1289.92424948886
21
-7.94747217759283
31
0
0
LINE
8
layer0
10
1289.92424948886
20
-7.94747217759283
30
0
11
1286.86238731039
21
-8.3318535415529
31
0
0
LINE
8
layer0
10
1286.86238731039
20
-8.3318535415529
30
0
11
1283.80052513191
21
-6.1797052246265
31
0
0
LINE
8
layer0
10
1283.80052513191
20
-6.1797052246265
30
0
11
1282.53226029146
21
-2.7517265226308
31
0
0
LINE
8
layer0
10
1282.53226029146
20
-2.7517265226308
30
0
11
1283.80052513191
21
-0.055980867668552
31
0
0
LINE
8
layer0
10
1276.86238731039
20
-8.33185354155296
30
0
11
1275.56829208487
21
-7.1853038162734
31
0
0
LINE
8
layer0
10
1275.56829208487
20
-7.1853038162734
30
0
11
1275.03226029146
21
-9.24691705101407
31
0
0
LINE
8
layer0
10
1275.03226029146
20
-9.24691705101407
30
0
11
1275.56829208487
21
-13.3090281732314
31
0
0
LINE
8
layer0
10
1275.56829208487
20
-13.3090281732314
30
0
11
1276.86238731039
21
-16.9921075793973
31
0
0
LINE
8
layer0
10
1276.86238731039
20
-16.9921075793973
30
0
11
1278.1564825359
21
-18.1386573046767
31
0
0
LINE
8
layer0
10
1278.1564825359
20
-18.1386573046767
30
0
11
1278.69251432931
21
-16.0770440699363
31
0
0
LINE
8
layer0
10
1278.69251432931
20
-16.0770440699363
30
0
11
1278.1564825359
21
-12.0149329477188
31
0
0
LINE
8
layer0
10
1278.1564825359
20
-12.0149329477188
30
0
11
1276.86238731039
21
-8.33185354155296
31
0
0
LINE
8
layer0
10
1286.86238731039
20
0.328400496291408
30
0
11
1283.80052513191
21
-0.055980867668552
31
0
0
LINE
8
layer0
10
1283.80052513191
20
-0.055980867668552
30
0
11
1275.56829208487
21
-7.1853038162734
31
0
0
LINE
8
layer0
10
1275.56829208487
20
-7.1853038162734
30
0
11
1276.86238731039
21
-8.33185354155296
31
0
0
LINE
8
layer0
10
1276.86238731039
20
-8.33185354155296
30
0
11
1286.86238731039
21
0.328400496291408
31
0
0
LINE
8
layer0
10
1289.92424948886
20
-7.94747217759283
30
0
11
1291.19251432931
21
-5.2517265226308
31
0
0
LINE
8
layer0
10
1291.19251432931
20
-5.2517265226308
30
0
11
1278.69251432931
21
-16.0770440699363
31
0
0
LINE
8
layer0
10
1278.69251432931
20
-16.0770440699363
30
0
11
1278.69251432931
21
-16.0770440699363
31
0
0
LINE
8
layer0
10
1278.69251432931
20
-16.0770440699363
30
0
11
1278.1564825359
21
-18.1386573046767
31
0
0
LINE
8
layer0
10
1278.1564825359
20
-18.1386573046767
30
0
11
1289.92424948886
21
-7.94747217759283
31
0
0
LINE
8
layer0
10
1291.19251432931
20
-5.2517265226308
30
0
11
1289.92424948886
21
-1.82374782063499
31
0
0
LINE
8
layer0
10
1289.92424948886
20
-1.82374782063499
30
0
11
1278.1564825359
21
-12.0149329477188
31
0
0
LINE
8
layer0
10
1278.1564825359
20
-12.0149329477188
30
0
11
1278.69251432931
21
-16.0770440699363
31
0
0
LINE
8
layer0
10
1278.69251432931
20
-16.0770440699363
30
0
11
1291.19251432931
21
-5.2517265226308
31
0
0
LINE
8
layer0
10
1289.92424948886
20
-1.82374782063499
30
0
11
1286.86238731039
21
0.328400496291408
31
0
0
LINE
8
layer0
10
1286.86238731039
20
0.328400496291408
30
0
11
1276.86238731039
21
-8.33185354155296
31
0
0
LINE
8
layer0
10
1276.86238731039
20
-8.33185354155296
30
0
11
1278.1564825359
21
-12.0149329477188
31
0
0
LINE
8
layer0
10
1278.1564825359
20
-12.0149329477188
30
0
11
1289.92424948886
21
-1.82374782063499
31
0
0
ENDBLK
0
BLOCK
8
layer0
2
PF_OBJECT20
70
0
10
0
20
0
30
0
0
LINE
8
layer0
10
1110.58550978377
20
31.0078924206027
30
0
11
1115.41513891522
21
32.9232048738022
31
0
0
LINE
8
layer0
10
1115.41513891522
20
32.9232048738022
30
0
11
1275.56829208487
21
-13.3090281732314
31
0
0
LINE
8
layer0
10
1275.56829208487
20
-13.3090281732314
30
0
11
1276.86238731039
21
-16.9921075793973
31
0
0
LINE
8
layer0
10
1276.86238731039
20
-16.9921075793973
30
0
11
1110.58550978377
21
31.0078924206027
31
0
0
LINE
8
layer0
10
1105.75588065233
20
31.6291096482897
30
0
11
1110.58550978377
21
31.0078924206027
31
0
0
LINE
8
layer0
10
1110.58550978377
20
31.0078924206027
30
0
11
1276.86238731039
21
-16.9921075793973
31
0
0
LINE
8
layer0
10
1276.86238731039
20
-16.9921075793973
30
0
11
1278.1564825359
21
-18.1386573046767
31
0
0
LINE
8
layer0
10
1278.1564825359
20
-18.1386573046767
30
0
11
1105.75588065233
21
31.6291096482897
31
0
0
LINE
8
layer0
10
1103.75538276485
20
34.4229559300637
30
0
11
1103.75538276485
21
34.4229559300637
31
0
0
LINE
8
layer0
10
1103.75538276485
20
34.4229559300637
30
0
11
1105.75588065233
21
31.6291096482897
31
0
0
LINE
8
layer0
10
1105.75588065233
20
31.6291096482897
30
0
11
1278.1564825359
21
-18.1386573046767
31
0
0
LINE
8
layer0
10
1278.1564825359
20
-18.1386573046767
30
0
11
1278.69251432931
21
-16.0770440699363
31
0
0
LINE
8
layer0
10
1278.69251432931
20
-16.0770440699363
30
0
11
1103.75538276485
21
34.4229559300637
31
0
0
LINE
8
layer0
10
1105.75588065233
20
37.7528340052476
30
0
11
1103.75538276485
21
34.4229559300637
31
0
0
LINE
8
layer0
10
1103.75538276485
20
34.4229559300637
30
0
11
1103.75538276485
21
34.4229559300637
31
0
0
LINE
8
layer0
10
1103.75538276485
20
34.4229559300637
30
0
11
1278.69251432931
21
-16.0770440699363
31
0
0
LINE
8
layer0
10
1278.69251432931
20
-16.0770440699363
30
0
11
1278.69251432931
21
-16.0770440699363
31
0
0
LINE
8
layer0
10
1278.69251432931
20
-16.0770440699363
30
0
11
1278.1564825359
21
-12.0149329477188
31
0
0
LINE
8
layer0
10
1278.1564825359
20
-12.0149329477188
30
0
11
1105.75588065233
21
37.7528340052476
31
0
0
LINE
8
layer0
10
1115.41513891522
20
39.0469292307602
30
0
11
1117.4156368027
21
36.2530829489859
31
0
0
LINE
8
layer0
10
1117.4156368027
20
36.2530829489859
30
0
11
1115.41513891522
21
32.9232048738022
31
0
0
LINE
8
layer0
10
1115.41513891522
20
32.9232048738022
30
0
11
1110.58550978377
21
31.0078924206027
31
0
0
LINE
8
layer0
10
1110.58550978377
20
31.0078924206027
30
0
11
1105.75588065233
21
31.6291096482897
31
0
0
LINE
8
layer0
10
1105.75588065233
20
31.6291096482897
30
0
11
1103.75538276485
21
34.4229559300637
31
0
0
LINE
8
layer0
10
1103.75538276485
20
34.4229559300637
30
0
11
1103.75538276485
21
34.4229559300637
31
0
0
LINE
8
layer0
10
1103.75538276485
20
34.4229559300637
30
0
11
1105.75588065233
21
37.7528340052476
31
0
0
LINE
8
layer0
10
1105.75588065233
20
37.7528340052476
30
0
11
1110.58550978377
21
39.668146458447
31
0
0
LINE
8
layer0
10
1110.58550978377
20
39.668146458447
30
0
11
1115.41513891522
21
39.0469292307602
31
0
0
LINE
8
layer0
10
1276.86238731039
20
-8.33185354155296
30
0
11
1278.1564825359
21
-12.0149329477188
31
0
0
LINE
8
layer0
10
1278.1564825359
20
-12.0149329477188
30
0
11
1278.69251432931
21
-16.0770440699363
31
0
0
LINE
8
layer0
10
1278.69251432931
20
-16.0770440699363
30
0
11
1278.1564825359
21
-18.1386573046767
31
0
0
LINE
8
layer0
10
1278.1564825359
20
-18.1386573046767
30
0
11
1276.86238731039
21
-16.9921075793973
31
0
0
LINE
8
layer0
10
1276.86238731039
20
-16.9921075793973
30
0
11
1275.56829208487
21
-13.3090281732314
31
0
0
LINE
8
layer0
10
1275.56829208487
20
-13.3090281732314
30
0
11
1275.03226029146
21
-9.24691705101407
31
0
0
LINE
8
layer0
10
1275.03226029146
20
-9.24691705101407
30
0
11
1275.56829208487
21
-7.1853038162734
31
0
0
LINE
8
layer0
10
1275.56829208487
20
-7.1853038162734
30
0
11
1276.86238731039
21
-8.33185354155296
31
0
0
LINE
8
layer0
10
1110.58550978377
20
39.668146458447
30
0
11
1105.75588065233
21
37.7528340052476
31
0
0
LINE
8
layer0
10
1105.75588065233
20
37.7528340052476
30
0
11
1278.1564825359
21
-12.0149329477188
31
0
0
LINE
8
layer0
10
1278.1564825359
20
-12.0149329477188
30
0
11
1276.86238731039
21
-8.33185354155296
31
0
0
LINE
8
layer0
10
1276.86238731039
20
-8.33185354155296
30
0
11
1110.58550978377
21
39.668146458447
31
0
0
LINE
8
layer0
10
1115.41513891522
20
32.9232048738022
30
0
11
1117.4156368027
21
36.2530829489859
31
0
0
LINE
8
layer0
10
1117.4156368027
20
36.2530829489859
30
0
11
1275.03226029146
21
-9.24691705101407
31
0
0
LINE
8
layer0
10
1275.03226029146
20
-9.24691705101407
30
0
11
1275.56829208487
21
-13.3090281732314
31
0
0
LINE
8
layer0
10
1275.56829208487
20
-13.3090281732314
30
0
11
1115.41513891522
21
32.9232048738022
31
0
0
LINE
8
layer0
10
1117.4156368027
20
36.2530829489859
30
0
11
1115.41513891522
21
39.0469292307602
31
0
0
LINE
8
layer0
10
1115.41513891522
20
39.0469292307602
30
0
11
1275.56829208487
21
-7.1853038162734
31
0
0
LINE
8
layer0
10
1275.56829208487
20
-7.1853038162734
30
0
11
1275.03226029146
21
-9.24691705101407
31
0
0
LINE
8
layer0
10
1275.03226029146
20
-9.24691705101407
30
0
11
1117.4156368027
21
36.2530829489859
31
0
0
LINE
8
layer0
10
1115.41513891522
20
39.0469292307602
30
0
11
1110.58550978377
21
39.668146458447
31
0
0
LINE
8
layer0
10
1110.58550978377
20
39.668146458447
30
0
11
1276.86238731039
21
-8.33185354155296
31
0
0
LINE
8
layer0
10
1276.86238731039
20
-8.33185354155296
30
0
11
1275.56829208487
21
-7.1853038162734
31
0
0
LINE
8
layer0
10
1275.56829208487
20
-7.1853038162734
30
0
11
1115.41513891522
21
39.0469292307602
31
0
0
ENDBLK
0
BLOCK
8
layer0
2
PF_OBJECT21
70
0
10
0
20
0
30
0
0
LINE
8
layer0
10
1328.90532725041
20
-579.632340597654
30
0
11
814.486237402453
21
-431.132340597654
31
0
0
LINE
8
layer0
10
814.486237402453
20
-431.132340597654
30
0
11
814.486237402453
21
181.147619877945
31
0
0
LINE
8
layer0
10
814.486237402453
20
181.147619877945
30
0
11
1328.90532725041
21
32.6476198779446
31
0
0
LINE
8
layer0
10
1328.90532725041
20
32.6476198779446
30
0
11
1328.90532725041
21
-579.632340597654
31
0
0
LINE
8
layer0
10
804.486237402453
20
-439.792594635498
30
0
11
1318.90532725041
21
-588.292594635498
31
0
0
LINE
8
layer0
10
1318.90532725041
20
-588.292594635498
30
0
11
1318.90532725041
21
23.9873658401002
31
0
0
LINE
8
layer0
10
1318.90532725041
20
23.9873658401002
30
0
11
804.486237402453
21
172.4873658401
31
0
0
LINE
8
layer0
10
804.486237402453
20
172.4873658401
30
0
11
804.486237402453
21
-439.792594635498
31
0
0
LINE
8
layer0
10
814.486237402453
20
-431.132340597654
30
0
11
804.486237402453
21
-439.792594635498
31
0
0
LINE
8
layer0
10
804.486237402453
20
-439.792594635498
30
0
11
804.486237402453
21
172.4873658401
31
0
0
LINE
8
layer0
10
804.486237402453
20
172.4873658401
30
0
11
814.486237402453
21
181.147619877945
31
0
0
LINE
8
layer0
10
814.486237402453
20
181.147619877945
30
0
11
814.486237402453
21
-431.132340597654
31
0
0
LINE
8
layer0
10
1318.90532725041
20
-588.292594635498
30
0
11
1328.90532725041
21
-579.632340597654
31
0
0
LINE
8
layer0
10
1328.90532725041
20
-579.632340597654
30
0
11
1328.90532725041
21
32.6476198779446
31
0
0
LINE
8
layer0
10
1328.90532725041
20
32.6476198779446
30
0
11
1318.90532725041
21
23.9873658401002
31
0
0
LINE
8
layer0
10
1318.90532725041
20
23.9873658401002
30
0
11
1318.90532725041
21
-588.292594635498
31
0
0
LINE
8
layer0
10
1328.90532725041
20
32.6476198779446
30
0
11
814.486237402453
21
181.147619877945
31
0
0
LINE
8
layer0
10
814.486237402453
20
181.147619877945
30
0
11
804.486237402453
21
172.4873658401
31
0
0
LINE
8
layer0
10
804.486237402453
20
172.4873658401
30
0
11
1318.90532725041
21
23.9873658401002
31
0
0
LINE
8
layer0
10
1318.90532725041
20
23.9873658401002
30
0
11
1328.90532725041
21
32.6476198779446
31
0
0
LINE
8
layer0
10
814.486237402453
20
-431.132340597654
30
0
11
1328.90532725041
21
-579.632340597654
31
0
0
LINE
8
layer0
10
1328.90532725041
20
-579.632340597654
30
0
11
1318.90532725041
21
-588.292594635498
31
0
0
LINE
8
layer0
10
1318.90532725041
20
-588.292594635498
30
0
11
804.486237402453
21
-439.792594635498
31
0
0
LINE
8
layer0
10
804.486237402453
20
-439.792594635498
30
0
11
814.486237402453
21
-431.132340597654
31
0
0
ENDBLK
0
BLOCK
8
layer0
2
PF_OBJECT22
70
0
10
0
20
0
30
0
0
LINE
8
layer0
10
1124.3304475317
20
-382.301270189222
30
0
11
1089.68943138032
21
-372.301270189222
31
0
0
LINE
8
layer0
10
1089.68943138032
20
-372.301270189222
30
0
11
1089.68943138032
21
-242.397459621556
31
0
0
LINE
8
layer0
10
1089.68943138032
20
-242.397459621556
30
0
11
1124.3304475317
21
-252.397459621556
31
0
0
LINE
8
layer0
10
1124.3304475317
20
-252.397459621556
30
0
11
1124.3304475317
21
-382.301270189222
31
0
0
LINE
8
layer0
10
1069.68943138032
20
-389.621778264911
30
0
11
1104.3304475317
21
-399.621778264911
31
0
0
LINE
8
layer0
10
1104.3304475317
20
-399.621778264911
30
0
11
1104.3304475317
21
-269.717967697245
31
0
0
LINE
8
layer0
10
1104.3304475317
20
-269.717967697245
30
0
11
1069.68943138032
21
-259.717967697245
31
0
0
LINE
8
layer0
10
1069.68943138032
20
-259.717967697245
30
0
11
1069.68943138032
21
-389.621778264911
31
0
0
LINE
8
layer0
10
1089.68943138032
20
-372.301270189222
30
0
11
1069.68943138032
21
-389.621778264911
31
0
0
LINE
8
layer0
10
1069.68943138032
20
-389.621778264911
30
0
11
1069.68943138032
21
-259.717967697245
31
0
0
LINE
8
layer0
10
1069.68943138032
20
-259.717967697245
30
0
11
1089.68943138032
21
-242.397459621556
31
0
0
LINE
8
layer0
10
1089.68943138032
20
-242.397459621556
30
0
11
1089.68943138032
21
-372.301270189222
31
0
0
LINE
8
layer0
10
1104.3304475317
20
-399.621778264911
30
0
11
1124.3304475317
21
-382.301270189222
31
0
0
LINE
8
layer0
10
1124.3304475317
20
-382.301270189222
30
0
11
1124.3304475317
21
-252.397459621556
31
0
0
LINE
8
layer0
10
1124.3304475317
20
-252.397459621556
30
0
11
1104.3304475317
21
-269.717967697245
31
0
0
LINE
8
layer0
10
1104.3304475317
20
-269.717967697245
30
0
11
1104.3304475317
21
-399.621778264911
31
0
0
LINE
8
layer0
10
1124.3304475317
20
-252.397459621556
30
0
11
1089.68943138032
21
-242.397459621556
31
0
0
LINE
8
layer0
10
1089.68943138032
20
-242.397459621556
30
0
11
1069.68943138032
21
-259.717967697245
31
0
0
LINE
8
layer0
10
1069.68943138032
20
-259.717967697245
30
0
11
1104.3304475317
21
-269.717967697245
31
0
0
LINE
8
layer0
10
1104.3304475317
20
-269.717967697245
30
0
11
1124.3304475317
21
-252.397459621556
31
0
0
LINE
8
layer0
10
1089.68943138032
20
-372.301270189222
30
0
11
1124.3304475317
21
-382.301270189222
31
0
0
LINE
8
layer0
10
1124.3304475317
20
-382.301270189222
30
0
11
1104.3304475317
21
-399.621778264911
31
0
0
LINE
8
layer0
10
1104.3304475317
20
-399.621778264911
30
0
11
1069.68943138032
21
-389.621778264911
31
0
0
LINE
8
layer0
10
1069.68943138032
20
-389.621778264911
30
0
11
1089.68943138032
21
-372.301270189222
31
0
0
ENDBLK
0
BLOCK
8
layer0
2
PF_OBJECT23
70
0
10
0
20
0
30
0
0
LINE
8
layer0
10
966.330447531699
20
-519.133283987163
30
0
11
931.689431380321
21
-509.133283987163
31
0
0
LINE
8
layer0
10
931.689431380321
20
-509.133283987163
30
0
11
931.689431380321
21
-379.229473419497
31
0
0
LINE
8
layer0
10
931.689431380321
20
-379.229473419497
30
0
11
966.330447531699
21
-389.229473419497
31
0
0
LINE
8
layer0
10
966.330447531699
20
-389.229473419497
30
0
11
966.330447531699
21
-519.133283987163
31
0
0
LINE
8
layer0
10
911.689431380321
20
-526.453792062852
30
0
11
946.330447531699
21
-536.453792062852
31
0
0
LINE
8
layer0
10
946.330447531699
20
-536.453792062852
30
0
11
946.330447531699
21
-406.549981495186
31
0
0
LINE
8
layer0
10
946.330447531699
20
-406.549981495186
30
0
11
911.689431380321
21
-396.549981495186
31
0
0
LINE
8
layer0
10
911.689431380321
20
-396.549981495186
30
0
11
911.689431380321
21
-526.453792062852
31
0
0
LINE
8
layer0
10
931.689431380321
20
-509.133283987163
30
0
11
911.689431380321
21
-526.453792062852
31
0
0
LINE
8
layer0
10
911.689431380321
20
-526.453792062852
30
0
11
911.689431380321
21
-396.549981495186
31
0
0
LINE
8
layer0
10
911.689431380321
20
-396.549981495186
30
0
11
931.689431380321
21
-379.229473419497
31
0
0
LINE
8
layer0
10
931.689431380321
20
-379.229473419497
30
0
11
931.689431380321
21
-509.133283987163
31
0
0
LINE
8
layer0
10
946.330447531699
20
-536.453792062852
30
0
11
966.330447531699
21
-519.133283987163
31
0
0
LINE
8
layer0
10
966.330447531699
20
-519.133283987163
30
0
11
966.330447531699
21
-389.229473419497
31
0
0
LINE
8
layer0
10
966.330447531699
20
-389.229473419497
30
0
11
946.330447531699
21
-406.549981495186
31
0
0
LINE
8
layer0
10
946.330447531699
20
-406.549981495186
30
0
11
946.330447531699
21
-536.453792062852
31
0
0
LINE
8
layer0
10
966.330447531699
20
-389.229473419497
30
0
11
931.689431380321
21
-379.229473419497
31
0
0
LINE
8
layer0
10
931.689431380321
20
-379.229473419497
30
0
11
911.689431380321
21
-396.549981495186
31
0
0
LINE
8
layer0
10
911.689431380321
20
-396.549981495186
30
0
11
946.330447531699
21
-406.549981495186
31
0
0
LINE
8
layer0
10
946.330447531699
20
-406.549981495186
30
0
11
966.330447531699
21
-389.229473419497
31
0
0
LINE
8
layer0
10
931.689431380321
20
-509.133283987163
30
0
11
966.330447531699
21
-519.133283987163
31
0
0
LINE
8
layer0
10
966.330447531699
20
-519.133283987163
30
0
11
946.330447531699
21
-536.453792062852
31
0
0
LINE
8
layer0
10
946.330447531699
20
-536.453792062852
30
0
11
911.689431380321
21
-526.453792062852
31
0
0
LINE
8
layer0
10
911.689431380321
20
-526.453792062852
30
0
11
931.689431380321
21
-509.133283987163
31
0
0
ENDBLK
0
BLOCK
8
layer0
2
PF_OBJECT24
70
0
10
0
20
0
30
0
0
LINE
8
layer0
10
1522.70213327254
20
-497.301270189222
30
0
11
1488.06111712116
21
-487.301270189222
31
0
0
LINE
8
layer0
10
1488.06111712116
20
-487.301270189222
30
0
11
1488.06111712116
21
-357.397459621556
31
0
0
LINE
8
layer0
10
1488.06111712116
20
-357.397459621556
30
0
11
1522.70213327254
21
-367.397459621556
31
0
0
LINE
8
layer0
10
1522.70213327254
20
-367.397459621556
30
0
11
1522.70213327254
21
-497.301270189222
31
0
0
LINE
8
layer0
10
1468.06111712116
20
-504.621778264911
30
0
11
1502.70213327254
21
-514.621778264911
31
0
0
LINE
8
layer0
10
1502.70213327254
20
-514.621778264911
30
0
11
1502.70213327254
21
-384.717967697245
31
0
0
LINE
8
layer0
10
1502.70213327254
20
-384.717967697245
30
0
11
1468.06111712116
21
-374.717967697245
31
0
0
LINE
8
layer0
10
1468.06111712116
20
-374.717967697245
30
0
11
1468.06111712116
21
-504.621778264911
31
0
0
LINE
8
layer0
10
1488.06111712116
20
-487.301270189222
30
0
11
1468.06111712116
21
-504.621778264911
31
0
0
LINE
8
layer0
10
1468.06111712116
20
-504.621778264911
30
0
11
1468.06111712116
21
-374.717967697245
31
0
0
LINE
8
layer0
10
1468.06111712116
20
-374.717967697245
30
0
11
1488.06111712116
21
-357.397459621556
31
0
0
LINE
8
layer0
10
1488.06111712116
20
-357.397459621556
30
0
11
1488.06111712116
21
-487.301270189222
31
0
0
LINE
8
layer0
10
1502.70213327254
20
-514.621778264911
30
0
11
1522.70213327254
21
-497.301270189222
31
0
0
LINE
8
layer0
10
1522.70213327254
20
-497.301270189222
30
0
11
1522.70213327254
21
-367.397459621556
31
0
0
LINE
8
layer0
10
1522.70213327254
20
-367.397459621556
30
0
11
1502.70213327254
21
-384.717967697245
31
0
0
LINE
8
layer0
10
1502.70213327254
20
-384.717967697245
30
0
11
1502.70213327254
21
-514.621778264911
31
0
0
LINE
8
layer0
10
1522.70213327254
20
-367.397459621556
30
0
11
1488.06111712116
21
-357.397459621556
31
0
0
LINE
8
layer0
10
1488.06111712116
20
-357.397459621556
30
0
11
1468.06111712116
21
-374.717967697245
31
0
0
LINE
8
layer0
10
1468.06111712116
20
-374.717967697245
30
0
11
1502.70213327254
21
-384.717967697245
31
0
0
LINE
8
layer0
10
1502.70213327254
20
-384.717967697245
30
0
11
1522.70213327254
21
-367.397459621556
31
0
0
LINE
8
layer0
10
1488.06111712116
20
-487.301270189222
30
0
11
1522.70213327254
21
-497.301270189222
31
0
0
LINE
8
layer0
10
1522.70213327254
20
-497.301270189222
30
0
11
1502.70213327254
21
-514.621778264911
31
0
0
LINE
8
layer0
10
1502.70213327254
20
-514.621778264911
30
0
11
1468.06111712116
21
-504.621778264911
31
0
0
LINE
8
layer0
10
1468.06111712116
20
-504.621778264911
30
0
11
1488.06111712116
21
-487.301270189222
31
0
0
ENDBLK
0
BLOCK
8
layer0
2
PF_OBJECT25
70
0
10
0
20
0
30
0
0
LINE
8
layer0
10
1364.70213327254
20
-634.133283987163
30
0
11
1330.06111712116
21
-624.133283987163
31
0
0
LINE
8
layer0
10
1330.06111712116
20
-624.133283987163
30
0
11
1330.06111712116
21
-494.229473419497
31
0
0
LINE
8
layer0
10
1330.06111712116
20
-494.229473419497
30
0
11
1364.70213327254
21
-504.229473419497
31
0
0
LINE
8
layer0
10
1364.70213327254
20
-504.229473419497
30
0
11
1364.70213327254
21
-634.133283987163
31
0
0
LINE
8
layer0
10
1310.06111712116
20
-641.453792062852
30
0
11
1344.70213327254
21
-651.453792062852
31
0
0
LINE
8
layer0
10
1344.70213327254
20
-651.453792062852
30
0
11
1344.70213327254
21
-521.549981495186
31
0
0
LINE
8
layer0
10
1344.70213327254
20
-521.549981495186
30
0
11
1310.06111712116
21
-511.549981495186
31
0
0
LINE
8
layer0
10
1310.06111712116
20
-511.549981495186
30
0
11
1310.06111712116
21
-641.453792062852
31
0
0
LINE
8
layer0
10
1330.06111712116
20
-624.133283987163
30
0
11
1310.06111712116
21
-641.453792062852
31
0
0
LINE
8
layer0
10
1310.06111712116
20
-641.453792062852
30
0
11
1310.06111712116
21
-511.549981495186
31
0
0
LINE
8
layer0
10
1310.06111712116
20
-511.549981495186
30
0
11
1330.06111712116
21
-494.229473419497
31
0
0
LINE
8
layer0
10
1330.06111712116
20
-494.229473419497
30
0
11
1330.06111712116
21
-624.133283987163
31
0
0
LINE
8
layer0
10
1344.70213327254
20
-651.453792062852
30
0
11
1364.70213327254
21
-634.133283987163
31
0
0
LINE
8
layer0
10
1364.70213327254
20
-634.133283987163
30
0
11
1364.70213327254
21
-504.229473419497
31
0
0
LINE
8
layer0
10
1364.70213327254
20
-504.229473419497
30
0
11
1344.70213327254
21
-521.549981495186
31
0
0
LINE
8
layer0
10
1344.70213327254
20
-521.549981495186
30
0
11
1344.70213327254
21
-651.453792062852
31
0
0
LINE
8
layer0
10
1364.70213327254
20
-504.229473419497
30
0
11
1330.06111712116
21
-494.229473419497
31
0
0
LINE
8
layer0
10
1330.06111712116
20
-494.229473419497
30
0
11
1310.06111712116
21
-511.549981495186
31
0
0
LINE
8
layer0
10
1310.06111712116
20
-511.549981495186
30
0
11
1344.70213327254
21
-521.549981495186
31
0
0
LINE
8
layer0
10
1344.70213327254
20
-521.549981495186
30
0
11
1364.70213327254
21
-504.229473419497
31
0
0
LINE
8
layer0
10
1330.06111712116
20
-624.133283987163
30
0
11
1364.70213327254
21
-634.133283987163
31
0
0
LINE
8
layer0
10
1364.70213327254
20
-634.133283987163
30
0
11
1344.70213327254
21
-651.453792062852
31
0
0
LINE
8
layer0
10
1344.70213327254
20
-651.453792062852
30
0
11
1310.06111712116
21
-641.453792062852
31
0
0
LINE
8
layer0
10
1310.06111712116
20
-641.453792062852
30
0
11
1330.06111712116
21
-624.133283987163
31
0
0
ENDBLK
0
BLOCK
8
layer0
70
0
10
0
20
0
30
0
2
PF_SKETCH26
0
LINE
8
layer0
10
1049.22149452443
20
396.094569747296
30
0
11
1002.05482785777
21
355.24703820213
31
0
0
ENDBLK
0
BLOCK
8
layer0
70
0
10
0
20
0
30
0
2
PF_SKETCH27
0
LINE
8
layer0
10
1568.8367367951
20
246.094569747296
30
0
11
1521.67007012843
21
205.24703820213
31
0
0
ENDBLK
0
BLOCK
8
layer0
70
0
10
0
20
0
30
0
2
PF_SKETCH28
0
LINE
8
layer0
10
954.888161191099
20
314.399506656964
30
0
11
907.721494524433
21
273.551975111798
31
0
0
ENDBLK
0
BLOCK
8
layer0
70
0
10
0
20
0
30
0
2
PF_SKETCH29
0
LINE
8
layer0
10
1474.50340346176
20
164.399506656964
30
0
11
1427.3367367951
21
123.551975111798
31
0
0
ENDBLK
0
BLOCK
8
layer0
70
0
10
0
20
0
30
0
2
PF_SKETCH30
0
LINE
8
layer0
10
860.554827857766
20
232.704443566632
30
0
11
813.388161191099
21
191.856912021466
31
0
0
ENDBLK
0
BLOCK
8
layer0
70
0
10
0
20
0
30
0
2
PF_SKETCH31
0
LINE
8
layer0
10
1380.17007012843
20
82.7044435666316
30
0
11
1333.00340346176
21
41.8569120214656
31
0
0
ENDBLK
0
BLOCK
8
layer0
2
PF_OBJECT32
70
0
10
0
20
0
30
0
0
LINE
8
layer0
10
1495.57450962244
20
-68.5818535415529
30
0
11
1498.63637180091
21
-68.1974721775929
31
0
0
LINE
8
layer0
10
1498.63637180091
20
-68.1974721775929
30
0
11
1490.40413875388
21
-75.3267951261978
31
0
0
LINE
8
layer0
10
1490.40413875388
20
-75.3267951261978
30
0
11
1485.57450962244
21
-77.2421075793973
31
0
0
LINE
8
layer0
10
1485.57450962244
20
-77.2421075793973
30
0
11
1495.57450962244
21
-68.5818535415529
31
0
0
LINE
8
layer0
10
1492.51264744396
20
-66.4297052246265
30
0
11
1495.57450962244
21
-68.5818535415529
31
0
0
LINE
8
layer0
10
1495.57450962244
20
-68.5818535415529
30
0
11
1485.57450962244
21
-77.2421075793973
31
0
0
LINE
8
layer0
10
1485.57450962244
20
-77.2421075793973
30
0
11
1480.74488049099
21
-76.6208903517103
31
0
0
LINE
8
layer0
10
1480.74488049099
20
-76.6208903517103
30
0
11
1492.51264744396
21
-66.4297052246265
31
0
0
LINE
8
layer0
10
1491.24438260351
20
-63.0017265226308
30
0
11
1492.51264744396
21
-66.4297052246265
31
0
0
LINE
8
layer0
10
1492.51264744396
20
-66.4297052246265
30
0
11
1480.74488049099
21
-76.6208903517103
31
0
0
LINE
8
layer0
10
1480.74488049099
20
-76.6208903517103
30
0
11
1478.74438260351
21
-73.8270440699363
31
0
0
LINE
8
layer0
10
1478.74438260351
20
-73.8270440699363
30
0
11
1491.24438260351
21
-63.0017265226308
31
0
0
LINE
8
layer0
10
1492.51264744396
20
-60.3059808676686
30
0
11
1491.24438260351
21
-63.0017265226308
31
0
0
LINE
8
layer0
10
1491.24438260351
20
-63.0017265226308
30
0
11
1478.74438260351
21
-73.8270440699363
31
0
0
LINE
8
layer0
10
1478.74438260351
20
-73.8270440699363
30
0
11
1478.74438260351
21
-73.8270440699363
31
0
0
LINE
8
layer0
10
1478.74438260351
20
-73.8270440699363
30
0
11
1480.74488049099
21
-70.4971659947524
31
0
0
LINE
8
layer0
10
1480.74488049099
20
-70.4971659947524
30
0
11
1492.51264744396
21
-60.3059808676686
31
0
0
LINE
8
layer0
10
1492.51264744396
20
-60.3059808676686
30
0
11
1495.57450962244
21
-59.9215995037086
31
0
0
LINE
8
layer0
10
1495.57450962244
20
-59.9215995037086
30
0
11
1498.63637180091
21
-62.073747820635
31
0
0
LINE
8
layer0
10
1498.63637180091
20
-62.073747820635
30
0
11
1499.90463664136
21
-65.5017265226308
31
0
0
LINE
8
layer0
10
1499.90463664136
20
-65.5017265226308
30
0
11
1498.63637180091
21
-68.1974721775929
31
0
0
LINE
8
layer0
10
1498.63637180091
20
-68.1974721775929
30
0
11
1495.57450962244
21
-68.5818535415529
31
0
0
LINE
8
layer0
10
1495.57450962244
20
-68.5818535415529
30
0
11
1492.51264744396
21
-66.4297052246265
31
0
0
LINE
8
layer0
10
1492.51264744396
20
-66.4297052246265
30
0
11
1491.24438260351
21
-63.0017265226308
31
0
0
LINE
8
layer0
10
1491.24438260351
20
-63.0017265226308
30
0
11
1492.51264744396
21
-60.3059808676686
31
0
0
LINE
8
layer0
10
1485.57450962244
20
-68.581853541553
30
0
11
1480.74488049099
21
-70.4971659947524
31
0
0
LINE
8
layer0
10
1480.74488049099
20
-70.4971659947524
30
0
11
1478.74438260351
21
-73.8270440699363
31
0
0
LINE
8
layer0
10
1478.74438260351
20
-73.8270440699363
30
0
11
1480.74488049099
21
-76.6208903517103
31
0
0
LINE
8
layer0
10
1480.74488049099
20
-76.6208903517103
30
0
11
1485.57450962244
21
-77.2421075793973
31
0
0
LINE
8
layer0
10
1485.57450962244
20
-77.2421075793973
30
0
11
1490.40413875388
21
-75.3267951261978
31
0
0
LINE
8
layer0
10
1490.40413875388
20
-75.3267951261978
30
0
11
1492.40463664136
21
-71.9969170510141
31
0
0
LINE
8
layer0
10
1492.40463664136
20
-71.9969170510141
30
0
11
1490.40413875388
21
-69.2030707692398
31
0
0
LINE
8
layer0
10
1490.40413875388
20
-69.2030707692398
30
0
11
1485.57450962244
21
-68.581853541553
31
0
0
LINE
8
layer0
10
1495.57450962244
20
-59.9215995037086
30
0
11
1492.51264744396
21
-60.3059808676686
31
0
0
LINE
8
layer0
10
1492.51264744396
20
-60.3059808676686
30
0
11
1480.74488049099
21
-70.4971659947524
31
0
0
LINE
8
layer0
10
1480.74488049099
20
-70.4971659947524
30
0
11
1485.57450962244
21
-68.581853541553
31
0
0
LINE
8
layer0
10
1485.57450962244
20
-68.581853541553
30
0
11
1495.57450962244
21
-59.9215995037086
31
0
0
LINE
8
layer0
10
1498.63637180091
20
-68.1974721775929
30
0
11
1499.90463664136
21
-65.5017265226308
31
0
0
LINE
8
layer0
10
1499.90463664136
20
-65.5017265226308
30
0
11
1492.40463664136
21
-71.9969170510141
31
0
0
LINE
8
layer0
10
1492.40463664136
20
-71.9969170510141
30
0
11
1490.40413875388
21
-75.3267951261978
31
0
0
LINE
8
layer0
10
1490.40413875388
20
-75.3267951261978
30
0
11
1498.63637180091
21
-68.1974721775929
31
0
0
LINE
8
layer0
10
1499.90463664136
20
-65.5017265226308
30
0
11
1498.63637180091
21
-62.073747820635
31
0
0
LINE
8
layer0
10
1498.63637180091
20
-62.073747820635
30
0
11
1490.40413875388
21
-69.2030707692398
31
0
0
LINE
8
layer0
10
1490.40413875388
20
-69.2030707692398
30
0
11
1492.40463664136
21
-71.9969170510141
31
0
0
LINE
8
layer0
10
1492.40463664136
20
-71.9969170510141
30
0
11
1499.90463664136
21
-65.5017265226308
31
0
0
LINE
8
layer0
10
1498.63637180091
20
-62.073747820635
30
0
11
1495.57450962244
21
-59.9215995037086
31
0
0
LINE
8
layer0
10
1495.57450962244
20
-59.9215995037086
30
0
11
1485.57450962244
21
-68.581853541553
31
0
0
LINE
8
layer0
10
1485.57450962244
20
-68.581853541553
30
0
11
1490.40413875388
21
-69.2030707692398
31
0
0
LINE
8
layer0
10
1490.40413875388
20
-69.2030707692398
30
0
11
1498.63637180091
21
-62.073747820635
31
0
0
ENDBLK
0
BLOCK
8
layer0
2
PF_OBJECT33
70
0
10
0
20
0
30
0
0
LINE
8
layer0
10
1661.85138714905
20
-116.581853541553
30
0
11
1664.91324932753
21
-116.197472177593
31
0
0
LINE
8
layer0
10
1664.91324932753
20
-116.197472177593
30
0
11
1653.14548237456
21
-126.388657304677
31
0
0
LINE
8
layer0
10
1653.14548237456
20
-126.388657304677
30
0
11
1651.85138714905
21
-125.242107579397
31
0
0
LINE
8
layer0
10
1651.85138714905
20
-125.242107579397
30
0
11
1661.85138714905
21
-116.581853541553
31
0
0
LINE
8
layer0
10
1658.78952497057
20
-114.429705224627
30
0
11
1661.85138714905
21
-116.581853541553
31
0
0
LINE
8
layer0
10
1661.85138714905
20
-116.581853541553
30
0
11
1651.85138714905
21
-125.242107579397
31
0
0
LINE
8
layer0
10
1651.85138714905
20
-125.242107579397
30
0
11
1650.55729192353
21
-121.559028173231
31
0
0
LINE
8
layer0
10
1650.55729192353
20
-121.559028173231
30
0
11
1658.78952497057
21
-114.429705224627
31
0
0
LINE
8
layer0
10
1657.52126013013
20
-111.001726522631
30
0
11
1658.78952497057
21
-114.429705224627
31
0
0
LINE
8
layer0
10
1658.78952497057
20
-114.429705224627
30
0
11
1650.55729192353
21
-121.559028173231
31
0
0
LINE
8
layer0
10
1650.55729192353
20
-121.559028173231
30
0
11
1650.02126013013
21
-117.496917051014
31
0
0
LINE
8
layer0
10
1650.02126013013
20
-117.496917051014
30
0
11
1657.52126013013
21
-111.001726522631
31
0
0
LINE
8
layer0
10
1658.78952497057
20
-108.305980867669
30
0
11
1657.52126013013
21
-111.001726522631
31
0
0
LINE
8
layer0
10
1657.52126013013
20
-111.001726522631
30
0
11
1650.02126013013
21
-117.496917051014
31
0
0
LINE
8
layer0
10
1650.02126013013
20
-117.496917051014
30
0
11
1650.55729192353
21
-115.435303816273
31
0
0
LINE
8
layer0
10
1650.55729192353
20
-115.435303816273
30
0
11
1658.78952497057
21
-108.305980867669
31
0
0
LINE
8
layer0
10
1658.78952497057
20
-108.305980867669
30
0
11
1661.85138714905
21
-107.921599503709
31
0
0
LINE
8
layer0
10
1661.85138714905
20
-107.921599503709
30
0
11
1664.91324932753
21
-110.073747820635
31
0
0
LINE
8
layer0
10
1664.91324932753
20
-110.073747820635
30
0
11
1666.18151416797
21
-113.501726522631
31
0
0
LINE
8
layer0
10
1666.18151416797
20
-113.501726522631
30
0
11
1664.91324932753
21
-116.197472177593
31
0
0
LINE
8
layer0
10
1664.91324932753
20
-116.197472177593
30
0
11
1661.85138714905
21
-116.581853541553
31
0
0
LINE
8
layer0
10
1661.85138714905
20
-116.581853541553
30
0
11
1658.78952497057
21
-114.429705224627
31
0
0
LINE
8
layer0
10
1658.78952497057
20
-114.429705224627
30
0
11
1657.52126013013
21
-111.001726522631
31
0
0
LINE
8
layer0
10
1657.52126013013
20
-111.001726522631
30
0
11
1658.78952497057
21
-108.305980867669
31
0
0
LINE
8
layer0
10
1651.85138714905
20
-116.581853541553
30
0
11
1650.55729192353
21
-115.435303816273
31
0
0
LINE
8
layer0
10
1650.55729192353
20
-115.435303816273
30
0
11
1650.02126013013
21
-117.496917051014
31
0
0
LINE
8
layer0
10
1650.02126013013
20
-117.496917051014
30
0
11
1650.55729192353
21
-121.559028173231
31
0
0
LINE
8
layer0
10
1650.55729192353
20
-121.559028173231
30
0
11
1651.85138714905
21
-125.242107579397
31
0
0
LINE
8
layer0
10
1651.85138714905
20
-125.242107579397
30
0
11
1653.14548237456
21
-126.388657304677
31
0
0
LINE
8
layer0
10
1653.14548237456
20
-126.388657304677
30
0
11
1653.68151416797
21
-124.327044069936
31
0
0
LINE
8
layer0
10
1653.68151416797
20
-124.327044069936
30
0
11
1653.14548237456
21
-120.264932947719
31
0
0
LINE
8
layer0
10
1653.14548237456
20
-120.264932947719
30
0
11
1651.85138714905
21
-116.581853541553
31
0
0
LINE
8
layer0
10
1661.85138714905
20
-107.921599503709
30
0
11
1658.78952497057
21
-108.305980867669
31
0
0
LINE
8
layer0
10
1658.78952497057
20
-108.305980867669
30
0
11
1650.55729192353
21
-115.435303816273
31
0
0
LINE
8
layer0
10
1650.55729192353
20
-115.435303816273
30
0
11
1651.85138714905
21
-116.581853541553
31
0
0
LINE
8
layer0
10
1651.85138714905
20
-116.581853541553
30
0
11
1661.85138714905
21
-107.921599503709
31
0
0
LINE
8
layer0
10
1664.91324932753
20
-116.197472177593
30
0
11
1666.18151416797
21
-113.501726522631
31
0
0
LINE
8
layer0
10
1666.18151416797
20
-113.501726522631
30
0
11
1653.68151416797
21
-124.327044069936
31
0
0
LINE
8
layer0
10
1653.68151416797
20
-124.327044069936
30
0
11
1653.68151416797
21
-124.327044069936
31
0
0
LINE
8
layer0
10
1653.68151416797
20
-124.327044069936
30
0
11
1653.14548237456
21
-126.388657304677
31
0
0
LINE
8
layer0
10
1653.14548237456
20
-126.388657304677
30
0
11
1664.91324932753
21
-116.197472177593
31
0
0
LINE
8
layer0
10
1666.18151416797
20
-113.501726522631
30
0
11
1664.91324932753
21
-110.073747820635
31
0
0
LINE
8
layer0
10
1664.91324932753
20
-110.073747820635
30
0
11
1653.14548237456
21
-120.264932947719
31
0
0
LINE
8
layer0
10
1653.14548237456
20
-120.264932947719
30
0
11
1653.68151416797
21
-124.327044069936
31
0
0
LINE
8
layer0
10
1653.68151416797
20
-124.327044069936
30
0
11
1666.18151416797
21
-113.501726522631
31
0
0
LINE
8
layer0
10
1664.91324932753
20
-110.073747820635
30
0
11
1661.85138714905
21
-107.921599503709
31
0
0
LINE
8
layer0
10
1661.85138714905
20
-107.921599503709
30
0
11
1651.85138714905
21
-116.581853541553
31
0
0
LINE
8
layer0
10
1651.85138714905
20
-116.581853541553
30
0
11
1653.14548237456
21
-120.264932947719
31
0
0
LINE
8
layer0
10
1653.14548237456
20
-120.264932947719
30
0
11
1664.91324932753
21
-110.073747820635
31
0
0
ENDBLK
0
BLOCK
8
layer0
2
PF_OBJECT34
70
0
10
0
20
0
30
0
0
LINE
8
layer0
10
1485.57450962244
20
-77.2421075793973
30
0
11
1490.40413875388
21
-75.3267951261978
31
0
0
LINE
8
layer0
10
1490.40413875388
20
-75.3267951261978
30
0
11
1650.55729192353
21
-121.559028173231
31
0
0
LINE
8
layer0
10
1650.55729192353
20
-121.559028173231
30
0
11
1651.85138714905
21
-125.242107579397
31
0
0
LINE
8
layer0
10
1651.85138714905
20
-125.242107579397
30
0
11
1485.57450962244
21
-77.2421075793973
31
0
0
LINE
8
layer0
10
1480.74488049099
20
-76.6208903517103
30
0
11
1485.57450962244
21
-77.2421075793973
31
0
0
LINE
8
layer0
10
1485.57450962244
20
-77.2421075793973
30
0
11
1651.85138714905
21
-125.242107579397
31
0
0
LINE
8
layer0
10
1651.85138714905
20
-125.242107579397
30
0
11
1653.14548237456
21
-126.388657304677
31
0
0
LINE
8
layer0
10
1653.14548237456
20
-126.388657304677
30
0
11
1480.74488049099
21
-76.6208903517103
31
0
0
LINE
8
layer0
10
1478.74438260351
20
-73.8270440699363
30
0
11
1478.74438260351
21
-73.8270440699363
31
0
0
LINE
8
layer0
10
1478.74438260351
20
-73.8270440699363
30
0
11
1480.74488049099
21
-76.6208903517103
31
0
0
LINE
8
layer0
10
1480.74488049099
20
-76.6208903517103
30
0
11
1653.14548237456
21
-126.388657304677
31
0
0
LINE
8
layer0
10
1653.14548237456
20
-126.388657304677
30
0
11
1653.68151416797
21
-124.327044069936
31
0
0
LINE
8
layer0
10
1653.68151416797
20
-124.327044069936
30
0
11
1478.74438260351
21
-73.8270440699363
31
0
0
LINE
8
layer0
10
1480.74488049099
20
-70.4971659947524
30
0
11
1478.74438260351
21
-73.8270440699363
31
0
0
LINE
8
layer0
10
1478.74438260351
20
-73.8270440699363
30
0
11
1478.74438260351
21
-73.8270440699363
31
0
0
LINE
8
layer0
10
1478.74438260351
20
-73.8270440699363
30
0
11
1653.68151416797
21
-124.327044069936
31
0
0
LINE
8
layer0
10
1653.68151416797
20
-124.327044069936
30
0
11
1653.68151416797
21
-124.327044069936
31
0
0
LINE
8
layer0
10
1653.68151416797
20
-124.327044069936
30
0
11
1653.14548237456
21
-120.264932947719
31
0
0
LINE
8
layer0
10
1653.14548237456
20
-120.264932947719
30
0
11
1480.74488049099
21
-70.4971659947524
31
0
0
LINE
8
layer0
10
1490.40413875388
20
-69.2030707692398
30
0
11
1492.40463664136
21
-71.9969170510141
31
0
0
LINE
8
layer0
10
1492.40463664136
20
-71.9969170510141
30
0
11
1490.40413875388
21
-75.3267951261978
31
0
0
LINE
8
layer0
10
1490.40413875388
20
-75.3267951261978
30
0
11
1485.57450962244
21
-77.2421075793973
31
0
0
LINE
8
layer0
10
1485.57450962244
20
-77.2421075793973
30
0
11
1480.74488049099
21
-76.6208903517103
31
0
0
LINE
8
layer0
10
1480.74488049099
20
-76.6208903517103
30
0
11
1478.74438260351
21
-73.8270440699363
31
0
0
LINE
8
layer0
10
1478.74438260351
20
-73.8270440699363
30
0
11
1478.74438260351
21
-73.8270440699363
31
0
0
LINE
8
layer0
10
1478.74438260351
20
-73.8270440699363
30
0
11
1480.74488049099
21
-70.4971659947524
31
0
0
LINE
8
layer0
10
1480.74488049099
20
-70.4971659947524
30
0
11
1485.57450962244
21
-68.581853541553
31
0
0
LINE
8
layer0
10
1485.57450962244
20
-68.581853541553
30
0
11
1490.40413875388
21
-69.2030707692398
31
0
0
LINE
8
layer0
10
1651.85138714905
20
-116.581853541553
30
0
11
1653.14548237456
21
-120.264932947719
31
0
0
LINE
8
layer0
10
1653.14548237456
20
-120.264932947719
30
0
11
1653.68151416797
21
-124.327044069936
31
0
0
LINE
8
layer0
10
1653.68151416797
20
-124.327044069936
30
0
11
1653.14548237456
21
-126.388657304677
31
0
0
LINE
8
layer0
10
1653.14548237456
20
-126.388657304677
30
0
11
1651.85138714905
21
-125.242107579397
31
0
0
LINE
8
layer0
10
1651.85138714905
20
-125.242107579397
30
0
11
1650.55729192353
21
-121.559028173231
31
0
0
LINE
8
layer0
10
1650.55729192353
20
-121.559028173231
30
0
11
1650.02126013013
21
-117.496917051014
31
0
0
LINE
8
layer0
10
1650.02126013013
20
-117.496917051014
30
0
11
1650.55729192353
21
-115.435303816273
31
0
0
LINE
8
layer0
10
1650.55729192353
20
-115.435303816273
30
0
11
1651.85138714905
21
-116.581853541553
31
0
0
LINE
8
layer0
10
1485.57450962244
20
-68.581853541553
30
0
11
1480.74488049099
21
-70.4971659947524
31
0
0
LINE
8
layer0
10
1480.74488049099
20
-70.4971659947524
30
0
11
1653.14548237456
21
-120.264932947719
31
0
0
LINE
8
layer0
10
1653.14548237456
20
-120.264932947719
30
0
11
1651.85138714905
21
-116.581853541553
31
0
0
LINE
8
layer0
10
1651.85138714905
20
-116.581853541553
30
0
11
1485.57450962244
21
-68.581853541553
31
0
0
LINE
8
layer0
10
1490.40413875388
20
-75.3267951261978
30
0
11
1492.40463664136
21
-71.9969170510141
31
0
0
LINE
8
layer0
10
1492.40463664136
20
-71.9969170510141
30
0
11
1650.02126013013
21
-117.496917051014
31
0
0
LINE
8
layer0
10
1650.02126013013
20
-117.496917051014
30
0
11
1650.55729192353
21
-121.559028173231
31
0
0
LINE
8
layer0
10
1650.55729192353
20
-121.559028173231
30
0
11
1490.40413875388
21
-75.3267951261978
31
0
0
LINE
8
layer0
10
1492.40463664136
20
-71.9969170510141
30
0
11
1490.40413875388
21
-69.2030707692398
31
0
0
LINE
8
layer0
10
1490.40413875388
20
-69.2030707692398
30
0
11
1650.55729192353
21
-115.435303816273
31
0
0
LINE
8
layer0
10
1650.55729192353
20
-115.435303816273
30
0
11
1650.02126013013
21
-117.496917051014
31
0
0
LINE
8
layer0
10
1650.02126013013
20
-117.496917051014
30
0
11
1492.40463664136
21
-71.9969170510141
31
0
0
LINE
8
layer0
10
1490.40413875388
20
-69.2030707692398
30
0
11
1485.57450962244
21
-68.581853541553
31
0
0
LINE
8
layer0
10
1485.57450962244
20
-68.581853541553
30
0
11
1651.85138714905
21
-116.581853541553
31
0
0
LINE
8
layer0
10
1651.85138714905
20
-116.581853541553
30
0
11
1650.55729192353
21
-115.435303816273
31
0
0
LINE
8
layer0
10
1650.55729192353
20
-115.435303816273
30
0
11
1490.40413875388
21
-69.2030707692398
31
0
0
ENDBLK
0
BLOCK
8
layer0
2
PF_OBJECT35
70
0
10
0
20
0
30
0
0
LINE
8
layer0
10
1848.52056952107
20
-729.632340597654
30
0
11
1334.10147967312
21
-581.132340597654
31
0
0
LINE
8
layer0
10
1334.10147967312
20
-581.132340597654
30
0
11
1334.10147967312
21
31.1476198779446
31
0
0
LINE
8
layer0
10
1334.10147967312
20
31.1476198779446
30
0
11
1848.52056952107
21
-117.352380122055
31
0
0
LINE
8
layer0
10
1848.52056952107
20
-117.352380122055
30
0
11
1848.52056952107
21
-729.632340597654
31
0
0
LINE
8
layer0
10
1324.10147967312
20
-589.792594635498
30
0
11
1838.52056952107
21
-738.292594635498
31
0
0
LINE
8
layer0
10
1838.52056952107
20
-738.292594635498
30
0
11
1838.52056952107
21
-126.0126341599
31
0
0
LINE
8
layer0
10
1838.52056952107
20
-126.0126341599
30
0
11
1324.10147967312
21
22.4873658401002
31
0
0
LINE
8
layer0
10
1324.10147967312
20
22.4873658401002
30
0
11
1324.10147967312
21
-589.792594635498
31
0
0
LINE
8
layer0
10
1334.10147967312
20
-581.132340597654
30
0
11
1324.10147967312
21
-589.792594635498
31
0
0
LINE
8
layer0
10
1324.10147967312
20
-589.792594635498
30
0
11
1324.10147967312
21
22.4873658401002
31
0
0
LINE
8
layer0
10
1324.10147967312
20
22.4873658401002
30
0
11
1334.10147967312
21
31.1476198779446
31
0
0
LINE
8
layer0
10
1334.10147967312
20
31.1476198779446
30
0
11
1334.10147967312
21
-581.132340597654
31
0
0
LINE
8
layer0
10
1838.52056952107
20
-738.292594635498
30
0
11
1848.52056952107
21
-729.632340597654
31
0
0
LINE
8
layer0
10
1848.52056952107
20
-729.632340597654
30
0
11
1848.52056952107
21
-117.352380122055
31
0
0
LINE
8
layer0
10
1848.52056952107
20
-117.352380122055
30
0
11
1838.52056952107
21
-126.0126341599
31
0
0
LINE
8
layer0
10
1838.52056952107
20
-126.0126341599
30
0
11
1838.52056952107
21
-738.292594635498
31
0
0
LINE
8
layer0
10
1848.52056952107
20
-117.352380122055
30
0
11
1334.10147967312
21
31.1476198779446
31
0
0
LINE
8
layer0
10
1334.10147967312
20
31.1476198779446
30
0
11
1324.10147967312
21
22.4873658401002
31
0
0
LINE
8
layer0
10
1324.10147967312
20
22.4873658401002
30
0
11
1838.52056952107
21
-126.0126341599
31
0
0
LINE
8
layer0
10
1838.52056952107
20
-126.0126341599
30
0
11
1848.52056952107
21
-117.352380122055
31
0
0
LINE
8
layer0
10
1334.10147967312
20
-581.132340597654
30
0
11
1848.52056952107
21
-729.632340597654
31
0
0
LINE
8
layer0
10
1848.52056952107
20
-729.632340597654
30
0
11
1838.52056952107
21
-738.292594635498
31
0
0
LINE
8
layer0
10
1838.52056952107
20
-738.292594635498
30
0
11
1324.10147967312
21
-589.792594635498
31
0
0
LINE
8
layer0
10
1324.10147967312
20
-589.792594635498
30
0
11
1334.10147967312
21
-581.132340597654
31
0
0
ENDBLK
0
BLOCK
8
layer0
70
0
10
0
20
0
30
0
2
PF_SKETCH36
0
LINE
8
layer0
10
1568.8367367951
20
246.094569747296
30
0
11
1521.67007012843
21
205.24703820213
31
0
0
ENDBLK
0
BLOCK
8
layer0
70
0
10
0
20
0
30
0
2
PF_SKETCH37
0
LINE
8
layer0
10
2088.45197906576
20
96.0945697472957
30
0
11
2041.28531239909
21
55.2470382021297
31
0
0
ENDBLK
0
BLOCK
8
layer0
70
0
10
0
20
0
30
0
2
PF_SKETCH38
0
LINE
8
layer0
10
1474.50340346176
20
164.399506656964
30
0
11
1427.3367367951
21
123.551975111798
31
0
0
ENDBLK
0
BLOCK
8
layer0
70
0
10
0
20
0
30
0
2
PF_SKETCH39
0
LINE
8
layer0
10
1994.11864573243
20
14.3995066569636
30
0
11
1946.95197906576
21
-26.4480248882024
31
0
0
ENDBLK
0
BLOCK
8
layer0
70
0
10
0
20
0
30
0
2
PF_SKETCH40
0
LINE
8
layer0
10
1380.17007012843
20
82.7044435666316
30
0
11
1333.00340346176
21
41.8569120214656
31
0
0
ENDBLK
0
BLOCK
8
layer0
70
0
10
0
20
0
30
0
2
PF_SKETCH41
0
LINE
8
layer0
10
1899.78531239909
20
-67.2955564333684
30
0
11
1852.61864573243
21
-108.143087978534
31
0
0
ENDBLK
0
BLOCK
8
layer0
2
PF_OBJECT42
70
0
10
0
20
0
30
0
0
LINE
8
layer0
10
2137.7784746115
20
-615.391438084799
30
0
11
1844.7784746115
21
-869.13688139364
31
0
0
LINE
8
layer0
10
1844.7784746115
20
-869.13688139364
30
0
11
1844.7784746115
21
-115.694780101178
31
0
0
LINE
8
layer0
10
1844.7784746115
20
-115.694780101178
30
0
11
2137.7784746115
21
138.050663207662
31
0
0
LINE
8
layer0
10
2137.7784746115
20
138.050663207662
30
0
11
2137.7784746115
21
-615.391438084799
31
0
0
LINE
8
layer0
10
1857.97505219298
20
-872.946405203164
30
0
11
2150.97505219298
21
-619.200961894323
31
0
0
LINE
8
layer0
10
2150.97505219298
20
-619.200961894323
30
0
11
2150.97505219298
21
134.241139398138
31
0
0
LINE
8
layer0
10
2150.97505219298
20
134.241139398138
30
0
11
1857.97505219298
21
-119.504303910702
31
0
0
LINE
8
layer0
10
1857.97505219298
20
-119.504303910702
30
0
11
1857.97505219298
21
-872.946405203164
31
0
0
LINE
8
layer0
10
1844.7784746115
20
-869.13688139364
30
0
11
1857.97505219298
21
-872.946405203164
31
0
0
LINE
8
layer0
10
1857.97505219298
20
-872.946405203164
30
0
11
1857.97505219298
21
-119.504303910702
31
0
0
LINE
8
layer0
10
1857.97505219298
20
-119.504303910702
30
0
11
1844.7784746115
21
-115.694780101178
31
0
0
LINE
8
layer0
10
1844.7784746115
20
-115.694780101178
30
0
11
1844.7784746115
21
-869.13688139364
31
0
0
LINE
8
layer0
10
2150.97505219298
20
-619.200961894323
30
0
11
2137.7784746115
21
-615.391438084799
31
0
0
LINE
8
layer0
10
2137.7784746115
20
-615.391438084799
30
0
11
2137.7784746115
21
138.050663207662
31
0
0
LINE
8
layer0
10
2137.7784746115
20
138.050663207662
30
0
11
2150.97505219298
21
134.241139398138
31
0
0
LINE
8
layer0
10
2150.97505219298
20
134.241139398138
30
0
11
2150.97505219298
21
-619.200961894323
31
0
0
LINE
8
layer0
10
2137.7784746115
20
138.050663207662
30
0
11
1844.7784746115
21
-115.694780101178
31
0
0
LINE
8
layer0
10
1844.7784746115
20
-115.694780101178
30
0
11
1857.97505219298
21
-119.504303910702
31
0
0
LINE
8
layer0
10
1857.97505219298
20
-119.504303910702
30
0
11
2150.97505219298
21
134.241139398138
31
0
0
LINE
8
layer0
10
2150.97505219298
20
134.241139398138
30
0
11
2137.7784746115
21
138.050663207662
31
0
0
LINE
8
layer0
10
1844.7784746115
20
-869.13688139364
30
0
11
2137.7784746115
21
-615.391438084799
31
0
0
LINE
8
layer0
10
2137.7784746115
20
-615.391438084799
30
0
11
2150.97505219298
21
-619.200961894323
31
0
0
LINE
8
layer0
10
2150.97505219298
20
-619.200961894323
30
0
11
1857.97505219298
21
-872.946405203164
31
0
0
LINE
8
layer0
10
1857.97505219298
20
-872.946405203164
30
0
11
1844.7784746115
21
-869.13688139364
31
0
0
ENDBLK
0
BLOCK
8
layer0
2
PF_OBJECT43
70
0
10
0
20
0
30
0
0
LINE
8
layer0
10
576.772918920436
20
1071.91632741175
30
0
11
562.916512459885
21
1075.91632741175
31
0
0
LINE
8
layer0
10
562.916512459885
20
1075.91632741175
30
0
11
562.916512459885
21
1693.39244031005
31
0
0
LINE
8
layer0
10
562.916512459885
20
1693.39244031005
30
0
11
576.772918920436
21
1689.39244031005
31
0
0
LINE
8
layer0
10
576.772918920436
20
1689.39244031005
30
0
11
576.772918920436
21
1071.91632741175
31
0
0
LINE
8
layer0
10
402.416512459885
20
936.919250104345
30
0
11
416.272918920436
21
932.919250104345
31
0
0
LINE
8
layer0
10
416.272918920436
20
932.919250104345
30
0
11
416.272918920436
21
1550.39536300265
31
0
0
LINE
8
layer0
10
416.272918920436
20
1550.39536300265
30
0
11
402.416512459885
21
1554.39536300265
31
0
0
LINE
8
layer0
10
402.416512459885
20
1554.39536300265
30
0
11
402.416512459885
21
936.919250104345
31
0
0
LINE
8
layer0
10
562.916512459885
20
1075.91632741175
30
0
11
402.416512459885
21
936.919250104345
31
0
0
LINE
8
layer0
10
402.416512459885
20
936.919250104345
30
0
11
402.416512459885
21
1554.39536300265
31
0
0
LINE
8
layer0
10
402.416512459885
20
1554.39536300265
30
0
11
562.916512459885
21
1693.39244031005
31
0
0
LINE
8
layer0
10
562.916512459885
20
1693.39244031005
30
0
11
562.916512459885
21
1075.91632741175
31
0
0
LINE
8
layer0
10
416.272918920436
20
932.919250104345
30
0
11
576.772918920436
21
1071.91632741175
31
0
0
LINE
8
layer0
10
576.772918920436
20
1071.91632741175
30
0
11
576.772918920436
21
1689.39244031005
31
0
0
LINE
8
layer0
10
576.772918920436
20
1689.39244031005
30
0
11
416.272918920436
21
1550.39536300265
31
0
0
LINE
8
layer0
10
416.272918920436
20
1550.39536300265
30
0
11
416.272918920436
21
932.919250104345
31
0
0
LINE
8
layer0
10
576.772918920436
20
1689.39244031005
30
0
11
562.916512459885
21
1693.39244031005
31
0
0
LINE
8
layer0
10
562.916512459885
20
1693.39244031005
30
0
11
402.416512459885
21
1554.39536300265
31
0
0
LINE
8
layer0
10
402.416512459885
20
1554.39536300265
30
0
11
416.272918920436
21
1550.39536300265
31
0
0
LINE
8
layer0
10
416.272918920436
20
1550.39536300265
30
0
11
576.772918920436
21
1689.39244031005
31
0
0
LINE
8
layer0
10
562.916512459885
20
1075.91632741175
30
0
11
576.772918920436
21
1071.91632741175
31
0
0
LINE
8
layer0
10
576.772918920436
20
1071.91632741175
30
0
11
416.272918920436
21
932.919250104345
31
0
0
LINE
8
layer0
10
416.272918920436
20
932.919250104345
30
0
11
402.416512459885
21
936.919250104345
31
0
0
LINE
8
layer0
10
402.416512459885
20
936.919250104345
30
0
11
562.916512459885
21
1075.91632741175
31
0
0
ENDBLK
0
BLOCK
8
layer0
2
PF_OBJECT44
70
0
10
0
20
0
30
0
0
LINE
8
layer0
10
1082.53175473055
20
925.916327411747
30
0
11
1068.67534827
21
929.916327411747
31
0
0
LINE
8
layer0
10
1068.67534827
20
929.916327411747
30
0
11
1068.67534827
21
1547.39244031005
31
0
0
LINE
8
layer0
10
1068.67534827
20
1547.39244031005
30
0
11
1082.53175473055
21
1543.39244031005
31
0
0
LINE
8
layer0
10
1082.53175473055
20
1543.39244031005
30
0
11
1082.53175473055
21
925.916327411747
31
0
0
LINE
8
layer0
10
908.175348269997
20
790.919250104345
30
0
11
922.031754730548
21
786.919250104345
31
0
0
LINE
8
layer0
10
922.031754730548
20
786.919250104345
30
0
11
922.031754730548
21
1404.39536300265
31
0
0
LINE
8
layer0
10
922.031754730548
20
1404.39536300265
30
0
11
908.175348269997
21
1408.39536300265
31
0
0
LINE
8
layer0
10
908.175348269997
20
1408.39536300265
30
0
11
908.175348269997
21
790.919250104345
31
0
0
LINE
8
layer0
10
1068.67534827
20
929.916327411747
30
0
11
908.175348269997
21
790.919250104345
31
0
0
LINE
8
layer0
10
908.175348269997
20
790.919250104345
30
0
11
908.175348269997
21
1408.39536300265
31
0
0
LINE
8
layer0
10
908.175348269997
20
1408.39536300265
30
0
11
1068.67534827
21
1547.39244031005
31
0
0
LINE
8
layer0
10
1068.67534827
20
1547.39244031005
30
0
11
1068.67534827
21
929.916327411747
31
0
0
LINE
8
layer0
10
922.031754730548
20
786.919250104345
30
0
11
1082.53175473055
21
925.916327411747
31
0
0
LINE
8
layer0
10
1082.53175473055
20
925.916327411747
30
0
11
1082.53175473055
21
1543.39244031005
31
0
0
LINE
8
layer0
10
1082.53175473055
20
1543.39244031005
30
0
11
922.031754730548
21
1404.39536300265
31
0
0
LINE
8
layer0
10
922.031754730548
20
1404.39536300265
30
0
11
922.031754730548
21
786.919250104345
31
0
0
LINE
8
layer0
10
1082.53175473055
20
1543.39244031005
30
0
11
1068.67534827
21
1547.39244031005
31
0
0
LINE
8
layer0
10
1068.67534827
20
1547.39244031005
30
0
11
908.175348269997
21
1408.39536300265
31
0
0
LINE
8
layer0
10
908.175348269997
20
1408.39536300265
30
0
11
922.031754730548
21
1404.39536300265
31
0
0
LINE
8
layer0
10
922.031754730548
20
1404.39536300265
30
0
11
1082.53175473055
21
1543.39244031005
31
0
0
LINE
8
layer0
10
1068.67534827
20
929.916327411747
30
0
11
1082.53175473055
21
925.916327411747
31
0
0
LINE
8
layer0
10
1082.53175473055
20
925.916327411747
30
0
11
922.031754730548
21
786.919250104345
31
0
0
LINE
8
layer0
10
922.031754730548
20
786.919250104345
30
0
11
908.175348269997
21
790.919250104345
31
0
0
LINE
8
layer0
10
908.175348269997
20
790.919250104345
30
0
11
1068.67534827
21
929.916327411747
31
0
0
ENDBLK
0
BLOCK
8
layer0
2
PF_OBJECT45
70
0
10
0
20
0
30
0
0
LINE
8
layer0
10
1056.67534827
20
919.524022566334
30
0
11
564.772918920436
21
1061.52402256633
31
0
0
LINE
8
layer0
10
564.772918920436
20
1061.52402256633
30
0
11
564.772918920436
21
1075.38042902688
31
0
0
LINE
8
layer0
10
564.772918920436
20
1075.38042902688
30
0
11
1056.67534827
21
933.380429026885
31
0
0
LINE
8
layer0
10
1056.67534827
20
933.380429026885
30
0
11
1056.67534827
21
919.524022566334
31
0
0
LINE
8
layer0
10
416.772918920436
20
933.352262806237
30
0
11
908.675348269997
21
791.352262806237
31
0
0
LINE
8
layer0
10
908.675348269997
20
791.352262806237
30
0
11
908.675348269997
21
805.208669266788
31
0
0
LINE
8
layer0
10
908.675348269997
20
805.208669266788
30
0
11
416.772918920436
21
947.208669266788
31
0
0
LINE
8
layer0
10
416.772918920436
20
947.208669266788
30
0
11
416.772918920436
21
933.352262806237
31
0
0
LINE
8
layer0
10
564.772918920436
20
1061.52402256633
30
0
11
416.772918920436
21
933.352262806237
31
0
0
LINE
8
layer0
10
416.772918920436
20
933.352262806237
30
0
11
416.772918920436
21
947.208669266788
31
0
0
LINE
8
layer0
10
416.772918920436
20
947.208669266788
30
0
11
564.772918920436
21
1075.38042902688
31
0
0
LINE
8
layer0
10
564.772918920436
20
1075.38042902688
30
0
11
564.772918920436
21
1061.52402256633
31
0
0
LINE
8
layer0
10
908.675348269997
20
791.352262806237
30
0
11
1056.67534827
21
919.524022566334
31
0
0
LINE
8
layer0
10
1056.67534827
20
919.524022566334
30
0
11
1056.67534827
21
933.380429026885
31
0
0
LINE
8
layer0
10
1056.67534827
20
933.380429026885
30
0
11
908.675348269997
21
805.208669266788
31
0
0
LINE
8
layer0
10
908.675348269997
20
805.208669266788
30
0
11
908.675348269997
21
791.352262806237
31
0
0
LINE
8
layer0
10
1056.67534827
20
933.380429026885
30
0
11
564.772918920436
21
1075.38042902688
31
0
0
LINE
8
layer0
10
564.772918920436
20
1075.38042902688
30
0
11
416.772918920436
21
947.208669266788
31
0
0
LINE
8
layer0
10
416.772918920436
20
947.208669266788
30
0
11
908.675348269997
21
805.208669266788
31
0
0
LINE
8
layer0
10
908.675348269997
20
805.208669266788
30
0
11
1056.67534827
21
933.380429026885
31
0
0
LINE
8
layer0
10
564.772918920436
20
1061.52402256633
30
0
11
1056.67534827
21
919.524022566334
31
0
0
LINE
8
layer0
10
1056.67534827
20
919.524022566334
30
0
11
908.675348269997
21
791.352262806237
31
0
0
LINE
8
layer0
10
908.675348269997
20
791.352262806237
30
0
11
416.772918920436
21
933.352262806237
31
0
0
LINE
8
layer0
10
416.772918920436
20
933.352262806237
30
0
11
564.772918920436
21
1061.52402256633
31
0
0
ENDBLK
0
BLOCK
8
layer0
2
PF_OBJECT46
70
0
10
0
20
0
30
0
0
LINE
8
layer0
10
1058.67534827
20
921.256073373903
30
0
11
566.772918920436
21
1063.2560733739
31
0
0
LINE
8
layer0
10
566.772918920436
20
1063.2560733739
30
0
11
566.772918920436
21
1680.73218627221
31
0
0
LINE
8
layer0
10
566.772918920436
20
1680.73218627221
30
0
11
1058.67534827
21
1538.73218627221
31
0
0
LINE
8
layer0
10
1058.67534827
20
1538.73218627221
30
0
11
1058.67534827
21
921.256073373903
31
0
0
LINE
8
layer0
10
564.772918920436
20
1061.52402256633
30
0
11
1056.67534827
21
919.524022566334
31
0
0
LINE
8
layer0
10
1056.67534827
20
919.524022566334
30
0
11
1056.67534827
21
1537.00013546464
31
0
0
LINE
8
layer0
10
1056.67534827
20
1537.00013546464
30
0
11
564.772918920436
21
1679.00013546464
31
0
0
LINE
8
layer0
10
564.772918920436
20
1679.00013546464
30
0
11
564.772918920436
21
1061.52402256633
31
0
0
LINE
8
layer0
10
566.772918920436
20
1063.2560733739
30
0
11
564.772918920436
21
1061.52402256633
31
0
0
LINE
8
layer0
10
564.772918920436
20
1061.52402256633
30
0
11
564.772918920436
21
1679.00013546464
31
0
0
LINE
8
layer0
10
564.772918920436
20
1679.00013546464
30
0
11
566.772918920436
21
1680.73218627221
31
0
0
LINE
8
layer0
10
566.772918920436
20
1680.73218627221
30
0
11
566.772918920436
21
1063.2560733739
31
0
0
LINE
8
layer0
10
1056.67534827
20
919.524022566334
30
0
11
1058.67534827
21
921.256073373903
31
0
0
LINE
8
layer0
10
1058.67534827
20
921.256073373903
30
0
11
1058.67534827
21
1538.73218627221
31
0
0
LINE
8
layer0
10
1058.67534827
20
1538.73218627221
30
0
11
1056.67534827
21
1537.00013546464
31
0
0
LINE
8
layer0
10
1056.67534827
20
1537.00013546464
30
0
11
1056.67534827
21
919.524022566334
31
0
0
LINE
8
layer0
10
1058.67534827
20
1538.73218627221
30
0
11
566.772918920436
21
1680.73218627221
31
0
0
LINE
8
layer0
10
566.772918920436
20
1680.73218627221
30
0
11
564.772918920436
21
1679.00013546464
31
0
0
LINE
8
layer0
10
564.772918920436
20
1679.00013546464
30
0
11
1056.67534827
21
1537.00013546464
31
0
0
LINE
8
layer0
10
1056.67534827
20
1537.00013546464
30
0
11
1058.67534827
21
1538.73218627221
31
0
0
LINE
8
layer0
10
566.772918920436
20
1063.2560733739
30
0
11
1058.67534827
21
921.256073373903
31
0
0
LINE
8
layer0
10
1058.67534827
20
921.256073373903
30
0
11
1056.67534827
21
919.524022566334
31
0
0
LINE
8
layer0
10
1056.67534827
20
919.524022566334
30
0
11
564.772918920436
21
1061.52402256633
31
0
0
LINE
8
layer0
10
564.772918920436
20
1061.52402256633
30
0
11
566.772918920436
21
1063.2560733739
31
0
0
ENDBLK
0
BLOCK
8
layer0
2
PF_OBJECT47
70
0
10
0
20
0
30
0
0
LINE
8
layer0
10
1056.67534827
20
1523.14372900409
30
0
11
564.772918920436
21
1665.14372900409
31
0
0
LINE
8
layer0
10
564.772918920436
20
1665.14372900409
30
0
11
564.772918920436
21
1679.00013546464
31
0
0
LINE
8
layer0
10
564.772918920436
20
1679.00013546464
30
0
11
1056.67534827
21
1537.00013546464
31
0
0
LINE
8
layer0
10
1056.67534827
20
1537.00013546464
30
0
11
1056.67534827
21
1523.14372900409
31
0
0
LINE
8
layer0
10
416.772918920436
20
1536.97196924399
30
0
11
908.675348269997
21
1394.97196924399
31
0
0
LINE
8
layer0
10
908.675348269997
20
1394.97196924399
30
0
11
908.675348269997
21
1408.82837570454
31
0
0
LINE
8
layer0
10
908.675348269997
20
1408.82837570454
30
0
11
416.772918920436
21
1550.82837570454
31
0
0
LINE
8
layer0
10
416.772918920436
20
1550.82837570454
30
0
11
416.772918920436
21
1536.97196924399
31
0
0
LINE
8
layer0
10
564.772918920436
20
1665.14372900409
30
0
11
416.772918920436
21
1536.97196924399
31
0
0
LINE
8
layer0
10
416.772918920436
20
1536.97196924399
30
0
11
416.772918920436
21
1550.82837570454
31
0
0
LINE
8
layer0
10
416.772918920436
20
1550.82837570454
30
0
11
564.772918920436
21
1679.00013546464
31
0
0
LINE
8
layer0
10
564.772918920436
20
1679.00013546464
30
0
11
564.772918920436
21
1665.14372900409
31
0
0
LINE
8
layer0
10
908.675348269997
20
1394.97196924399
30
0
11
1056.67534827
21
1523.14372900409
31
0
0
LINE
8
layer0
10
1056.67534827
20
1523.14372900409
30
0
11
1056.67534827
21
1537.00013546464
31
0
0
LINE
8
layer0
10
1056.67534827
20
1537.00013546464
30
0
11
908.675348269997
21
1408.82837570454
31
0
0
LINE
8
layer0
10
908.675348269997
20
1408.82837570454
30
0
11
908.675348269997
21
1394.97196924399
31
0
0
LINE
8
layer0
10
1056.67534827
20
1537.00013546464
30
0
11
564.772918920436
21
1679.00013546464
31
0
0
LINE
8
layer0
10
564.772918920436
20
1679.00013546464
30
0
11
416.772918920436
21
1550.82837570454
31
0
0
LINE
8
layer0
10
416.772918920436
20
1550.82837570454
30
0
11
908.675348269997
21
1408.82837570454
31
0
0
LINE
8
layer0
10
908.675348269997
20
1408.82837570454
30
0
11
1056.67534827
21
1537.00013546464
31
0
0
LINE
8
layer0
10
564.772918920436
20
1665.14372900409
30
0
11
1056.67534827
21
1523.14372900409
31
0
0
LINE
8
layer0
10
1056.67534827
20
1523.14372900409
30
0
11
908.675348269997
21
1394.97196924399
31
0
0
LINE
8
layer0
10
908.675348269997
20
1394.97196924399
30
0
11
416.772918920436
21
1536.97196924399
31
0
0
LINE
8
layer0
10
416.772918920436
20
1536.97196924399
30
0
11
564.772918920436
21
1665.14372900409
31
0
0
ENDBLK
0
BLOCK
8
layer0
2
PF_OBJECT48
70
0
10
0
20
0
30
0
0
LINE
8
layer0
10
709.613861052559
20
870.466999515986
30
0
11
712.675723231038
21
870.851380879946
31
0
0
LINE
8
layer0
10
712.675723231038
20
870.851380879946
30
0
11
704.443490184004
21
863.722057931341
31
0
0
LINE
8
layer0
10
704.443490184004
20
863.722057931341
30
0
11
699.613861052559
21
861.806745478141
31
0
0
LINE
8
layer0
10
699.613861052559
20
861.806745478141
30
0
11
709.613861052559
21
870.466999515986
31
0
0
LINE
8
layer0
10
706.55199887408
20
872.619147832912
30
0
11
709.613861052559
21
870.466999515986
31
0
0
LINE
8
layer0
10
709.613861052559
20
870.466999515986
30
0
11
699.613861052559
21
861.806745478141
31
0
0
LINE
8
layer0
10
699.613861052559
20
861.806745478141
30
0
11
694.784231921113
21
862.427962705828
31
0
0
LINE
8
layer0
10
694.784231921113
20
862.427962705828
30
0
11
706.55199887408
21
872.619147832912
31
0
0
LINE
8
layer0
10
705.283734033637
20
876.047126534908
30
0
11
706.55199887408
21
872.619147832912
31
0
0
LINE
8
layer0
10
706.55199887408
20
872.619147832912
30
0
11
694.784231921113
21
862.427962705828
31
0
0
LINE
8
layer0
10
694.784231921113
20
862.427962705828
30
0
11
692.783734033637
21
865.221808987603
31
0
0
LINE
8
layer0
10
692.783734033637
20
865.221808987603
30
0
11
705.283734033637
21
876.047126534908
31
0
0
LINE
8
layer0
10
706.55199887408
20
878.74287218987
30
0
11
705.283734033637
21
876.047126534908
31
0
0
LINE
8
layer0
10
705.283734033637
20
876.047126534908
30
0
11
692.783734033637
21
865.221808987603
31
0
0
LINE
8
layer0
10
692.783734033637
20
865.221808987603
30
0
11
692.783734033637
21
865.221808987603
31
0
0
LINE
8
layer0
10
692.783734033637
20
865.221808987603
30
0
11
694.784231921113
21
868.551687062786
31
0
0
LINE
8
layer0
10
694.784231921113
20
868.551687062786
30
0
11
706.55199887408
21
878.74287218987
31
0
0
LINE
8
layer0
10
706.55199887408
20
878.74287218987
30
0
11
709.613861052559
21
879.12725355383
31
0
0
LINE
8
layer0
10
709.613861052559
20
879.12725355383
30
0
11
712.675723231038
21
876.975105236904
31
0
0
LINE
8
layer0
10
712.675723231038
20
876.975105236904
30
0
11
713.943988071481
21
873.547126534908
31
0
0
LINE
8
layer0
10
713.943988071481
20
873.547126534908
30
0
11
712.675723231038
21
870.851380879946
31
0
0
LINE
8
layer0
10
712.675723231038
20
870.851380879946
30
0
11
709.613861052559
21
870.466999515986
31
0
0
LINE
8
layer0
10
709.613861052559
20
870.466999515986
30
0
11
706.55199887408
21
872.619147832912
31
0
0
LINE
8
layer0
10
706.55199887408
20
872.619147832912
30
0
11
705.283734033637
21
876.047126534908
31
0
0
LINE
8
layer0
10
705.283734033637
20
876.047126534908
30
0
11
706.55199887408
21
878.74287218987
31
0
0
LINE
8
layer0
10
699.613861052559
20
870.466999515986
30
0
11
694.784231921113
21
868.551687062786
31
0
0
LINE
8
layer0
10
694.784231921113
20
868.551687062786
30
0
11
692.783734033637
21
865.221808987603
31
0
0
LINE
8
layer0
10
692.783734033637
20
865.221808987603
30
0
11
694.784231921113
21
862.427962705828
31
0
0
LINE
8
layer0
10
694.784231921113
20
862.427962705828
30
0
11
699.613861052559
21
861.806745478141
31
0
0
LINE
8
layer0
10
699.613861052559
20
861.806745478141
30
0
11
704.443490184004
21
863.722057931341
31
0
0
LINE
8
layer0
10
704.443490184004
20
863.722057931341
30
0
11
706.443988071481
21
867.051936006525
31
0
0
LINE
8
layer0
10
706.443988071481
20
867.051936006525
30
0
11
704.443490184004
21
869.845782288299
31
0
0
LINE
8
layer0
10
704.443490184004
20
869.845782288299
30
0
11
699.613861052559
21
870.466999515986
31
0
0
LINE
8
layer0
10
709.613861052559
20
879.12725355383
30
0
11
706.55199887408
21
878.74287218987
31
0
0
LINE
8
layer0
10
706.55199887408
20
878.74287218987
30
0
11
694.784231921113
21
868.551687062786
31
0
0
LINE
8
layer0
10
694.784231921113
20
868.551687062786
30
0
11
699.613861052559
21
870.466999515986
31
0
0
LINE
8
layer0
10
699.613861052559
20
870.466999515986
30
0
11
709.613861052559
21
879.12725355383
31
0
0
LINE
8
layer0
10
712.675723231038
20
870.851380879946
30
0
11
713.943988071481
21
873.547126534908
31
0
0
LINE
8
layer0
10
713.943988071481
20
873.547126534908
30
0
11
706.443988071481
21
867.051936006525
31
0
0
LINE
8
layer0
10
706.443988071481
20
867.051936006525
30
0
11
704.443490184004
21
863.722057931341
31
0
0
LINE
8
layer0
10
704.443490184004
20
863.722057931341
30
0
11
712.675723231038
21
870.851380879946
31
0
0
LINE
8
layer0
10
713.943988071481
20
873.547126534908
30
0
11
712.675723231038
21
876.975105236904
31
0
0
LINE
8
layer0
10
712.675723231038
20
876.975105236904
30
0
11
704.443490184004
21
869.845782288299
31
0
0
LINE
8
layer0
10
704.443490184004
20
869.845782288299
30
0
11
706.443988071481
21
867.051936006525
31
0
0
LINE
8
layer0
10
706.443988071481
20
867.051936006525
30
0
11
713.943988071481
21
873.547126534908
31
0
0
LINE
8
layer0
10
712.675723231038
20
876.975105236904
30
0
11
709.613861052559
21
879.12725355383
31
0
0
LINE
8
layer0
10
709.613861052559
20
879.12725355383
30
0
11
699.613861052559
21
870.466999515986
31
0
0
LINE
8
layer0
10
699.613861052559
20
870.466999515986
30
0
11
704.443490184004
21
869.845782288299
31
0
0
LINE
8
layer0
10
704.443490184004
20
869.845782288299
30
0
11
712.675723231038
21
876.975105236904
31
0
0
ENDBLK
0
BLOCK
8
layer0
2
PF_OBJECT49
70
0
10
0
20
0
30
0
0
LINE
8
layer0
10
875.890738579171
20
822.466999515986
30
0
11
878.95260075765
21
822.851380879946
31
0
0
LINE
8
layer0
10
878.95260075765
20
822.851380879946
30
0
11
867.184833804684
21
812.660195752862
31
0
0
LINE
8
layer0
10
867.184833804684
20
812.660195752862
30
0
11
865.890738579171
21
813.806745478141
31
0
0
LINE
8
layer0
10
865.890738579171
20
813.806745478141
30
0
11
875.890738579171
21
822.466999515986
31
0
0
LINE
8
layer0
10
872.828876400692
20
824.619147832912
30
0
11
875.890738579171
21
822.466999515986
31
0
0
LINE
8
layer0
10
875.890738579171
20
822.466999515986
30
0
11
865.890738579171
21
813.806745478141
31
0
0
LINE
8
layer0
10
865.890738579171
20
813.806745478141
30
0
11
864.596643353658
21
817.489824884307
31
0
0
LINE
8
layer0
10
864.596643353658
20
817.489824884307
30
0
11
872.828876400692
21
824.619147832912
31
0
0
LINE
8
layer0
10
871.560611560249
20
828.047126534908
30
0
11
872.828876400692
21
824.619147832912
31
0
0
LINE
8
layer0
10
872.828876400692
20
824.619147832912
30
0
11
864.596643353658
21
817.489824884307
31
0
0
LINE
8
layer0
10
864.596643353658
20
817.489824884307
30
0
11
864.060611560249
21
821.551936006525
31
0
0
LINE
8
layer0
10
864.060611560249
20
821.551936006525
30
0
11
871.560611560249
21
828.047126534908
31
0
0
LINE
8
layer0
10
872.828876400692
20
830.74287218987
30
0
11
871.560611560249
21
828.047126534908
31
0
0
LINE
8
layer0
10
871.560611560249
20
828.047126534908
30
0
11
864.060611560249
21
821.551936006525
31
0
0
LINE
8
layer0
10
864.060611560249
20
821.551936006525
30
0
11
864.596643353658
21
823.613549241265
31
0
0
LINE
8
layer0
10
864.596643353658
20
823.613549241265
30
0
11
872.828876400692
21
830.74287218987
31
0
0
LINE
8
layer0
10
872.828876400692
20
830.74287218987
30
0
11
875.890738579171
21
831.12725355383
31
0
0
LINE
8
layer0
10
875.890738579171
20
831.12725355383
30
0
11
878.95260075765
21
828.975105236904
31
0
0
LINE
8
layer0
10
878.95260075765
20
828.975105236904
30
0
11
880.220865598093
21
825.547126534908
31
0
0
LINE
8
layer0
10
880.220865598093
20
825.547126534908
30
0
11
878.95260075765
21
822.851380879946
31
0
0
LINE
8
layer0
10
878.95260075765
20
822.851380879946
30
0
11
875.890738579171
21
822.466999515986
31
0
0
LINE
8
layer0
10
875.890738579171
20
822.466999515986
30
0
11
872.828876400692
21
824.619147832912
31
0
0
LINE
8
layer0
10
872.828876400692
20
824.619147832912
30
0
11
871.560611560249
21
828.047126534908
31
0
0
LINE
8
layer0
10
871.560611560249
20
828.047126534908
30
0
11
872.828876400692
21
830.74287218987
31
0
0
LINE
8
layer0
10
865.890738579171
20
822.466999515986
30
0
11
864.596643353658
21
823.613549241265
31
0
0
LINE
8
layer0
10
864.596643353658
20
823.613549241265
30
0
11
864.060611560249
21
821.551936006525
31
0
0
LINE
8
layer0
10
864.060611560249
20
821.551936006525
30
0
11
864.596643353658
21
817.489824884307
31
0
0
LINE
8
layer0
10
864.596643353658
20
817.489824884307
30
0
11
865.890738579171
21
813.806745478141
31
0
0
LINE
8
layer0
10
865.890738579171
20
813.806745478141
30
0
11
867.184833804684
21
812.660195752862
31
0
0
LINE
8
layer0
10
867.184833804684
20
812.660195752862
30
0
11
867.720865598093
21
814.721808987603
31
0
0
LINE
8
layer0
10
867.720865598093
20
814.721808987603
30
0
11
867.184833804684
21
818.78392010982
31
0
0
LINE
8
layer0
10
867.184833804684
20
818.78392010982
30
0
11
865.890738579171
21
822.466999515986
31
0
0
LINE
8
layer0
10
875.890738579171
20
831.12725355383
30
0
11
872.828876400692
21
830.74287218987
31
0
0
LINE
8
layer0
10
872.828876400692
20
830.74287218987
30
0
11
864.596643353658
21
823.613549241265
31
0
0
LINE
8
layer0
10
864.596643353658
20
823.613549241265
30
0
11
865.890738579171
21
822.466999515986
31
0
0
LINE
8
layer0
10
865.890738579171
20
822.466999515986
30
0
11
875.890738579171
21
831.12725355383
31
0
0
LINE
8
layer0
10
878.95260075765
20
822.851380879946
30
0
11
880.220865598093
21
825.547126534908
31
0
0
LINE
8
layer0
10
880.220865598093
20
825.547126534908
30
0
11
867.720865598093
21
814.721808987603
31
0
0
LINE
8
layer0
10
867.720865598093
20
814.721808987603
30
0
11
867.720865598093
21
814.721808987603
31
0
0
LINE
8
layer0
10
867.720865598093
20
814.721808987603
30
0
11
867.184833804684
21
812.660195752862
31
0
0
LINE
8
layer0
10
867.184833804684
20
812.660195752862
30
0
11
878.95260075765
21
822.851380879946
31
0
0
LINE
8
layer0
10
880.220865598093
20
825.547126534908
30
0
11
878.95260075765
21
828.975105236904
31
0
0
LINE
8
layer0
10
878.95260075765
20
828.975105236904
30
0
11
867.184833804684
21
818.78392010982
31
0
0
LINE
8
layer0
10
867.184833804684
20
818.78392010982
30
0
11
867.720865598093
21
814.721808987603
31
0
0
LINE
8
layer0
10
867.720865598093
20
814.721808987603
30
0
11
880.220865598093
21
825.547126534908
31
0
0
LINE
8
layer0
10
878.95260075765
20
828.975105236904
30
0
11
875.890738579171
21
831.12725355383
31
0
0
LINE
8
layer0
10
875.890738579171
20
831.12725355383
30
0
11
865.890738579171
21
822.466999515986
31
0
0
LINE
8
layer0
10
865.890738579171
20
822.466999515986
30
0
11
867.184833804684
21
818.78392010982
31
0
0
LINE
8
layer0
10
867.184833804684
20
818.78392010982
30
0
11
878.95260075765
21
828.975105236904
31
0
0
ENDBLK
0
BLOCK
8
layer0
2
PF_OBJECT50
70
0
10
0
20
0
30
0
0
LINE
8
layer0
10
699.613861052559
20
861.806745478141
30
0
11
704.443490184004
21
863.722057931341
31
0
0
LINE
8
layer0
10
704.443490184004
20
863.722057931341
30
0
11
864.596643353658
21
817.489824884307
31
0
0
LINE
8
layer0
10
864.596643353658
20
817.489824884307
30
0
11
865.890738579171
21
813.806745478141
31
0
0
LINE
8
layer0
10
865.890738579171
20
813.806745478141
30
0
11
699.613861052559
21
861.806745478141
31
0
0
LINE
8
layer0
10
694.784231921113
20
862.427962705828
30
0
11
699.613861052559
21
861.806745478141
31
0
0
LINE
8
layer0
10
699.613861052559
20
861.806745478141
30
0
11
865.890738579171
21
813.806745478141
31
0
0
LINE
8
layer0
10
865.890738579171
20
813.806745478141
30
0
11
867.184833804684
21
812.660195752862
31
0
0
LINE
8
layer0
10
867.184833804684
20
812.660195752862
30
0
11
694.784231921113
21
862.427962705828
31
0
0
LINE
8
layer0
10
692.783734033637
20
865.221808987603
30
0
11
692.783734033637
21
865.221808987603
31
0
0
LINE
8
layer0
10
692.783734033637
20
865.221808987603
30
0
11
694.784231921113
21
862.427962705828
31
0
0
LINE
8
layer0
10
694.784231921113
20
862.427962705828
30
0
11
867.184833804684
21
812.660195752862
31
0
0
LINE
8
layer0
10
867.184833804684
20
812.660195752862
30
0
11
867.720865598093
21
814.721808987603
31
0
0
LINE
8
layer0
10
867.720865598093
20
814.721808987603
30
0
11
692.783734033637
21
865.221808987603
31
0
0
LINE
8
layer0
10
694.784231921113
20
868.551687062786
30
0
11
692.783734033637
21
865.221808987603
31
0
0
LINE
8
layer0
10
692.783734033637
20
865.221808987603
30
0
11
692.783734033637
21
865.221808987603
31
0
0
LINE
8
layer0
10
692.783734033637
20
865.221808987603
30
0
11
867.720865598093
21
814.721808987603
31
0
0
LINE
8
layer0
10
867.720865598093
20
814.721808987603
30
0
11
867.720865598093
21
814.721808987603
31
0
0
LINE
8
layer0
10
867.720865598093
20
814.721808987603
30
0
11
867.184833804684
21
818.78392010982
31
0
0
LINE
8
layer0
10
867.184833804684
20
818.78392010982
30
0
11
694.784231921113
21
868.551687062786
31
0
0
LINE
8
layer0
10
704.443490184004
20
869.845782288299
30
0
11
706.443988071481
21
867.051936006525
31
0
0
LINE
8
layer0
10
706.443988071481
20
867.051936006525
30
0
11
704.443490184004
21
863.722057931341
31
0
0
LINE
8
layer0
10
704.443490184004
20
863.722057931341
30
0
11
699.613861052559
21
861.806745478141
31
0
0
LINE
8
layer0
10
699.613861052559
20
861.806745478141
30
0
11
694.784231921113
21
862.427962705828
31
0
0
LINE
8
layer0
10
694.784231921113
20
862.427962705828
30
0
11
692.783734033637
21
865.221808987603
31
0
0
LINE
8
layer0
10
692.783734033637
20
865.221808987603
30
0
11
692.783734033637
21
865.221808987603
31
0
0
LINE
8
layer0
10
692.783734033637
20
865.221808987603
30
0
11
694.784231921113
21
868.551687062786
31
0
0
LINE
8
layer0
10
694.784231921113
20
868.551687062786
30
0
11
699.613861052559
21
870.466999515986
31
0
0
LINE
8
layer0
10
699.613861052559
20
870.466999515986
30
0
11
704.443490184004
21
869.845782288299
31
0
0
LINE
8
layer0
10
865.890738579171
20
822.466999515986
30
0
11
867.184833804684
21
818.78392010982
31
0
0
LINE
8
layer0
10
867.184833804684
20
818.78392010982
30
0
11
867.720865598093
21
814.721808987603
31
0
0
LINE
8
layer0
10
867.720865598093
20
814.721808987603
30
0
11
867.184833804684
21
812.660195752862
31
0
0
LINE
8
layer0
10
867.184833804684
20
812.660195752862
30
0
11
865.890738579171
21
813.806745478141
31
0
0
LINE
8
layer0
10
865.890738579171
20
813.806745478141
30
0
11
864.596643353658
21
817.489824884307
31
0
0
LINE
8
layer0
10
864.596643353658
20
817.489824884307
30
0
11
864.060611560249
21
821.551936006525
31
0
0
LINE
8
layer0
10
864.060611560249
20
821.551936006525
30
0
11
864.596643353658
21
823.613549241265
31
0
0
LINE
8
layer0
10
864.596643353658
20
823.613549241265
30
0
11
865.890738579171
21
822.466999515986
31
0
0
LINE
8
layer0
10
699.613861052559
20
870.466999515986
30
0
11
694.784231921113
21
868.551687062786
31
0
0
LINE
8
layer0
10
694.784231921113
20
868.551687062786
30
0
11
867.184833804684
21
818.78392010982
31
0
0
LINE
8
layer0
10
867.184833804684
20
818.78392010982
30
0
11
865.890738579171
21
822.466999515986
31
0
0
LINE
8
layer0
10
865.890738579171
20
822.466999515986
30
0
11
699.613861052559
21
870.466999515986
31
0
0
LINE
8
layer0
10
704.443490184004
20
863.722057931341
30
0
11
706.443988071481
21
867.051936006525
31
0
0
LINE
8
layer0
10
706.443988071481
20
867.051936006525
30
0
11
864.060611560249
21
821.551936006525
31
0
0
LINE
8
layer0
10
864.060611560249
20
821.551936006525
30
0
11
864.596643353658
21
817.489824884307
31
0
0
LINE
8
layer0
10
864.596643353658
20
817.489824884307
30
0
11
704.443490184004
21
863.722057931341
31
0
0
LINE
8
layer0
10
706.443988071481
20
867.051936006525
30
0
11
704.443490184004
21
869.845782288299
31
0
0
LINE
8
layer0
10
704.443490184004
20
869.845782288299
30
0
11
864.596643353658
21
823.613549241265
31
0
0
LINE
8
layer0
10
864.596643353658
20
823.613549241265
30
0
11
864.060611560249
21
821.551936006525
31
0
0
LINE
8
layer0
10
864.060611560249
20
821.551936006525
30
0
11
706.443988071481
21
867.051936006525
31
0
0
LINE
8
layer0
10
704.443490184004
20
869.845782288299
30
0
11
699.613861052559
21
870.466999515986
31
0
0
LINE
8
layer0
10
699.613861052559
20
870.466999515986
30
0
11
865.890738579171
21
822.466999515986
31
0
0
LINE
8
layer0
10
865.890738579171
20
822.466999515986
30
0
11
864.596643353658
21
823.613549241265
31
0
0
LINE
8
layer0
10
864.596643353658
20
823.613549241265
30
0
11
704.443490184004
21
869.845782288299
31
0
0
ENDBLK
0
BLOCK
8
layer0
2
PF_OBJECT51
70
0
10
0
20
0
30
0
0
LINE
8
layer0
10
917.933678519195
20
788.968288210022
30
0
11
403.514588671239
21
937.468288210021
31
0
0
LINE
8
layer0
10
403.514588671239
20
937.468288210021
30
0
11
403.514588671239
21
1549.74824868562
31
0
0
LINE
8
layer0
10
403.514588671239
20
1549.74824868562
30
0
11
917.933678519195
21
1401.24824868562
31
0
0
LINE
8
layer0
10
917.933678519195
20
1401.24824868562
30
0
11
917.933678519195
21
788.968288210022
31
0
0
LINE
8
layer0
10
393.514588671239
20
928.808034172177
30
0
11
907.933678519195
21
780.308034172177
31
0
0
LINE
8
layer0
10
907.933678519195
20
780.308034172177
30
0
11
907.933678519195
21
1392.58799464778
31
0
0
LINE
8
layer0
10
907.933678519195
20
1392.58799464778
30
0
11
393.514588671239
21
1541.08799464778
31
0
0
LINE
8
layer0
10
393.514588671239
20
1541.08799464778
30
0
11
393.514588671239
21
928.808034172177
31
0
0
LINE
8
layer0
10
403.514588671239
20
937.468288210021
30
0
11
393.514588671239
21
928.808034172177
31
0
0
LINE
8
layer0
10
393.514588671239
20
928.808034172177
30
0
11
393.514588671239
21
1541.08799464778
31
0
0
LINE
8
layer0
10
393.514588671239
20
1541.08799464778
30
0
11
403.514588671239
21
1549.74824868562
31
0
0
LINE
8
layer0
10
403.514588671239
20
1549.74824868562
30
0
11
403.514588671239
21
937.468288210021
31
0
0
LINE
8
layer0
10
907.933678519195
20
780.308034172177
30
0
11
917.933678519195
21
788.968288210022
31
0
0
LINE
8
layer0
10
917.933678519195
20
788.968288210022
30
0
11
917.933678519195
21
1401.24824868562
31
0
0
LINE
8
layer0
10
917.933678519195
20
1401.24824868562
30
0
11
907.933678519195
21
1392.58799464778
31
0
0
LINE
8
layer0
10
907.933678519195
20
1392.58799464778
30
0
11
907.933678519195
21
780.308034172177
31
0
0
LINE
8
layer0
10
917.933678519195
20
1401.24824868562
30
0
11
403.514588671239
21
1549.74824868562
31
0
0
LINE
8
layer0
10
403.514588671239
20
1549.74824868562
30
0
11
393.514588671239
21
1541.08799464778
31
0
0
LINE
8
layer0
10
393.514588671239
20
1541.08799464778
30
0
11
907.933678519195
21
1392.58799464778
31
0
0
LINE
8
layer0
10
907.933678519195
20
1392.58799464778
30
0
11
917.933678519195
21
1401.24824868562
31
0
0
LINE
8
layer0
10
403.514588671239
20
937.468288210021
30
0
11
917.933678519195
21
788.968288210022
31
0
0
LINE
8
layer0
10
917.933678519195
20
788.968288210022
30
0
11
907.933678519195
21
780.308034172177
31
0
0
LINE
8
layer0
10
907.933678519195
20
780.308034172177
30
0
11
393.514588671239
21
928.808034172177
31
0
0
LINE
8
layer0
10
393.514588671239
20
928.808034172177
30
0
11
403.514588671239
21
937.468288210021
31
0
0
ENDBLK
0
BLOCK
8
layer0
70
0
10
0
20
0
30
0
2
PF_SKETCH52
0
LINE
8
layer0
10
562.916512459885
20
1693.39244031005
30
0
11
922.031754730548
21
1404.39536300265
31
0
0
ENDBLK
0
BLOCK
8
layer0
70
0
10
0
20
0
30
0
2
PF_SKETCH53
0
LINE
8
layer0
10
402.416512459885
20
1554.39536300265
30
0
11
1082.53175473055
21
1543.39244031005
31
0
0
ENDBLK
0
BLOCK
8
layer0
2
PF_OBJECT54
70
0
10
0
20
0
30
0
0
LINE
8
layer0
10
1096.3881611911
20
921.916327411747
30
0
11
1082.53175473055
21
925.916327411747
31
0
0
LINE
8
layer0
10
1082.53175473055
20
925.916327411747
30
0
11
1082.53175473055
21
1543.39244031005
31
0
0
LINE
8
layer0
10
1082.53175473055
20
1543.39244031005
30
0
11
1096.3881611911
21
1539.39244031005
31
0
0
LINE
8
layer0
10
1096.3881611911
20
1539.39244031005
30
0
11
1096.3881611911
21
921.916327411747
31
0
0
LINE
8
layer0
10
922.031754730548
20
786.919250104345
30
0
11
935.888161191099
21
782.919250104345
31
0
0
LINE
8
layer0
10
935.888161191099
20
782.919250104345
30
0
11
935.888161191099
21
1400.39536300265
31
0
0
LINE
8
layer0
10
935.888161191099
20
1400.39536300265
30
0
11
922.031754730548
21
1404.39536300265
31
0
0
LINE
8
layer0
10
922.031754730548
20
1404.39536300265
30
0
11
922.031754730548
21
786.919250104345
31
0
0
LINE
8
layer0
10
1082.53175473055
20
925.916327411747
30
0
11
922.031754730548
21
786.919250104345
31
0
0
LINE
8
layer0
10
922.031754730548
20
786.919250104345
30
0
11
922.031754730548
21
1404.39536300265
31
0
0
LINE
8
layer0
10
922.031754730548
20
1404.39536300265
30
0
11
1082.53175473055
21
1543.39244031005
31
0
0
LINE
8
layer0
10
1082.53175473055
20
1543.39244031005
30
0
11
1082.53175473055
21
925.916327411747
31
0
0
LINE
8
layer0
10
935.888161191099
20
782.919250104345
30
0
11
1096.3881611911
21
921.916327411747
31
0
0
LINE
8
layer0
10
1096.3881611911
20
921.916327411747
30
0
11
1096.3881611911
21
1539.39244031005
31
0
0
LINE
8
layer0
10
1096.3881611911
20
1539.39244031005
30
0
11
935.888161191099
21
1400.39536300265
31
0
0
LINE
8
layer0
10
935.888161191099
20
1400.39536300265
30
0
11
935.888161191099
21
782.919250104345
31
0
0
LINE
8
layer0
10
1096.3881611911
20
1539.39244031005
30
0
11
1082.53175473055
21
1543.39244031005
31
0
0
LINE
8
layer0
10
1082.53175473055
20
1543.39244031005
30
0
11
922.031754730548
21
1404.39536300265
31
0
0
LINE
8
layer0
10
922.031754730548
20
1404.39536300265
30
0
11
935.888161191099
21
1400.39536300265
31
0
0
LINE
8
layer0
10
935.888161191099
20
1400.39536300265
30
0
11
1096.3881611911
21
1539.39244031005
31
0
0
LINE
8
layer0
10
1082.53175473055
20
925.916327411747
30
0
11
1096.3881611911
21
921.916327411747
31
0
0
LINE
8
layer0
10
1096.3881611911
20
921.916327411747
30
0
11
935.888161191099
21
782.919250104345
31
0
0
LINE
8
layer0
10
935.888161191099
20
782.919250104345
30
0
11
922.031754730548
21
786.919250104345
31
0
0
LINE
8
layer0
10
922.031754730548
20
786.919250104345
30
0
11
1082.53175473055
21
925.916327411747
31
0
0
ENDBLK
0
BLOCK
8
layer0
2
PF_OBJECT55
70
0
10
0
20
0
30
0
0
LINE
8
layer0
10
2121.76223927187
20
625.916327411747
30
0
11
2107.90583281132
21
629.916327411747
31
0
0
LINE
8
layer0
10
2107.90583281132
20
629.916327411747
30
0
11
2107.90583281132
21
1247.39244031005
31
0
0
LINE
8
layer0
10
2107.90583281132
20
1247.39244031005
30
0
11
2121.76223927187
21
1243.39244031005
31
0
0
LINE
8
layer0
10
2121.76223927187
20
1243.39244031005
30
0
11
2121.76223927187
21
625.916327411747
31
0
0
LINE
8
layer0
10
1947.40583281132
20
490.919250104345
30
0
11
1961.26223927187
21
486.919250104345
31
0
0
LINE
8
layer0
10
1961.26223927187
20
486.919250104345
30
0
11
1961.26223927187
21
1104.39536300265
31
0
0
LINE
8
layer0
10
1961.26223927187
20
1104.39536300265
30
0
11
1947.40583281132
21
1108.39536300265
31
0
0
LINE
8
layer0
10
1947.40583281132
20
1108.39536300265
30
0
11
1947.40583281132
21
490.919250104345
31
0
0
LINE
8
layer0
10
2107.90583281132
20
629.916327411747
30
0
11
1947.40583281132
21
490.919250104345
31
0
0
LINE
8
layer0
10
1947.40583281132
20
490.919250104345
30
0
11
1947.40583281132
21
1108.39536300265
31
0
0
LINE
8
layer0
10
1947.40583281132
20
1108.39536300265
30
0
11
2107.90583281132
21
1247.39244031005
31
0
0
LINE
8
layer0
10
2107.90583281132
20
1247.39244031005
30
0
11
2107.90583281132
21
629.916327411747
31
0
0
LINE
8
layer0
10
1961.26223927187
20
486.919250104345
30
0
11
2121.76223927187
21
625.916327411747
31
0
0
LINE
8
layer0
10
2121.76223927187
20
625.916327411747
30
0
11
2121.76223927187
21
1243.39244031005
31
0
0
LINE
8
layer0
10
2121.76223927187
20
1243.39244031005
30
0
11
1961.26223927187
21
1104.39536300265
31
0
0
LINE
8
layer0
10
1961.26223927187
20
1104.39536300265
30
0
11
1961.26223927187
21
486.919250104345
31
0
0
LINE
8
layer0
10
2121.76223927187
20
1243.39244031005
30
0
11
2107.90583281132
21
1247.39244031005
31
0
0
LINE
8
layer0
10
2107.90583281132
20
1247.39244031005
30
0
11
1947.40583281132
21
1108.39536300265
31
0
0
LINE
8
layer0
10
1947.40583281132
20
1108.39536300265
30
0
11
1961.26223927187
21
1104.39536300265
31
0
0
LINE
8
layer0
10
1961.26223927187
20
1104.39536300265
30
0
11
2121.76223927187
21
1243.39244031005
31
0
0
LINE
8
layer0
10
2107.90583281132
20
629.916327411747
30
0
11
2121.76223927187
21
625.916327411747
31
0
0
LINE
8
layer0
10
2121.76223927187
20
625.916327411747
30
0
11
1961.26223927187
21
486.919250104345
31
0
0
LINE
8
layer0
10
1961.26223927187
20
486.919250104345
30
0
11
1947.40583281132
21
490.919250104345
31
0
0
LINE
8
layer0
10
1947.40583281132
20
490.919250104345
30
0
11
2107.90583281132
21
629.916327411747
31
0
0
ENDBLK
0
BLOCK
8
layer0
2
PF_OBJECT56
70
0
10
0
20
0
30
0
0
LINE
8
layer0
10
2095.90583281132
20
619.524022566334
30
0
11
1084.3881611911
21
911.524022566334
31
0
0
LINE
8
layer0
10
1084.3881611911
20
911.524022566334
30
0
11
1084.3881611911
21
925.380429026885
31
0
0
LINE
8
layer0
10
1084.3881611911
20
925.380429026885
30
0
11
2095.90583281132
21
633.380429026885
31
0
0
LINE
8
layer0
10
2095.90583281132
20
633.380429026885
30
0
11
2095.90583281132
21
619.524022566334
31
0
0
LINE
8
layer0
10
936.388161191099
20
783.352262806237
30
0
11
1947.90583281132
21
491.352262806237
31
0
0
LINE
8
layer0
10
1947.90583281132
20
491.352262806237
30
0
11
1947.90583281132
21
505.208669266788
31
0
0
LINE
8
layer0
10
1947.90583281132
20
505.208669266788
30
0
11
936.388161191099
21
797.208669266788
31
0
0
LINE
8
layer0
10
936.388161191099
20
797.208669266788
30
0
11
936.388161191099
21
783.352262806237
31
0
0
LINE
8
layer0
10
1084.3881611911
20
911.524022566334
30
0
11
936.388161191099
21
783.352262806237
31
0
0
LINE
8
layer0
10
936.388161191099
20
783.352262806237
30
0
11
936.388161191099
21
797.208669266788
31
0
0
LINE
8
layer0
10
936.388161191099
20
797.208669266788
30
0
11
1084.3881611911
21
925.380429026885
31
0
0
LINE
8
layer0
10
1084.3881611911
20
925.380429026885
30
0
11
1084.3881611911
21
911.524022566334
31
0
0
LINE
8
layer0
10
1947.90583281132
20
491.352262806237
30
0
11
2095.90583281132
21
619.524022566334
31
0
0
LINE
8
layer0
10
2095.90583281132
20
619.524022566334
30
0
11
2095.90583281132
21
633.380429026885
31
0
0
LINE
8
layer0
10
2095.90583281132
20
633.380429026885
30
0
11
1947.90583281132
21
505.208669266788
31
0
0
LINE
8
layer0
10
1947.90583281132
20
505.208669266788
30
0
11
1947.90583281132
21
491.352262806237
31
0
0
LINE
8
layer0
10
2095.90583281132
20
633.380429026885
30
0
11
1084.3881611911
21
925.380429026885
31
0
0
LINE
8
layer0
10
1084.3881611911
20
925.380429026885
30
0
11
936.388161191099
21
797.208669266788
31
0
0
LINE
8
layer0
10
936.388161191099
20
797.208669266788
30
0
11
1947.90583281132
21
505.208669266788
31
0
0
LINE
8
layer0
10
1947.90583281132
20
505.208669266788
30
0
11
2095.90583281132
21
633.380429026885
31
0
0
LINE
8
layer0
10
1084.3881611911
20
911.524022566334
30
0
11
2095.90583281132
21
619.524022566334
31
0
0
LINE
8
layer0
10
2095.90583281132
20
619.524022566334
30
0
11
1947.90583281132
21
491.352262806237
31
0
0
LINE
8
layer0
10
1947.90583281132
20
491.352262806237
30
0
11
936.388161191099
21
783.352262806237
31
0
0
LINE
8
layer0
10
936.388161191099
20
783.352262806237
30
0
11
1084.3881611911
21
911.524022566334
31
0
0
ENDBLK
0
BLOCK
8
layer0
2
PF_OBJECT57
70
0
10
0
20
0
30
0
0
LINE
8
layer0
10
2097.90583281132
20
621.256073373903
30
0
11
1086.3881611911
21
913.256073373903
31
0
0
LINE
8
layer0
10
1086.3881611911
20
913.256073373903
30
0
11
1086.3881611911
21
1530.73218627221
31
0
0
LINE
8
layer0
10
1086.3881611911
20
1530.73218627221
30
0
11
2097.90583281132
21
1238.73218627221
31
0
0
LINE
8
layer0
10
2097.90583281132
20
1238.73218627221
30
0
11
2097.90583281132
21
621.256073373903
31
0
0
LINE
8
layer0
10
1084.3881611911
20
911.524022566334
30
0
11
2095.90583281132
21
619.524022566334
31
0
0
LINE
8
layer0
10
2095.90583281132
20
619.524022566334
30
0
11
2095.90583281132
21
1237.00013546464
31
0
0
LINE
8
layer0
10
2095.90583281132
20
1237.00013546464
30
0
11
1084.3881611911
21
1529.00013546464
31
0
0
LINE
8
layer0
10
1084.3881611911
20
1529.00013546464
30
0
11
1084.3881611911
21
911.524022566334
31
0
0
LINE
8
layer0
10
1086.3881611911
20
913.256073373903
30
0
11
1084.3881611911
21
911.524022566334
31
0
0
LINE
8
layer0
10
1084.3881611911
20
911.524022566334
30
0
11
1084.3881611911
21
1529.00013546464
31
0
0
LINE
8
layer0
10
1084.3881611911
20
1529.00013546464
30
0
11
1086.3881611911
21
1530.73218627221
31
0
0
LINE
8
layer0
10
1086.3881611911
20
1530.73218627221
30
0
11
1086.3881611911
21
913.256073373903
31
0
0
LINE
8
layer0
10
2095.90583281132
20
619.524022566334
30
0
11
2097.90583281132
21
621.256073373903
31
0
0
LINE
8
layer0
10
2097.90583281132
20
621.256073373903
30
0
11
2097.90583281132
21
1238.73218627221
31
0
0
LINE
8
layer0
10
2097.90583281132
20
1238.73218627221
30
0
11
2095.90583281132
21
1237.00013546464
31
0
0
LINE
8
layer0
10
2095.90583281132
20
1237.00013546464
30
0
11
2095.90583281132
21
619.524022566334
31
0
0
LINE
8
layer0
10
2097.90583281132
20
1238.73218627221
30
0
11
1086.3881611911
21
1530.73218627221
31
0
0
LINE
8
layer0
10
1086.3881611911
20
1530.73218627221
30
0
11
1084.3881611911
21
1529.00013546464
31
0
0
LINE
8
layer0
10
1084.3881611911
20
1529.00013546464
30
0
11
2095.90583281132
21
1237.00013546464
31
0
0
LINE
8
layer0
10
2095.90583281132
20
1237.00013546464
30
0
11
2097.90583281132
21
1238.73218627221
31
0
0
LINE
8
layer0
10
1086.3881611911
20
913.256073373903
30
0
11
2097.90583281132
21
621.256073373903
31
0
0
LINE
8
layer0
10
2097.90583281132
20
621.256073373903
30
0
11
2095.90583281132
21
619.524022566334
31
0
0
LINE
8
layer0
10
2095.90583281132
20
619.524022566334
30
0
11
1084.3881611911
21
911.524022566334
31
0
0
LINE
8
layer0
10
1084.3881611911
20
911.524022566334
30
0
11
1086.3881611911
21
913.256073373903
31
0
0
ENDBLK
0
BLOCK
8
layer0
2
PF_OBJECT58
70
0
10
0
20
0
30
0
0
LINE
8
layer0
10
2095.90583281132
20
1223.14372900409
30
0
11
1084.3881611911
21
1515.14372900409
31
0
0
LINE
8
layer0
10
1084.3881611911
20
1515.14372900409
30
0
11
1084.3881611911
21
1529.00013546464
31
0
0
LINE
8
layer0
10
1084.3881611911
20
1529.00013546464
30
0
11
2095.90583281132
21
1237.00013546464
31
0
0
LINE
8
layer0
10
2095.90583281132
20
1237.00013546464
30
0
11
2095.90583281132
21
1223.14372900409
31
0
0
LINE
8
layer0
10
936.388161191099
20
1386.97196924399
30
0
11
1947.90583281132
21
1094.97196924399
31
0
0
LINE
8
layer0
10
1947.90583281132
20
1094.97196924399
30
0
11
1947.90583281132
21
1108.82837570454
31
0
0
LINE
8
layer0
10
1947.90583281132
20
1108.82837570454
30
0
11
936.388161191099
21
1400.82837570454
31
0
0
LINE
8
layer0
10
936.388161191099
20
1400.82837570454
30
0
11
936.388161191099
21
1386.97196924399
31
0
0
LINE
8
layer0
10
1084.3881611911
20
1515.14372900409
30
0
11
936.388161191099
21
1386.97196924399
31
0
0
LINE
8
layer0
10
936.388161191099
20
1386.97196924399
30
0
11
936.388161191099
21
1400.82837570454
31
0
0
LINE
8
layer0
10
936.388161191099
20
1400.82837570454
30
0
11
1084.3881611911
21
1529.00013546464
31
0
0
LINE
8
layer0
10
1084.3881611911
20
1529.00013546464
30
0
11
1084.3881611911
21
1515.14372900409
31
0
0
LINE
8
layer0
10
1947.90583281132
20
1094.97196924399
30
0
11
2095.90583281132
21
1223.14372900409
31
0
0
LINE
8
layer0
10
2095.90583281132
20
1223.14372900409
30
0
11
2095.90583281132
21
1237.00013546464
31
0
0
LINE
8
layer0
10
2095.90583281132
20
1237.00013546464
30
0
11
1947.90583281132
21
1108.82837570454
31
0
0
LINE
8
layer0
10
1947.90583281132
20
1108.82837570454
30
0
11
1947.90583281132
21
1094.97196924399
31
0
0
LINE
8
layer0
10
2095.90583281132
20
1237.00013546464
30
0
11
1084.3881611911
21
1529.00013546464
31
0
0
LINE
8
layer0
10
1084.3881611911
20
1529.00013546464
30
0
11
936.388161191099
21
1400.82837570454
31
0
0
LINE
8
layer0
10
936.388161191099
20
1400.82837570454
30
0
11
1947.90583281132
21
1108.82837570454
31
0
0
LINE
8
layer0
10
1947.90583281132
20
1108.82837570454
30
0
11
2095.90583281132
21
1237.00013546464
31
0
0
LINE
8
layer0
10
1084.3881611911
20
1515.14372900409
30
0
11
2095.90583281132
21
1223.14372900409
31
0
0
LINE
8
layer0
10
2095.90583281132
20
1223.14372900409
30
0
11
1947.90583281132
21
1094.97196924399
31
0
0
LINE
8
layer0
10
1947.90583281132
20
1094.97196924399
30
0
11
936.388161191099
21
1386.97196924399
31
0
0
LINE
8
layer0
10
936.388161191099
20
1386.97196924399
30
0
11
1084.3881611911
21
1515.14372900409
31
0
0
ENDBLK
0
BLOCK
8
layer0
2
PF_OBJECT59
70
0
10
0
20
0
30
0
0
LINE
8
layer0
10
1229.22910332322
20
720.466999515986
30
0
11
1232.2909655017
21
720.851380879946
31
0
0
LINE
8
layer0
10
1232.2909655017
20
720.851380879946
30
0
11
1224.05873245467
21
713.722057931341
31
0
0
LINE
8
layer0
10
1224.05873245467
20
713.722057931341
30
0
11
1219.22910332322
21
711.806745478141
31
0
0
LINE
8
layer0
10
1219.22910332322
20
711.806745478141
30
0
11
1229.22910332322
21
720.466999515986
31
0
0
LINE
8
layer0
10
1226.16724114474
20
722.619147832912
30
0
11
1229.22910332322
21
720.466999515986
31
0
0
LINE
8
layer0
10
1229.22910332322
20
720.466999515986
30
0
11
1219.22910332322
21
711.806745478141
31
0
0
LINE
8
layer0
10
1219.22910332322
20
711.806745478141
30
0
11
1214.39947419178
21
712.427962705828
31
0
0
LINE
8
layer0
10
1214.39947419178
20
712.427962705828
30
0
11
1226.16724114474
21
722.619147832912
31
0
0
LINE
8
layer0
10
1224.8989763043
20
726.047126534908
30
0
11
1226.16724114474
21
722.619147832912
31
0
0
LINE
8
layer0
10
1226.16724114474
20
722.619147832912
30
0
11
1214.39947419178
21
712.427962705828
31
0
0
LINE
8
layer0
10
1214.39947419178
20
712.427962705828
30
0
11
1212.3989763043
21
715.221808987603
31
0
0
LINE
8
layer0
10
1212.3989763043
20
715.221808987603
30
0
11
1224.8989763043
21
726.047126534908
31
0
0
LINE
8
layer0
10
1226.16724114474
20
728.74287218987
30
0
11
1224.8989763043
21
726.047126534908
31
0
0
LINE
8
layer0
10
1224.8989763043
20
726.047126534908
30
0
11
1212.3989763043
21
715.221808987603
31
0
0
LINE
8
layer0
10
1212.3989763043
20
715.221808987603
30
0
11
1212.3989763043
21
715.221808987603
31
0
0
LINE
8
layer0
10
1212.3989763043
20
715.221808987603
30
0
11
1214.39947419178
21
718.551687062786
31
0
0
LINE
8
layer0
10
1214.39947419178
20
718.551687062786
30
0
11
1226.16724114474
21
728.74287218987
31
0
0
LINE
8
layer0
10
1226.16724114474
20
728.74287218987
30
0
11
1229.22910332322
21
729.12725355383
31
0
0
LINE
8
layer0
10
1229.22910332322
20
729.12725355383
30
0
11
1232.2909655017
21
726.975105236904
31
0
0
LINE
8
layer0
10
1232.2909655017
20
726.975105236904
30
0
11
1233.55923034214
21
723.547126534908
31
0
0
LINE
8
layer0
10
1233.55923034214
20
723.547126534908
30
0
11
1232.2909655017
21
720.851380879946
31
0
0
LINE
8
layer0
10
1232.2909655017
20
720.851380879946
30
0
11
1229.22910332322
21
720.466999515986
31
0
0
LINE
8
layer0
10
1229.22910332322
20
720.466999515986
30
0
11
1226.16724114474
21
722.619147832912
31
0
0
LINE
8
layer0
10
1226.16724114474
20
722.619147832912
30
0
11
1224.8989763043
21
726.047126534908
31
0
0
LINE
8
layer0
10
1224.8989763043
20
726.047126534908
30
0
11
1226.16724114474
21
728.74287218987
31
0
0
LINE
8
layer0
10
1219.22910332322
20
720.466999515986
30
0
11
1214.39947419178
21
718.551687062786
31
0
0
LINE
8
layer0
10
1214.39947419178
20
718.551687062786
30
0
11
1212.3989763043
21
715.221808987603
31
0
0
LINE
8
layer0
10
1212.3989763043
20
715.221808987603
30
0
11
1214.39947419178
21
712.427962705828
31
0
0
LINE
8
layer0
10
1214.39947419178
20
712.427962705828
30
0
11
1219.22910332322
21
711.806745478141
31
0
0
LINE
8
layer0
10
1219.22910332322
20
711.806745478141
30
0
11
1224.05873245467
21
713.722057931341
31
0
0
LINE
8
layer0
10
1224.05873245467
20
713.722057931341
30
0
11
1226.05923034214
21
717.051936006525
31
0
0
LINE
8
layer0
10
1226.05923034214
20
717.051936006525
30
0
11
1224.05873245467
21
719.845782288299
31
0
0
LINE
8
layer0
10
1224.05873245467
20
719.845782288299
30
0
11
1219.22910332322
21
720.466999515986
31
0
0
LINE
8
layer0
10
1229.22910332322
20
729.12725355383
30
0
11
1226.16724114474
21
728.74287218987
31
0
0
LINE
8
layer0
10
1226.16724114474
20
728.74287218987
30
0
11
1214.39947419178
21
718.551687062786
31
0
0
LINE
8
layer0
10
1214.39947419178
20
718.551687062786
30
0
11
1219.22910332322
21
720.466999515986
31
0
0
LINE
8
layer0
10
1219.22910332322
20
720.466999515986
30
0
11
1229.22910332322
21
729.12725355383
31
0
0
LINE
8
layer0
10
1232.2909655017
20
720.851380879946
30
0
11
1233.55923034214
21
723.547126534908
31
0
0
LINE
8
layer0
10
1233.55923034214
20
723.547126534908
30
0
11
1226.05923034214
21
717.051936006525
31
0
0
LINE
8
layer0
10
1226.05923034214
20
717.051936006525
30
0
11
1224.05873245467
21
713.722057931341
31
0
0
LINE
8
layer0
10
1224.05873245467
20
713.722057931341
30
0
11
1232.2909655017
21
720.851380879946
31
0
0
LINE
8
layer0
10
1233.55923034214
20
723.547126534908
30
0
11
1232.2909655017
21
726.975105236904
31
0
0
LINE
8
layer0
10
1232.2909655017
20
726.975105236904
30
0
11
1224.05873245467
21
719.845782288299
31
0
0
LINE
8
layer0
10
1224.05873245467
20
719.845782288299
30
0
11
1226.05923034214
21
717.051936006525
31
0
0
LINE
8
layer0
10
1226.05923034214
20
717.051936006525
30
0
11
1233.55923034214
21
723.547126534908
31
0
0
LINE
8
layer0
10
1232.2909655017
20
726.975105236904
30
0
11
1229.22910332322
21
729.12725355383
31
0
0
LINE
8
layer0
10
1229.22910332322
20
729.12725355383
30
0
11
1219.22910332322
21
720.466999515986
31
0
0
LINE
8
layer0
10
1219.22910332322
20
720.466999515986
30
0
11
1224.05873245467
21
719.845782288299
31
0
0
LINE
8
layer0
10
1224.05873245467
20
719.845782288299
30
0
11
1232.2909655017
21
726.975105236904
31
0
0
ENDBLK
0
BLOCK
8
layer0
2
PF_OBJECT60
70
0
10
0
20
0
30
0
0
LINE
8
layer0
10
1395.50598084983
20
672.466999515986
30
0
11
1398.56784302831
21
672.851380879946
31
0
0
LINE
8
layer0
10
1398.56784302831
20
672.851380879946
30
0
11
1386.80007607535
21
662.660195752862
31
0
0
LINE
8
layer0
10
1386.80007607535
20
662.660195752862
30
0
11
1385.50598084983
21
663.806745478141
31
0
0
LINE
8
layer0
10
1385.50598084983
20
663.806745478141
30
0
11
1395.50598084983
21
672.466999515986
31
0
0
LINE
8
layer0
10
1392.44411867136
20
674.619147832912
30
0
11
1395.50598084983
21
672.466999515986
31
0
0
LINE
8
layer0
10
1395.50598084983
20
672.466999515986
30
0
11
1385.50598084983
21
663.806745478141
31
0
0
LINE
8
layer0
10
1385.50598084983
20
663.806745478141
30
0
11
1384.21188562432
21
667.489824884307
31
0
0
LINE
8
layer0
10
1384.21188562432
20
667.489824884307
30
0
11
1392.44411867136
21
674.619147832912
31
0
0
LINE
8
layer0
10
1391.17585383091
20
678.047126534908
30
0
11
1392.44411867136
21
674.619147832912
31
0
0
LINE
8
layer0
10
1392.44411867136
20
674.619147832912
30
0
11
1384.21188562432
21
667.489824884307
31
0
0
LINE
8
layer0
10
1384.21188562432
20
667.489824884307
30
0
11
1383.67585383091
21
671.551936006525
31
0
0
LINE
8
layer0
10
1383.67585383091
20
671.551936006525
30
0
11
1391.17585383091
21
678.047126534908
31
0
0
LINE
8
layer0
10
1392.44411867136
20
680.74287218987
30
0
11
1391.17585383091
21
678.047126534908
31
0
0
LINE
8
layer0
10
1391.17585383091
20
678.047126534908
30
0
11
1383.67585383091
21
671.551936006525
31
0
0
LINE
8
layer0
10
1383.67585383091
20
671.551936006525
30
0
11
1384.21188562432
21
673.613549241265
31
0
0
LINE
8
layer0
10
1384.21188562432
20
673.613549241265
30
0
11
1392.44411867136
21
680.74287218987
31
0
0
LINE
8
layer0
10
1392.44411867136
20
680.74287218987
30
0
11
1395.50598084983
21
681.12725355383
31
0
0
LINE
8
layer0
10
1395.50598084983
20
681.12725355383
30
0
11
1398.56784302831
21
678.975105236904
31
0
0
LINE
8
layer0
10
1398.56784302831
20
678.975105236904
30
0
11
1399.83610786876
21
675.547126534908
31
0
0
LINE
8
layer0
10
1399.83610786876
20
675.547126534908
30
0
11
1398.56784302831
21
672.851380879946
31
0
0
LINE
8
layer0
10
1398.56784302831
20
672.851380879946
30
0
11
1395.50598084983
21
672.466999515986
31
0
0
LINE
8
layer0
10
1395.50598084983
20
672.466999515986
30
0
11
1392.44411867136
21
674.619147832912
31
0
0
LINE
8
layer0
10
1392.44411867136
20
674.619147832912
30
0
11
1391.17585383091
21
678.047126534908
31
0
0
LINE
8
layer0
10
1391.17585383091
20
678.047126534908
30
0
11
1392.44411867136
21
680.74287218987
31
0
0
LINE
8
layer0
10
1385.50598084983
20
672.466999515986
30
0
11
1384.21188562432
21
673.613549241265
31
0
0
LINE
8
layer0
10
1384.21188562432
20
673.613549241265
30
0
11
1383.67585383091
21
671.551936006525
31
0
0
LINE
8
layer0
10
1383.67585383091
20
671.551936006525
30
0
11
1384.21188562432
21
667.489824884307
31
0
0
LINE
8
layer0
10
1384.21188562432
20
667.489824884307
30
0
11
1385.50598084983
21
663.806745478141
31
0
0
LINE
8
layer0
10
1385.50598084983
20
663.806745478141
30
0
11
1386.80007607535
21
662.660195752862
31
0
0
LINE
8
layer0
10
1386.80007607535
20
662.660195752862
30
0
11
1387.33610786876
21
664.721808987603
31
0
0
LINE
8
layer0
10
1387.33610786876
20
664.721808987603
30
0
11
1386.80007607535
21
668.78392010982
31
0
0
LINE
8
layer0
10
1386.80007607535
20
668.78392010982
30
0
11
1385.50598084983
21
672.466999515986
31
0
0
LINE
8
layer0
10
1395.50598084983
20
681.12725355383
30
0
11
1392.44411867136
21
680.74287218987
31
0
0
LINE
8
layer0
10
1392.44411867136
20
680.74287218987
30
0
11
1384.21188562432
21
673.613549241265
31
0
0
LINE
8
layer0
10
1384.21188562432
20
673.613549241265
30
0
11
1385.50598084983
21
672.466999515986
31
0
0
LINE
8
layer0
10
1385.50598084983
20
672.466999515986
30
0
11
1395.50598084983
21
681.12725355383
31
0
0
LINE
8
layer0
10
1398.56784302831
20
672.851380879946
30
0
11
1399.83610786876
21
675.547126534908
31
0
0
LINE
8
layer0
10
1399.83610786876
20
675.547126534908
30
0
11
1387.33610786876
21
664.721808987603
31
0
0
LINE
8
layer0
10
1387.33610786876
20
664.721808987603
30
0
11
1387.33610786876
21
664.721808987603
31
0
0
LINE
8
layer0
10
1387.33610786876
20
664.721808987603
30
0
11
1386.80007607535
21
662.660195752862
31
0
0
LINE
8
layer0
10
1386.80007607535
20
662.660195752862
30
0
11
1398.56784302831
21
672.851380879946
31
0
0
LINE
8
layer0
10
1399.83610786876
20
675.547126534908
30
0
11
1398.56784302831
21
678.975105236904
31
0
0
LINE
8
layer0
10
1398.56784302831
20
678.975105236904
30
0
11
1386.80007607535
21
668.78392010982
31
0
0
LINE
8
layer0
10
1386.80007607535
20
668.78392010982
30
0
11
1387.33610786876
21
664.721808987603
31
0
0
LINE
8
layer0
10
1387.33610786876
20
664.721808987603
30
0
11
1399.83610786876
21
675.547126534908
31
0
0
LINE
8
layer0
10
1398.56784302831
20
678.975105236904
30
0
11
1395.50598084983
21
681.12725355383
31
0
0
LINE
8
layer0
10
1395.50598084983
20
681.12725355383
30
0
11
1385.50598084983
21
672.466999515986
31
0
0
LINE
8
layer0
10
1385.50598084983
20
672.466999515986
30
0
11
1386.80007607535
21
668.78392010982
31
0
0
LINE
8
layer0
10
1386.80007607535
20
668.78392010982
30
0
11
1398.56784302831
21
678.975105236904
31
0
0
ENDBLK
0
BLOCK
8
layer0
2
PF_OBJECT61
70
0
10
0
20
0
30
0
0
LINE
8
layer0
10
1219.22910332322
20
711.806745478141
30
0
11
1224.05873245467
21
713.722057931341
31
0
0
LINE
8
layer0
10
1224.05873245467
20
713.722057931341
30
0
11
1384.21188562432
21
667.489824884307
31
0
0
LINE
8
layer0
10
1384.21188562432
20
667.489824884307
30
0
11
1385.50598084983
21
663.806745478141
31
0
0
LINE
8
layer0
10
1385.50598084983
20
663.806745478141
30
0
11
1219.22910332322
21
711.806745478141
31
0
0
LINE
8
layer0
10
1214.39947419178
20
712.427962705828
30
0
11
1219.22910332322
21
711.806745478141
31
0
0
LINE
8
layer0
10
1219.22910332322
20
711.806745478141
30
0
11
1385.50598084983
21
663.806745478141
31
0
0
LINE
8
layer0
10
1385.50598084983
20
663.806745478141
30
0
11
1386.80007607535
21
662.660195752862
31
0
0
LINE
8
layer0
10
1386.80007607535
20
662.660195752862
30
0
11
1214.39947419178
21
712.427962705828
31
0
0
LINE
8
layer0
10
1212.3989763043
20
715.221808987603
30
0
11
1212.3989763043
21
715.221808987603
31
0
0
LINE
8
layer0
10
1212.3989763043
20
715.221808987603
30
0
11
1214.39947419178
21
712.427962705828
31
0
0
LINE
8
layer0
10
1214.39947419178
20
712.427962705828
30
0
11
1386.80007607535
21
662.660195752862
31
0
0
LINE
8
layer0
10
1386.80007607535
20
662.660195752862
30
0
11
1387.33610786876
21
664.721808987603
31
0
0
LINE
8
layer0
10
1387.33610786876
20
664.721808987603
30
0
11
1212.3989763043
21
715.221808987603
31
0
0
LINE
8
layer0
10
1214.39947419178
20
718.551687062786
30
0
11
1212.3989763043
21
715.221808987603
31
0
0
LINE
8
layer0
10
1212.3989763043
20
715.221808987603
30
0
11
1212.3989763043
21
715.221808987603
31
0
0
LINE
8
layer0
10
1212.3989763043
20
715.221808987603
30
0
11
1387.33610786876
21
664.721808987603
31
0
0
LINE
8
layer0
10
1387.33610786876
20
664.721808987603
30
0
11
1387.33610786876
21
664.721808987603
31
0
0
LINE
8
layer0
10
1387.33610786876
20
664.721808987603
30
0
11
1386.80007607535
21
668.78392010982
31
0
0
LINE
8
layer0
10
1386.80007607535
20
668.78392010982
30
0
11
1214.39947419178
21
718.551687062786
31
0
0
LINE
8
layer0
10
1224.05873245467
20
719.845782288299
30
0
11
1226.05923034214
21
717.051936006525
31
0
0
LINE
8
layer0
10
1226.05923034214
20
717.051936006525
30
0
11
1224.05873245467
21
713.722057931341
31
0
0
LINE
8
layer0
10
1224.05873245467
20
713.722057931341
30
0
11
1219.22910332322
21
711.806745478141
31
0
0
LINE
8
layer0
10
1219.22910332322
20
711.806745478141
30
0
11
1214.39947419178
21
712.427962705828
31
0
0
LINE
8
layer0
10
1214.39947419178
20
712.427962705828
30
0
11
1212.3989763043
21
715.221808987603
31
0
0
LINE
8
layer0
10
1212.3989763043
20
715.221808987603
30
0
11
1212.3989763043
21
715.221808987603
31
0
0
LINE
8
layer0
10
1212.3989763043
20
715.221808987603
30
0
11
1214.39947419178
21
718.551687062786
31
0
0
LINE
8
layer0
10
1214.39947419178
20
718.551687062786
30
0
11
1219.22910332322
21
720.466999515986
31
0
0
LINE
8
layer0
10
1219.22910332322
20
720.466999515986
30
0
11
1224.05873245467
21
719.845782288299
31
0
0
LINE
8
layer0
10
1385.50598084983
20
672.466999515986
30
0
11
1386.80007607535
21
668.78392010982
31
0
0
LINE
8
layer0
10
1386.80007607535
20
668.78392010982
30
0
11
1387.33610786876
21
664.721808987603
31
0
0
LINE
8
layer0
10
1387.33610786876
20
664.721808987603
30
0
11
1386.80007607535
21
662.660195752862
31
0
0
LINE
8
layer0
10
1386.80007607535
20
662.660195752862
30
0
11
1385.50598084983
21
663.806745478141
31
0
0
LINE
8
layer0
10
1385.50598084983
20
663.806745478141
30
0
11
1384.21188562432
21
667.489824884307
31
0
0
LINE
8
layer0
10
1384.21188562432
20
667.489824884307
30
0
11
1383.67585383091
21
671.551936006525
31
0
0
LINE
8
layer0
10
1383.67585383091
20
671.551936006525
30
0
11
1384.21188562432
21
673.613549241265
31
0
0
LINE
8
layer0
10
1384.21188562432
20
673.613549241265
30
0
11
1385.50598084983
21
672.466999515986
31
0
0
LINE
8
layer0
10
1219.22910332322
20
720.466999515986
30
0
11
1214.39947419178
21
718.551687062786
31
0
0
LINE
8
layer0
10
1214.39947419178
20
718.551687062786
30
0
11
1386.80007607535
21
668.78392010982
31
0
0
LINE
8
layer0
10
1386.80007607535
20
668.78392010982
30
0
11
1385.50598084983
21
672.466999515986
31
0
0
LINE
8
layer0
10
1385.50598084983
20
672.466999515986
30
0
11
1219.22910332322
21
720.466999515986
31
0
0
LINE
8
layer0
10
1224.05873245467
20
713.722057931341
30
0
11
1226.05923034214
21
717.051936006525
31
0
0
LINE
8
layer0
10
1226.05923034214
20
717.051936006525
30
0
11
1383.67585383091
21
671.551936006525
31
0
0
LINE
8
layer0
10
1383.67585383091
20
671.551936006525
30
0
11
1384.21188562432
21
667.489824884307
31
0
0
LINE
8
layer0
10
1384.21188562432
20
667.489824884307
30
0
11
1224.05873245467
21
713.722057931341
31
0
0
LINE
8
layer0
10
1226.05923034214
20
717.051936006525
30
0
11
1224.05873245467
21
719.845782288299
31
0
0
LINE
8
layer0
10
1224.05873245467
20
719.845782288299
30
0
11
1384.21188562432
21
673.613549241265
31
0
0
LINE
8
layer0
10
1384.21188562432
20
673.613549241265
30
0
11
1383.67585383091
21
671.551936006525
31
0
0
LINE
8
layer0
10
1383.67585383091
20
671.551936006525
30
0
11
1226.05923034214
21
717.051936006525
31
0
0
LINE
8
layer0
10
1224.05873245467
20
719.845782288299
30
0
11
1219.22910332322
21
720.466999515986
31
0
0
LINE
8
layer0
10
1219.22910332322
20
720.466999515986
30
0
11
1385.50598084983
21
672.466999515986
31
0
0
LINE
8
layer0
10
1385.50598084983
20
672.466999515986
30
0
11
1384.21188562432
21
673.613549241265
31
0
0
LINE
8
layer0
10
1384.21188562432
20
673.613549241265
30
0
11
1224.05873245467
21
719.845782288299
31
0
0
ENDBLK
0
BLOCK
8
layer0
2
PF_OBJECT62
70
0
10
0
20
0
30
0
0
LINE
8
layer0
10
1437.54892078986
20
638.968288210022
30
0
11
923.129830941902
21
787.468288210021
31
0
0
LINE
8
layer0
10
923.129830941902
20
787.468288210021
30
0
11
923.129830941902
21
1399.74824868562
31
0
0
LINE
8
layer0
10
923.129830941902
20
1399.74824868562
30
0
11
1437.54892078986
21
1251.24824868562
31
0
0
LINE
8
layer0
10
1437.54892078986
20
1251.24824868562
30
0
11
1437.54892078986
21
638.968288210022
31
0
0
LINE
8
layer0
10
913.129830941902
20
778.808034172177
30
0
11
1427.54892078986
21
630.308034172177
31
0
0
LINE
8
layer0
10
1427.54892078986
20
630.308034172177
30
0
11
1427.54892078986
21
1242.58799464778
31
0
0
LINE
8
layer0
10
1427.54892078986
20
1242.58799464778
30
0
11
913.129830941902
21
1391.08799464778
31
0
0
LINE
8
layer0
10
913.129830941902
20
1391.08799464778
30
0
11
913.129830941902
21
778.808034172177
31
0
0
LINE
8
layer0
10
923.129830941902
20
787.468288210021
30
0
11
913.129830941902
21
778.808034172177
31
0
0
LINE
8
layer0
10
913.129830941902
20
778.808034172177
30
0
11
913.129830941902
21
1391.08799464778
31
0
0
LINE
8
layer0
10
913.129830941902
20
1391.08799464778
30
0
11
923.129830941902
21
1399.74824868562
31
0
0
LINE
8
layer0
10
923.129830941902
20
1399.74824868562
30
0
11
923.129830941902
21
787.468288210021
31
0
0
LINE
8
layer0
10
1427.54892078986
20
630.308034172177
30
0
11
1437.54892078986
21
638.968288210022
31
0
0
LINE
8
layer0
10
1437.54892078986
20
638.968288210022
30
0
11
1437.54892078986
21
1251.24824868562
31
0
0
LINE
8
layer0
10
1437.54892078986
20
1251.24824868562
30
0
11
1427.54892078986
21
1242.58799464778
31
0
0
LINE
8
layer0
10
1427.54892078986
20
1242.58799464778
30
0
11
1427.54892078986
21
630.308034172177
31
0
0
LINE
8
layer0
10
1437.54892078986
20
1251.24824868562
30
0
11
923.129830941902
21
1399.74824868562
31
0
0
LINE
8
layer0
10
923.129830941902
20
1399.74824868562
30
0
11
913.129830941902
21
1391.08799464778
31
0
0
LINE
8
layer0
10
913.129830941902
20
1391.08799464778
30
0
11
1427.54892078986
21
1242.58799464778
31
0
0
LINE
8
layer0
10
1427.54892078986
20
1242.58799464778
30
0
11
1437.54892078986
21
1251.24824868562
31
0
0
LINE
8
layer0
10
923.129830941902
20
787.468288210021
30
0
11
1437.54892078986
21
638.968288210022
31
0
0
LINE
8
layer0
10
1437.54892078986
20
638.968288210022
30
0
11
1427.54892078986
21
630.308034172177
31
0
0
LINE
8
layer0
10
1427.54892078986
20
630.308034172177
30
0
11
913.129830941902
21
778.808034172177
31
0
0
LINE
8
layer0
10
913.129830941902
20
778.808034172177
30
0
11
923.129830941902
21
787.468288210021
31
0
0
ENDBLK
0
BLOCK
8
layer0
2
PF_OBJECT63
70
0
10
0
20
0
30
0
0
LINE
8
layer0
10
1464.78801315259
20
652.466999515986
30
0
11
1467.84987533107
21
652.851380879946
31
0
0
LINE
8
layer0
10
1467.84987533107
20
652.851380879946
30
0
11
1459.61764228403
21
645.722057931341
31
0
0
LINE
8
layer0
10
1459.61764228403
20
645.722057931341
30
0
11
1454.78801315259
21
643.806745478141
31
0
0
LINE
8
layer0
10
1454.78801315259
20
643.806745478141
30
0
11
1464.78801315259
21
652.466999515986
31
0
0
LINE
8
layer0
10
1461.72615097411
20
654.619147832912
30
0
11
1464.78801315259
21
652.466999515986
31
0
0
LINE
8
layer0
10
1464.78801315259
20
652.466999515986
30
0
11
1454.78801315259
21
643.806745478141
31
0
0
LINE
8
layer0
10
1454.78801315259
20
643.806745478141
30
0
11
1449.95838402114
21
644.427962705828
31
0
0
LINE
8
layer0
10
1449.95838402114
20
644.427962705828
30
0
11
1461.72615097411
21
654.619147832912
31
0
0
LINE
8
layer0
10
1460.45788613367
20
658.047126534908
30
0
11
1461.72615097411
21
654.619147832912
31
0
0
LINE
8
layer0
10
1461.72615097411
20
654.619147832912
30
0
11
1449.95838402114
21
644.427962705828
31
0
0
LINE
8
layer0
10
1449.95838402114
20
644.427962705828
30
0
11
1447.95788613367
21
647.221808987603
31
0
0
LINE
8
layer0
10
1447.95788613367
20
647.221808987603
30
0
11
1460.45788613367
21
658.047126534908
31
0
0
LINE
8
layer0
10
1461.72615097411
20
660.74287218987
30
0
11
1460.45788613367
21
658.047126534908
31
0
0
LINE
8
layer0
10
1460.45788613367
20
658.047126534908
30
0
11
1447.95788613367
21
647.221808987603
31
0
0
LINE
8
layer0
10
1447.95788613367
20
647.221808987603
30
0
11
1447.95788613367
21
647.221808987603
31
0
0
LINE
8
layer0
10
1447.95788613367
20
647.221808987603
30
0
11
1449.95838402114
21
650.551687062786
31
0
0
LINE
8
layer0
10
1449.95838402114
20
650.551687062786
30
0
11
1461.72615097411
21
660.74287218987
31
0
0
LINE
8
layer0
10
1461.72615097411
20
660.74287218987
30
0
11
1464.78801315259
21
661.12725355383
31
0
0
LINE
8
layer0
10
1464.78801315259
20
661.12725355383
30
0
11
1467.84987533107
21
658.975105236904
31
0
0
LINE
8
layer0
10
1467.84987533107
20
658.975105236904
30
0
11
1469.11814017151
21
655.547126534908
31
0
0
LINE
8
layer0
10
1469.11814017151
20
655.547126534908
30
0
11
1467.84987533107
21
652.851380879946
31
0
0
LINE
8
layer0
10
1467.84987533107
20
652.851380879946
30
0
11
1464.78801315259
21
652.466999515986
31
0
0
LINE
8
layer0
10
1464.78801315259
20
652.466999515986
30
0
11
1461.72615097411
21
654.619147832912
31
0
0
LINE
8
layer0
10
1461.72615097411
20
654.619147832912
30
0
11
1460.45788613367
21
658.047126534908
31
0
0
LINE
8
layer0
10
1460.45788613367
20
658.047126534908
30
0
11
1461.72615097411
21
660.74287218987
31
0
0
LINE
8
layer0
10
1454.78801315259
20
652.466999515986
30
0
11
1449.95838402114
21
650.551687062786
31
0
0
LINE
8
layer0
10
1449.95838402114
20
650.551687062786
30
0
11
1447.95788613367
21
647.221808987603
31
0
0
LINE
8
layer0
10
1447.95788613367
20
647.221808987603
30
0
11
1449.95838402114
21
644.427962705828
31
0
0
LINE
8
layer0
10
1449.95838402114
20
644.427962705828
30
0
11
1454.78801315259
21
643.806745478141
31
0
0
LINE
8
layer0
10
1454.78801315259
20
643.806745478141
30
0
11
1459.61764228403
21
645.722057931341
31
0
0
LINE
8
layer0
10
1459.61764228403
20
645.722057931341
30
0
11
1461.61814017151
21
649.051936006525
31
0
0
LINE
8
layer0
10
1461.61814017151
20
649.051936006525
30
0
11
1459.61764228403
21
651.845782288299
31
0
0
LINE
8
layer0
10
1459.61764228403
20
651.845782288299
30
0
11
1454.78801315259
21
652.466999515986
31
0
0
LINE
8
layer0
10
1464.78801315259
20
661.12725355383
30
0
11
1461.72615097411
21
660.74287218987
31
0
0
LINE
8
layer0
10
1461.72615097411
20
660.74287218987
30
0
11
1449.95838402114
21
650.551687062786
31
0
0
LINE
8
layer0
10
1449.95838402114
20
650.551687062786
30
0
11
1454.78801315259
21
652.466999515986
31
0
0
LINE
8
layer0
10
1454.78801315259
20
652.466999515986
30
0
11
1464.78801315259
21
661.12725355383
31
0
0
LINE
8
layer0
10
1467.84987533107
20
652.851380879946
30
0
11
1469.11814017151
21
655.547126534908
31
0
0
LINE
8
layer0
10
1469.11814017151
20
655.547126534908
30
0
11
1461.61814017151
21
649.051936006525
31
0
0
LINE
8
layer0
10
1461.61814017151
20
649.051936006525
30
0
11
1459.61764228403
21
645.722057931341
31
0
0
LINE
8
layer0
10
1459.61764228403
20
645.722057931341
30
0
11
1467.84987533107
21
652.851380879946
31
0
0
LINE
8
layer0
10
1469.11814017151
20
655.547126534908
30
0
11
1467.84987533107
21
658.975105236904
31
0
0
LINE
8
layer0
10
1467.84987533107
20
658.975105236904
30
0
11
1459.61764228403
21
651.845782288299
31
0
0
LINE
8
layer0
10
1459.61764228403
20
651.845782288299
30
0
11
1461.61814017151
21
649.051936006525
31
0
0
LINE
8
layer0
10
1461.61814017151
20
649.051936006525
30
0
11
1469.11814017151
21
655.547126534908
31
0
0
LINE
8
layer0
10
1467.84987533107
20
658.975105236904
30
0
11
1464.78801315259
21
661.12725355383
31
0
0
LINE
8
layer0
10
1464.78801315259
20
661.12725355383
30
0
11
1454.78801315259
21
652.466999515986
31
0
0
LINE
8
layer0
10
1454.78801315259
20
652.466999515986
30
0
11
1459.61764228403
21
651.845782288299
31
0
0
LINE
8
layer0
10
1459.61764228403
20
651.845782288299
30
0
11
1467.84987533107
21
658.975105236904
31
0
0
ENDBLK
0
BLOCK
8
layer0
2
PF_OBJECT64
70
0
10
0
20
0
30
0
0
LINE
8
layer0
10
1631.0648906792
20
604.466999515986
30
0
11
1634.12675285768
21
604.851380879946
31
0
0
LINE
8
layer0
10
1634.12675285768
20
604.851380879946
30
0
11
1622.35898590471
21
594.660195752862
31
0
0
LINE
8
layer0
10
1622.35898590471
20
594.660195752862
30
0
11
1621.0648906792
21
595.806745478141
31
0
0
LINE
8
layer0
10
1621.0648906792
20
595.806745478141
30
0
11
1631.0648906792
21
604.466999515986
31
0
0
LINE
8
layer0
10
1628.00302850072
20
606.619147832912
30
0
11
1631.0648906792
21
604.466999515986
31
0
0
LINE
8
layer0
10
1631.0648906792
20
604.466999515986
30
0
11
1621.0648906792
21
595.806745478141
31
0
0
LINE
8
layer0
10
1621.0648906792
20
595.806745478141
30
0
11
1619.77079545369
21
599.489824884307
31
0
0
LINE
8
layer0
10
1619.77079545369
20
599.489824884307
30
0
11
1628.00302850072
21
606.619147832912
31
0
0
LINE
8
layer0
10
1626.73476366028
20
610.047126534908
30
0
11
1628.00302850072
21
606.619147832912
31
0
0
LINE
8
layer0
10
1628.00302850072
20
606.619147832912
30
0
11
1619.77079545369
21
599.489824884307
31
0
0
LINE
8
layer0
10
1619.77079545369
20
599.489824884307
30
0
11
1619.23476366028
21
603.551936006525
31
0
0
LINE
8
layer0
10
1619.23476366028
20
603.551936006525
30
0
11
1626.73476366028
21
610.047126534908
31
0
0
LINE
8
layer0
10
1628.00302850072
20
612.74287218987
30
0
11
1626.73476366028
21
610.047126534908
31
0
0
LINE
8
layer0
10
1626.73476366028
20
610.047126534908
30
0
11
1619.23476366028
21
603.551936006525
31
0
0
LINE
8
layer0
10
1619.23476366028
20
603.551936006525
30
0
11
1619.77079545369
21
605.613549241265
31
0
0
LINE
8
layer0
10
1619.77079545369
20
605.613549241265
30
0
11
1628.00302850072
21
612.74287218987
31
0
0
LINE
8
layer0
10
1628.00302850072
20
612.74287218987
30
0
11
1631.0648906792
21
613.12725355383
31
0
0
LINE
8
layer0
10
1631.0648906792
20
613.12725355383
30
0
11
1634.12675285768
21
610.975105236904
31
0
0
LINE
8
layer0
10
1634.12675285768
20
610.975105236904
30
0
11
1635.39501769812
21
607.547126534908
31
0
0
LINE
8
layer0
10
1635.39501769812
20
607.547126534908
30
0
11
1634.12675285768
21
604.851380879946
31
0
0
LINE
8
layer0
10
1634.12675285768
20
604.851380879946
30
0
11
1631.0648906792
21
604.466999515986
31
0
0
LINE
8
layer0
10
1631.0648906792
20
604.466999515986
30
0
11
1628.00302850072
21
606.619147832912
31
0
0
LINE
8
layer0
10
1628.00302850072
20
606.619147832912
30
0
11
1626.73476366028
21
610.047126534908
31
0
0
LINE
8
layer0
10
1626.73476366028
20
610.047126534908
30
0
11
1628.00302850072
21
612.74287218987
31
0
0
LINE
8
layer0
10
1621.0648906792
20
604.466999515986
30
0
11
1619.77079545369
21
605.613549241265
31
0
0
LINE
8
layer0
10
1619.77079545369
20
605.613549241265
30
0
11
1619.23476366028
21
603.551936006525
31
0
0
LINE
8
layer0
10
1619.23476366028
20
603.551936006525
30
0
11
1619.77079545369
21
599.489824884307
31
0
0
LINE
8
layer0
10
1619.77079545369
20
599.489824884307
30
0
11
1621.0648906792
21
595.806745478141
31
0
0
LINE
8
layer0
10
1621.0648906792
20
595.806745478141
30
0
11
1622.35898590471
21
594.660195752862
31
0
0
LINE
8
layer0
10
1622.35898590471
20
594.660195752862
30
0
11
1622.89501769812
21
596.721808987603
31
0
0
LINE
8
layer0
10
1622.89501769812
20
596.721808987603
30
0
11
1622.35898590471
21
600.78392010982
31
0
0
LINE
8
layer0
10
1622.35898590471
20
600.78392010982
30
0
11
1621.0648906792
21
604.466999515986
31
0
0
LINE
8
layer0
10
1631.0648906792
20
613.12725355383
30
0
11
1628.00302850072
21
612.74287218987
31
0
0
LINE
8
layer0
10
1628.00302850072
20
612.74287218987
30
0
11
1619.77079545369
21
605.613549241265
31
0
0
LINE
8
layer0
10
1619.77079545369
20
605.613549241265
30
0
11
1621.0648906792
21
604.466999515986
31
0
0
LINE
8
layer0
10
1621.0648906792
20
604.466999515986
30
0
11
1631.0648906792
21
613.12725355383
31
0
0
LINE
8
layer0
10
1634.12675285768
20
604.851380879946
30
0
11
1635.39501769812
21
607.547126534908
31
0
0
LINE
8
layer0
10
1635.39501769812
20
607.547126534908
30
0
11
1622.89501769812
21
596.721808987603
31
0
0
LINE
8
layer0
10
1622.89501769812
20
596.721808987603
30
0
11
1622.89501769812
21
596.721808987603
31
0
0
LINE
8
layer0
10
1622.89501769812
20
596.721808987603
30
0
11
1622.35898590471
21
594.660195752862
31
0
0
LINE
8
layer0
10
1622.35898590471
20
594.660195752862
30
0
11
1634.12675285768
21
604.851380879946
31
0
0
LINE
8
layer0
10
1635.39501769812
20
607.547126534908
30
0
11
1634.12675285768
21
610.975105236904
31
0
0
LINE
8
layer0
10
1634.12675285768
20
610.975105236904
30
0
11
1622.35898590471
21
600.78392010982
31
0
0
LINE
8
layer0
10
1622.35898590471
20
600.78392010982
30
0
11
1622.89501769812
21
596.721808987603
31
0
0
LINE
8
layer0
10
1622.89501769812
20
596.721808987603
30
0
11
1635.39501769812
21
607.547126534908
31
0
0
LINE
8
layer0
10
1634.12675285768
20
610.975105236904
30
0
11
1631.0648906792
21
613.12725355383
31
0
0
LINE
8
layer0
10
1631.0648906792
20
613.12725355383
30
0
11
1621.0648906792
21
604.466999515986
31
0
0
LINE
8
layer0
10
1621.0648906792
20
604.466999515986
30
0
11
1622.35898590471
21
600.78392010982
31
0
0
LINE
8
layer0
10
1622.35898590471
20
600.78392010982
30
0
11
1634.12675285768
21
610.975105236904
31
0
0
ENDBLK
0
BLOCK
8
layer0
2
PF_OBJECT65
70
0
10
0
20
0
30
0
0
LINE
8
layer0
10
1454.78801315259
20
643.806745478141
30
0
11
1459.61764228403
21
645.722057931341
31
0
0
LINE
8
layer0
10
1459.61764228403
20
645.722057931341
30
0
11
1619.77079545369
21
599.489824884307
31
0
0
LINE
8
layer0
10
1619.77079545369
20
599.489824884307
30
0
11
1621.0648906792
21
595.806745478141
31
0
0
LINE
8
layer0
10
1621.0648906792
20
595.806745478141
30
0
11
1454.78801315259
21
643.806745478141
31
0
0
LINE
8
layer0
10
1449.95838402114
20
644.427962705828
30
0
11
1454.78801315259
21
643.806745478141
31
0
0
LINE
8
layer0
10
1454.78801315259
20
643.806745478141
30
0
11
1621.0648906792
21
595.806745478141
31
0
0
LINE
8
layer0
10
1621.0648906792
20
595.806745478141
30
0
11
1622.35898590471
21
594.660195752862
31
0
0
LINE
8
layer0
10
1622.35898590471
20
594.660195752862
30
0
11
1449.95838402114
21
644.427962705828
31
0
0
LINE
8
layer0
10
1447.95788613367
20
647.221808987603
30
0
11
1447.95788613367
21
647.221808987603
31
0
0
LINE
8
layer0
10
1447.95788613367
20
647.221808987603
30
0
11
1449.95838402114
21
644.427962705828
31
0
0
LINE
8
layer0
10
1449.95838402114
20
644.427962705828
30
0
11
1622.35898590471
21
594.660195752862
31
0
0
LINE
8
layer0
10
1622.35898590471
20
594.660195752862
30
0
11
1622.89501769812
21
596.721808987603
31
0
0
LINE
8
layer0
10
1622.89501769812
20
596.721808987603
30
0
11
1447.95788613367
21
647.221808987603
31
0
0
LINE
8
layer0
10
1449.95838402114
20
650.551687062786
30
0
11
1447.95788613367
21
647.221808987603
31
0
0
LINE
8
layer0
10
1447.95788613367
20
647.221808987603
30
0
11
1447.95788613367
21
647.221808987603
31
0
0
LINE
8
layer0
10
1447.95788613367
20
647.221808987603
30
0
11
1622.89501769812
21
596.721808987603
31
0
0
LINE
8
layer0
10
1622.89501769812
20
596.721808987603
30
0
11
1622.89501769812
21
596.721808987603
31
0
0
LINE
8
layer0
10
1622.89501769812
20
596.721808987603
30
0
11
1622.35898590471
21
600.78392010982
31
0
0
LINE
8
layer0
10
1622.35898590471
20
600.78392010982
30
0
11
1449.95838402114
21
650.551687062786
31
0
0
LINE
8
layer0
10
1459.61764228403
20
651.845782288299
30
0
11
1461.61814017151
21
649.051936006525
31
0
0
LINE
8
layer0
10
1461.61814017151
20
649.051936006525
30
0
11
1459.61764228403
21
645.722057931341
31
0
0
LINE
8
layer0
10
1459.61764228403
20
645.722057931341
30
0
11
1454.78801315259
21
643.806745478141
31
0
0
LINE
8
layer0
10
1454.78801315259
20
643.806745478141
30
0
11
1449.95838402114
21
644.427962705828
31
0
0
LINE
8
layer0
10
1449.95838402114
20
644.427962705828
30
0
11
1447.95788613367
21
647.221808987603
31
0
0
LINE
8
layer0
10
1447.95788613367
20
647.221808987603
30
0
11
1447.95788613367
21
647.221808987603
31
0
0
LINE
8
layer0
10
1447.95788613367
20
647.221808987603
30
0
11
1449.95838402114
21
650.551687062786
31
0
0
LINE
8
layer0
10
1449.95838402114
20
650.551687062786
30
0
11
1454.78801315259
21
652.466999515986
31
0
0
LINE
8
layer0
10
1454.78801315259
20
652.466999515986
30
0
11
1459.61764228403
21
651.845782288299
31
0
0
LINE
8
layer0
10
1621.0648906792
20
604.466999515986
30
0
11
1622.35898590471
21
600.78392010982
31
0
0
LINE
8
layer0
10
1622.35898590471
20
600.78392010982
30
0
11
1622.89501769812
21
596.721808987603
31
0
0
LINE
8
layer0
10
1622.89501769812
20
596.721808987603
30
0
11
1622.35898590471
21
594.660195752862
31
0
0
LINE
8
layer0
10
1622.35898590471
20
594.660195752862
30
0
11
1621.0648906792
21
595.806745478141
31
0
0
LINE
8
layer0
10
1621.0648906792
20
595.806745478141
30
0
11
1619.77079545369
21
599.489824884307
31
0
0
LINE
8
layer0
10
1619.77079545369
20
599.489824884307
30
0
11
1619.23476366028
21
603.551936006525
31
0
0
LINE
8
layer0
10
1619.23476366028
20
603.551936006525
30
0
11
1619.77079545369
21
605.613549241265
31
0
0
LINE
8
layer0
10
1619.77079545369
20
605.613549241265
30
0
11
1621.0648906792
21
604.466999515986
31
0
0
LINE
8
layer0
10
1454.78801315259
20
652.466999515986
30
0
11
1449.95838402114
21
650.551687062786
31
0
0
LINE
8
layer0
10
1449.95838402114
20
650.551687062786
30
0
11
1622.35898590471
21
600.78392010982
31
0
0
LINE
8
layer0
10
1622.35898590471
20
600.78392010982
30
0
11
1621.0648906792
21
604.466999515986
31
0
0
LINE
8
layer0
10
1621.0648906792
20
604.466999515986
30
0
11
1454.78801315259
21
652.466999515986
31
0
0
LINE
8
layer0
10
1459.61764228403
20
645.722057931341
30
0
11
1461.61814017151
21
649.051936006525
31
0
0
LINE
8
layer0
10
1461.61814017151
20
649.051936006525
30
0
11
1619.23476366028
21
603.551936006525
31
0
0
LINE
8
layer0
10
1619.23476366028
20
603.551936006525
30
0
11
1619.77079545369
21
599.489824884307
31
0
0
LINE
8
layer0
10
1619.77079545369
20
599.489824884307
30
0
11
1459.61764228403
21
645.722057931341
31
0
0
LINE
8
layer0
10
1461.61814017151
20
649.051936006525
30
0
11
1459.61764228403
21
651.845782288299
31
0
0
LINE
8
layer0
10
1459.61764228403
20
651.845782288299
30
0
11
1619.77079545369
21
605.613549241265
31
0
0
LINE
8
layer0
10
1619.77079545369
20
605.613549241265
30
0
11
1619.23476366028
21
603.551936006525
31
0
0
LINE
8
layer0
10
1619.23476366028
20
603.551936006525
30
0
11
1461.61814017151
21
649.051936006525
31
0
0
LINE
8
layer0
10
1459.61764228403
20
651.845782288299
30
0
11
1454.78801315259
21
652.466999515986
31
0
0
LINE
8
layer0
10
1454.78801315259
20
652.466999515986
30
0
11
1621.0648906792
21
604.466999515986
31
0
0
LINE
8
layer0
10
1621.0648906792
20
604.466999515986
30
0
11
1619.77079545369
21
605.613549241265
31
0
0
LINE
8
layer0
10
1619.77079545369
20
605.613549241265
30
0
11
1459.61764228403
21
651.845782288299
31
0
0
ENDBLK
0
BLOCK
8
layer0
2
PF_OBJECT66
70
0
10
0
20
0
30
0
0
LINE
8
layer0
10
1957.16416306052
20
488.968288210022
30
0
11
1442.74507321256
21
637.468288210022
31
0
0
LINE
8
layer0
10
1442.74507321256
20
637.468288210022
30
0
11
1442.74507321256
21
1249.74824868562
31
0
0
LINE
8
layer0
10
1442.74507321256
20
1249.74824868562
30
0
11
1957.16416306052
21
1101.24824868562
31
0
0
LINE
8
layer0
10
1957.16416306052
20
1101.24824868562
30
0
11
1957.16416306052
21
488.968288210022
31
0
0
LINE
8
layer0
10
1432.74507321256
20
628.808034172177
30
0
11
1947.16416306052
21
480.308034172177
31
0
0
LINE
8
layer0
10
1947.16416306052
20
480.308034172177
30
0
11
1947.16416306052
21
1092.58799464778
31
0
0
LINE
8
layer0
10
1947.16416306052
20
1092.58799464778
30
0
11
1432.74507321256
21
1241.08799464778
31
0
0
LINE
8
layer0
10
1432.74507321256
20
1241.08799464778
30
0
11
1432.74507321256
21
628.808034172177
31
0
0
LINE
8
layer0
10
1442.74507321256
20
637.468288210022
30
0
11
1432.74507321256
21
628.808034172177
31
0
0
LINE
8
layer0
10
1432.74507321256
20
628.808034172177
30
0
11
1432.74507321256
21
1241.08799464778
31
0
0
LINE
8
layer0
10
1432.74507321256
20
1241.08799464778
30
0
11
1442.74507321256
21
1249.74824868562
31
0
0
LINE
8
layer0
10
1442.74507321256
20
1249.74824868562
30
0
11
1442.74507321256
21
637.468288210022
31
0
0
LINE
8
layer0
10
1947.16416306052
20
480.308034172177
30
0
11
1957.16416306052
21
488.968288210022
31
0
0
LINE
8
layer0
10
1957.16416306052
20
488.968288210022
30
0
11
1957.16416306052
21
1101.24824868562
31
0
0
LINE
8
layer0
10
1957.16416306052
20
1101.24824868562
30
0
11
1947.16416306052
21
1092.58799464778
31
0
0
LINE
8
layer0
10
1947.16416306052
20
1092.58799464778
30
0
11
1947.16416306052
21
480.308034172177
31
0
0
LINE
8
layer0
10
1957.16416306052
20
1101.24824868562
30
0
11
1442.74507321256
21
1249.74824868562
31
0
0
LINE
8
layer0
10
1442.74507321256
20
1249.74824868562
30
0
11
1432.74507321256
21
1241.08799464778
31
0
0
LINE
8
layer0
10
1432.74507321256
20
1241.08799464778
30
0
11
1947.16416306052
21
1092.58799464778
31
0
0
LINE
8
layer0
10
1947.16416306052
20
1092.58799464778
30
0
11
1957.16416306052
21
1101.24824868562
31
0
0
LINE
8
layer0
10
1442.74507321256
20
637.468288210022
30
0
11
1957.16416306052
21
488.968288210022
31
0
0
LINE
8
layer0
10
1957.16416306052
20
488.968288210022
30
0
11
1947.16416306052
21
480.308034172177
31
0
0
LINE
8
layer0
10
1947.16416306052
20
480.308034172177
30
0
11
1432.74507321256
21
628.808034172177
31
0
0
LINE
8
layer0
10
1432.74507321256
20
628.808034172177
30
0
11
1442.74507321256
21
637.468288210022
31
0
0
ENDBLK
0
BLOCK
8
layer0
70
0
10
0
20
0
30
0
2
PF_SKETCH67
0
LINE
8
layer0
10
1082.53175473055
20
1543.39244031005
30
0
11
1961.26223927187
21
1104.39536300265
31
0
0
ENDBLK
0
BLOCK
8
layer0
70
0
10
0
20
0
30
0
2
PF_SKETCH68
0
LINE
8
layer0
10
922.031754730548
20
1404.39536300265
30
0
11
2121.76223927187
21
1243.39244031005
31
0
0
ENDBLK
0
BLOCK
8
layer0
2
PF_OBJECT69
70
0
10
0
20
0
30
0
0
LINE
8
layer0
10
2158.13530623082
20
130.442101292462
30
0
11
1169.85082816386
21
415.735256016407
31
0
0
LINE
8
layer0
10
1169.85082816386
20
415.735256016407
30
0
11
1169.85082816386
21
443.448068937509
31
0
0
LINE
8
layer0
10
1169.85082816386
20
443.448068937509
30
0
11
2158.13530623082
21
158.154914213564
31
0
0
LINE
8
layer0
10
2158.13530623082
20
158.154914213564
30
0
11
2158.13530623082
21
130.442101292462
31
0
0
LINE
8
layer0
10
1096.6738685327
20
464.572437608274
30
0
11
1096.6738685327
21
436.859624687172
31
0
0
LINE
8
layer0
10
1096.6738685327
20
436.859624687172
30
0
11
554.256258422041
21
593.442101292462
31
0
0
LINE
8
layer0
10
554.256258422041
20
593.442101292462
30
0
11
554.256258422041
21
621.154914213564
31
0
0
LINE
8
layer0
10
554.256258422041
20
621.154914213564
30
0
11
1096.6738685327
21
464.572437608274
31
0
0
LINE
8
layer0
10
1169.85082816386
20
443.448068937509
30
0
11
1169.85082816386
21
415.735256016407
31
0
0
LINE
8
layer0
10
1169.85082816386
20
415.735256016407
30
0
11
1096.6738685327
21
436.859624687172
31
0
0
LINE
8
layer0
10
1096.6738685327
20
436.859624687172
30
0
11
1096.6738685327
21
464.572437608274
31
0
0
LINE
8
layer0
10
1096.6738685327
20
464.572437608274
30
0
11
1169.85082816386
21
443.448068937509
31
0
0
LINE
8
layer0
10
254.256258422041
20
333.63448015713
30
0
11
1858.13530623082
21
-129.36551984287
31
0
0
LINE
8
layer0
10
1858.13530623082
20
-129.36551984287
30
0
11
1858.13530623082
21
-101.652706921768
31
0
0
LINE
8
layer0
10
1858.13530623082
20
-101.652706921768
30
0
11
254.256258422041
21
361.347293078232
31
0
0
LINE
8
layer0
10
254.256258422041
20
361.347293078232
30
0
11
254.256258422041
21
333.63448015713
31
0
0
LINE
8
layer0
10
554.256258422041
20
593.442101292462
30
0
11
480.756258422041
21
529.789234114305
31
0
0
LINE
8
layer0
10
480.756258422041
20
529.789234114305
30
0
11
480.756258422041
21
557.502047035407
31
0
0
LINE
8
layer0
10
480.756258422041
20
557.502047035407
30
0
11
554.256258422041
21
621.154914213564
31
0
0
LINE
8
layer0
10
554.256258422041
20
621.154914213564
30
0
11
554.256258422041
21
593.442101292462
31
0
0
LINE
8
layer0
10
304.256258422041
20
404.648563267454
30
0
11
304.256258422041
21
376.935750346352
31
0
0
LINE
8
layer0
10
304.256258422041
20
376.935750346352
30
0
11
254.256258422041
21
333.63448015713
31
0
0
LINE
8
layer0
10
254.256258422041
20
333.63448015713
30
0
11
254.256258422041
21
361.347293078232
31
0
0
LINE
8
layer0
10
254.256258422041
20
361.347293078232
30
0
11
304.256258422041
21
404.648563267454
31
0
0
LINE
8
layer0
10
480.756258422041
20
557.502047035407
30
0
11
480.756258422041
21
529.789234114305
31
0
0
LINE
8
layer0
10
480.756258422041
20
529.789234114305
30
0
11
304.256258422041
21
376.935750346352
31
0
0
LINE
8
layer0
10
304.256258422041
20
376.935750346352
30
0
11
304.256258422041
21
404.648563267454
31
0
0
LINE
8
layer0
10
304.256258422041
20
404.648563267454
30
0
11
480.756258422041
21
557.502047035407
31
0
0
LINE
8
layer0
10
2084.63530623082
20
94.5020470354075
30
0
11
2084.63530623082
21
66.7892341143055
31
0
0
LINE
8
layer0
10
2084.63530623082
20
66.7892341143055
30
0
11
2158.13530623082
21
130.442101292462
31
0
0
LINE
8
layer0
10
2158.13530623082
20
130.442101292462
30
0
11
2158.13530623082
21
158.154914213564
31
0
0
LINE
8
layer0
10
2158.13530623082
20
158.154914213564
30
0
11
2084.63530623082
21
94.5020470354075
31
0
0
LINE
8
layer0
10
1858.13530623082
20
-129.36551984287
30
0
11
1908.13530623082
21
-86.0642496536479
31
0
0
LINE
8
layer0
10
1908.13530623082
20
-86.0642496536479
30
0
11
1908.13530623082
21
-58.3514367325459
31
0
0
LINE
8
layer0
10
1908.13530623082
20
-58.3514367325459
30
0
11
1858.13530623082
21
-101.652706921768
31
0
0
LINE
8
layer0
10
1858.13530623082
20
-101.652706921768
30
0
11
1858.13530623082
21
-129.36551984287
31
0
0
LINE
8
layer0
10
1908.13530623082
20
-58.3514367325459
30
0
11
1908.13530623082
21
-86.0642496536479
31
0
0
LINE
8
layer0
10
1908.13530623082
20
-86.0642496536479
30
0
11
2084.63530623082
21
66.7892341143055
31
0
0
LINE
8
layer0
10
2084.63530623082
20
66.7892341143055
30
0
11
2084.63530623082
21
94.5020470354075
31
0
0
LINE
8
layer0
10
2084.63530623082
20
94.5020470354075
30
0
11
1908.13530623082
21
-58.3514367325459
31
0
0
LINE
8
layer0
10
1403.69405861473
20
263.360040421039
30
0
11
1169.85082816386
21
415.735256016407
31
0
0
LINE
8
layer0
10
1169.85082816386
20
415.735256016407
30
0
11
2158.13530623082
21
130.442101292462
31
0
0
LINE
8
layer0
10
2158.13530623082
20
130.442101292462
30
0
11
2084.63530623082
21
66.7892341143055
31
0
0
LINE
8
layer0
10
2084.63530623082
20
66.7892341143055
30
0
11
1403.69405861473
21
263.360040421039
31
0
0
LINE
8
layer0
10
1300.85463540964
20
293.047224756422
30
0
11
1309.24307782594
21
324.905497747887
31
0
0
LINE
8
layer0
10
1309.24307782594
20
324.905497747887
30
0
11
1403.69405861473
21
263.360040421039
31
0
0
LINE
8
layer0
10
1403.69405861473
20
263.360040421039
30
0
11
1300.85463540964
21
293.047224756422
31
0
0
LINE
8
layer0
10
1267.13500545457
20
302.781243472189
30
0
11
1307.49482043211
21
318.26583110324
31
0
0
LINE
8
layer0
10
1307.49482043211
20
318.26583110324
30
0
11
1300.85463540964
21
293.047224756422
31
0
0
LINE
8
layer0
10
1300.85463540964
20
293.047224756422
30
0
11
1267.13500545457
21
302.781243472189
31
0
0
LINE
8
layer0
10
1207.16165274819
20
320.094059136807
30
0
11
1296.86870915517
21
314.18898012321
31
0
0
LINE
8
layer0
10
1296.86870915517
20
314.18898012321
30
0
11
1267.13500545457
21
302.781243472189
31
0
0
LINE
8
layer0
10
1267.13500545457
20
302.781243472189
30
0
11
1207.16165274819
21
320.094059136807
31
0
0
LINE
8
layer0
10
554.256258422041
20
593.442101292462
30
0
11
1096.6738685327
21
436.859624687172
31
0
0
LINE
8
layer0
10
1096.6738685327
20
436.859624687172
30
0
11
1283.58937586588
21
315.063108820126
31
0
0
LINE
8
layer0
10
1283.58937586588
20
315.063108820126
30
0
11
1207.16165274819
21
320.094059136807
31
0
0
LINE
8
layer0
10
1207.16165274819
20
320.094059136807
30
0
11
480.756258422041
21
529.789234114305
31
0
0
LINE
8
layer0
10
480.756258422041
20
529.789234114305
30
0
11
554.256258422041
21
593.442101292462
31
0
0
LINE
8
layer0
10
1281.40459801036
20
343.045404366383
30
0
11
1275.43567390582
21
320.376164458593
31
0
0
LINE
8
layer0
10
1275.43567390582
20
320.376164458593
30
0
11
1096.6738685327
21
436.859624687172
31
0
0
LINE
8
layer0
10
1096.6738685327
20
436.859624687172
30
0
11
1169.85082816386
21
415.735256016407
31
0
0
LINE
8
layer0
10
1169.85082816386
20
415.735256016407
30
0
11
1281.40459801036
21
343.045404366383
31
0
0
LINE
8
layer0
10
1295.32383791815
20
333.975451057135
30
0
11
1277.18393129965
21
327.01583110324
31
0
0
LINE
8
layer0
10
1277.18393129965
20
327.01583110324
30
0
11
1281.40459801036
21
343.045404366383
31
0
0
LINE
8
layer0
10
1281.40459801036
20
343.045404366383
30
0
11
1295.32383791815
21
333.975451057135
31
0
0
LINE
8
layer0
10
1301.08937586588
20
330.218553386354
30
0
11
1287.81004257659
21
331.092682083269
31
0
0
LINE
8
layer0
10
1287.81004257659
20
331.092682083269
30
0
11
1295.32383791815
21
333.975451057135
31
0
0
LINE
8
layer0
10
1295.32383791815
20
333.975451057135
30
0
11
1301.08937586588
21
330.218553386354
31
0
0
LINE
8
layer0
10
304.256258422041
20
376.935750346352
30
0
11
1908.13530623082
21
-86.0642496536479
31
0
0
LINE
8
layer0
10
1908.13530623082
20
-86.0642496536479
30
0
11
1858.13530623082
21
-129.36551984287
31
0
0
LINE
8
layer0
10
1858.13530623082
20
-129.36551984287
30
0
11
254.256258422041
21
333.63448015713
31
0
0
LINE
8
layer0
10
254.256258422041
20
333.63448015713
30
0
11
304.256258422041
21
376.935750346352
31
0
0
LINE
8
layer0
10
480.756258422041
20
529.789234114305
30
0
11
1093.90224430142
21
352.789234114305
31
0
0
LINE
8
layer0
10
1093.90224430142
20
352.789234114305
30
0
11
917.402244301423
21
199.935750346352
31
0
0
LINE
8
layer0
10
917.402244301423
20
199.935750346352
30
0
11
304.256258422041
21
376.935750346352
31
0
0
LINE
8
layer0
10
304.256258422041
20
376.935750346352
30
0
11
480.756258422041
21
529.789234114305
31
0
0
LINE
8
layer0
10
1268.14253283412
20
98.6857503463521
30
0
11
1444.64253283412
21
251.539234114305
31
0
0
LINE
8
layer0
10
1444.64253283412
20
251.539234114305
30
0
11
2084.63530623082
21
66.7892341143055
31
0
0
LINE
8
layer0
10
2084.63530623082
20
66.7892341143055
30
0
11
1908.13530623082
21
-86.0642496536479
31
0
0
LINE
8
layer0
10
1908.13530623082
20
-86.0642496536479
30
0
11
1268.14253283412
21
98.6857503463521
31
0
0
LINE
8
layer0
10
1301.08937586588
20
330.218553386354
30
0
11
1309.24307782594
21
324.905497747887
31
0
0
LINE
8
layer0
10
1309.24307782594
20
324.905497747887
30
0
11
1309.24307782594
21
352.618310668989
31
0
0
LINE
8
layer0
10
1309.24307782594
20
352.618310668989
30
0
11
1301.08937586588
21
357.931366307456
31
0
0
LINE
8
layer0
10
1301.08937586588
20
357.931366307456
30
0
11
1301.08937586588
21
330.218553386354
31
0
0
LINE
8
layer0
10
1309.24307782594
20
324.905497747887
30
0
11
1307.49482043211
21
318.26583110324
31
0
0
LINE
8
layer0
10
1307.49482043211
20
318.26583110324
30
0
11
1307.49482043211
21
345.978644024342
31
0
0
LINE
8
layer0
10
1307.49482043211
20
345.978644024342
30
0
11
1309.24307782594
21
352.618310668989
31
0
0
LINE
8
layer0
10
1309.24307782594
20
352.618310668989
30
0
11
1309.24307782594
21
324.905497747887
31
0
0
LINE
8
layer0
10
1307.49482043211
20
318.26583110324
30
0
11
1296.86870915517
21
314.18898012321
31
0
0
LINE
8
layer0
10
1296.86870915517
20
314.18898012321
30
0
11
1296.86870915517
21
341.901793044312
31
0
0
LINE
8
layer0
10
1296.86870915517
20
341.901793044312
30
0
11
1307.49482043211
21
345.978644024342
31
0
0
LINE
8
layer0
10
1307.49482043211
20
345.978644024342
30
0
11
1307.49482043211
21
318.26583110324
31
0
0
LINE
8
layer0
10
1296.86870915517
20
314.18898012321
30
0
11
1283.58937586588
21
315.063108820126
31
0
0
LINE
8
layer0
10
1283.58937586588
20
315.063108820126
30
0
11
1283.58937586588
21
342.775921741228
31
0
0
LINE
8
layer0
10
1283.58937586588
20
342.775921741228
30
0
11
1296.86870915517
21
341.901793044312
31
0
0
LINE
8
layer0
10
1296.86870915517
20
341.901793044312
30
0
11
1296.86870915517
21
314.18898012321
31
0
0
LINE
8
layer0
10
1287.81004257659
20
331.092682083269
30
0
11
1301.08937586588
21
330.218553386354
31
0
0
LINE
8
layer0
10
1301.08937586588
20
330.218553386354
30
0
11
1301.08937586588
21
357.931366307456
31
0
0
LINE
8
layer0
10
1301.08937586588
20
357.931366307456
30
0
11
1287.81004257659
21
358.805495004371
31
0
0
LINE
8
layer0
10
1287.81004257659
20
358.805495004371
30
0
11
1287.81004257659
21
331.092682083269
31
0
0
LINE
8
layer0
10
1277.18393129965
20
327.01583110324
30
0
11
1287.81004257659
21
331.092682083269
31
0
0
LINE
8
layer0
10
1287.81004257659
20
331.092682083269
30
0
11
1287.81004257659
21
358.805495004371
31
0
0
LINE
8
layer0
10
1287.81004257659
20
358.805495004371
30
0
11
1277.18393129965
21
354.728644024342
31
0
0
LINE
8
layer0
10
1277.18393129965
20
354.728644024342
30
0
11
1277.18393129965
21
327.01583110324
31
0
0
LINE
8
layer0
10
1275.43567390582
20
320.376164458593
30
0
11
1277.18393129965
21
327.01583110324
31
0
0
LINE
8
layer0
10
1277.18393129965
20
327.01583110324
30
0
11
1277.18393129965
21
354.728644024342
31
0
0
LINE
8
layer0
10
1277.18393129965
20
354.728644024342
30
0
11
1275.43567390582
21
348.088977379695
31
0
0
LINE
8
layer0
10
1275.43567390582
20
348.088977379695
30
0
11
1275.43567390582
21
320.376164458593
31
0
0
LINE
8
layer0
10
1283.58937586588
20
315.063108820126
30
0
11
1275.43567390582
21
320.376164458593
31
0
0
LINE
8
layer0
10
1275.43567390582
20
320.376164458593
30
0
11
1275.43567390582
21
348.088977379695
31
0
0
LINE
8
layer0
10
1275.43567390582
20
348.088977379695
30
0
11
1283.58937586588
21
342.775921741228
31
0
0
LINE
8
layer0
10
1283.58937586588
20
342.775921741228
30
0
11
1283.58937586588
21
315.063108820126
31
0
0
LINE
8
layer0
10
1403.69405861473
20
291.072853342141
30
0
11
1403.69405861473
21
263.360040421039
31
0
0
LINE
8
layer0
10
1403.69405861473
20
263.360040421039
30
0
11
1444.64253283412
21
251.539234114305
31
0
0
LINE
8
layer0
10
1444.64253283412
20
251.539234114305
30
0
11
1444.64253283412
21
279.252047035407
31
0
0
LINE
8
layer0
10
1444.64253283412
20
279.252047035407
30
0
11
1403.69405861473
21
291.072853342141
31
0
0
LINE
8
layer0
10
1300.85463540964
20
320.760037677524
30
0
11
1300.85463540964
21
293.047224756422
31
0
0
LINE
8
layer0
10
1300.85463540964
20
293.047224756422
30
0
11
1403.69405861473
21
263.360040421039
31
0
0
LINE
8
layer0
10
1403.69405861473
20
263.360040421039
30
0
11
1403.69405861473
21
291.072853342141
31
0
0
LINE
8
layer0
10
1403.69405861473
20
291.072853342141
30
0
11
1300.85463540964
21
320.760037677524
31
0
0
LINE
8
layer0
10
1267.13500545457
20
330.494056393291
30
0
11
1267.13500545457
21
302.781243472189
31
0
0
LINE
8
layer0
10
1267.13500545457
20
302.781243472189
30
0
11
1300.85463540964
21
293.047224756422
31
0
0
LINE
8
layer0
10
1300.85463540964
20
293.047224756422
30
0
11
1300.85463540964
21
320.760037677524
31
0
0
LINE
8
layer0
10
1300.85463540964
20
320.760037677524
30
0
11
1267.13500545457
21
330.494056393291
31
0
0
LINE
8
layer0
10
1207.16165274819
20
347.806872057909
30
0
11
1207.16165274819
21
320.094059136807
31
0
0
LINE
8
layer0
10
1207.16165274819
20
320.094059136807
30
0
11
1267.13500545457
21
302.781243472189
31
0
0
LINE
8
layer0
10
1267.13500545457
20
302.781243472189
30
0
11
1267.13500545457
21
330.494056393291
31
0
0
LINE
8
layer0
10
1267.13500545457
20
330.494056393291
30
0
11
1207.16165274819
21
347.806872057909
31
0
0
LINE
8
layer0
10
1093.90224430142
20
352.789234114305
30
0
11
1207.16165274819
21
320.094059136807
31
0
0
LINE
8
layer0
10
1207.16165274819
20
320.094059136807
30
0
11
1207.16165274819
21
347.806872057909
31
0
0
LINE
8
layer0
10
1207.16165274819
20
347.806872057909
30
0
11
1093.90224430142
21
380.502047035407
31
0
0
LINE
8
layer0
10
1093.90224430142
20
380.502047035407
30
0
11
1093.90224430142
21
352.789234114305
31
0
0
LINE
8
layer0
10
1268.14253283412
20
98.6857503463521
30
0
11
917.402244301423
21
199.935750346352
31
0
0
LINE
8
layer0
10
917.402244301423
20
199.935750346352
30
0
11
917.402244301423
21
227.648563267454
31
0
0
LINE
8
layer0
10
917.402244301423
20
227.648563267454
30
0
11
1268.14253283412
21
126.398563267454
31
0
0
LINE
8
layer0
10
1268.14253283412
20
126.398563267454
30
0
11
1268.14253283412
21
98.6857503463521
31
0
0
LINE
8
layer0
10
1444.64253283412
20
251.539234114305
30
0
11
1268.14253283412
21
98.6857503463521
31
0
0
LINE
8
layer0
10
1268.14253283412
20
98.6857503463521
30
0
11
1268.14253283412
21
126.398563267454
31
0
0
LINE
8
layer0
10
1268.14253283412
20
126.398563267454
30
0
11
1444.64253283412
21
279.252047035407
31
0
0
LINE
8
layer0
10
1444.64253283412
20
279.252047035407
30
0
11
1444.64253283412
21
251.539234114305
31
0
0
LINE
8
layer0
10
917.402244301423
20
199.935750346352
30
0
11
1093.90224430142
21
352.789234114305
31
0
0
LINE
8
layer0
10
1093.90224430142
20
352.789234114305
30
0
11
1093.90224430142
21
380.502047035407
31
0
0
LINE
8
layer0
10
1093.90224430142
20
380.502047035407
30
0
11
917.402244301423
21
227.648563267454
31
0
0
LINE
8
layer0
10
917.402244301423
20
227.648563267454
30
0
11
917.402244301423
21
199.935750346352
31
0
0
LINE
8
layer0
10
2158.13530623082
20
158.154914213564
30
0
11
1169.85082816386
21
443.448068937509
31
0
0
LINE
8
layer0
10
1169.85082816386
20
443.448068937509
30
0
11
1403.69405861473
21
291.072853342141
31
0
0
LINE
8
layer0
10
1403.69405861473
20
291.072853342141
30
0
11
2084.63530623082
21
94.5020470354075
31
0
0
LINE
8
layer0
10
2084.63530623082
20
94.5020470354075
30
0
11
2158.13530623082
21
158.154914213564
31
0
0
LINE
8
layer0
10
1403.69405861473
20
291.072853342141
30
0
11
1309.24307782594
21
352.618310668989
31
0
0
LINE
8
layer0
10
1309.24307782594
20
352.618310668989
30
0
11
1300.85463540964
21
320.760037677524
31
0
0
LINE
8
layer0
10
1300.85463540964
20
320.760037677524
30
0
11
1403.69405861473
21
291.072853342141
31
0
0
LINE
8
layer0
10
1300.85463540964
20
320.760037677524
30
0
11
1307.49482043211
21
345.978644024342
31
0
0
LINE
8
layer0
10
1307.49482043211
20
345.978644024342
30
0
11
1267.13500545457
21
330.494056393291
31
0
0
LINE
8
layer0
10
1267.13500545457
20
330.494056393291
30
0
11
1300.85463540964
21
320.760037677524
31
0
0
LINE
8
layer0
10
1267.13500545457
20
330.494056393291
30
0
11
1296.86870915517
21
341.901793044312
31
0
0
LINE
8
layer0
10
1296.86870915517
20
341.901793044312
30
0
11
1207.16165274819
21
347.806872057909
31
0
0
LINE
8
layer0
10
1207.16165274819
20
347.806872057909
30
0
11
1267.13500545457
21
330.494056393291
31
0
0
LINE
8
layer0
10
1207.16165274819
20
347.806872057909
30
0
11
1283.58937586588
21
342.775921741228
31
0
0
LINE
8
layer0
10
1283.58937586588
20
342.775921741228
30
0
11
1096.6738685327
21
464.572437608274
31
0
0
LINE
8
layer0
10
1096.6738685327
20
464.572437608274
30
0
11
554.256258422041
21
621.154914213564
31
0
0
LINE
8
layer0
10
554.256258422041
20
621.154914213564
30
0
11
480.756258422041
21
557.502047035407
31
0
0
LINE
8
layer0
10
480.756258422041
20
557.502047035407
30
0
11
1207.16165274819
21
347.806872057909
31
0
0
LINE
8
layer0
10
1096.6738685327
20
464.572437608274
30
0
11
1275.43567390582
21
348.088977379695
31
0
0
LINE
8
layer0
10
1275.43567390582
20
348.088977379695
30
0
11
1281.40459801036
21
370.758217287485
31
0
0
LINE
8
layer0
10
1281.40459801036
20
370.758217287485
30
0
11
1169.85082816386
21
443.448068937509
31
0
0
LINE
8
layer0
10
1169.85082816386
20
443.448068937509
30
0
11
1096.6738685327
21
464.572437608274
31
0
0
LINE
8
layer0
10
1281.40459801036
20
370.758217287485
30
0
11
1277.18393129965
21
354.728644024342
31
0
0
LINE
8
layer0
10
1277.18393129965
20
354.728644024342
30
0
11
1295.32383791815
21
361.688263978237
31
0
0
LINE
8
layer0
10
1295.32383791815
20
361.688263978237
30
0
11
1281.40459801036
21
370.758217287485
31
0
0
LINE
8
layer0
10
1295.32383791815
20
361.688263978237
30
0
11
1287.81004257659
21
358.805495004371
31
0
0
LINE
8
layer0
10
1287.81004257659
20
358.805495004371
30
0
11
1301.08937586588
21
357.931366307456
31
0
0
LINE
8
layer0
10
1301.08937586588
20
357.931366307456
30
0
11
1295.32383791815
21
361.688263978237
31
0
0
LINE
8
layer0
10
1908.13530623082
20
-58.3514367325459
30
0
11
304.256258422041
21
404.648563267454
31
0
0
LINE
8
layer0
10
304.256258422041
20
404.648563267454
30
0
11
254.256258422041
21
361.347293078232
31
0
0
LINE
8
layer0
10
254.256258422041
20
361.347293078232
30
0
11
1858.13530623082
21
-101.652706921768
31
0
0
LINE
8
layer0
10
1858.13530623082
20
-101.652706921768
30
0
11
1908.13530623082
21
-58.3514367325459
31
0
0
LINE
8
layer0
10
917.402244301423
20
227.648563267454
30
0
11
1093.90224430142
21
380.502047035407
31
0
0
LINE
8
layer0
10
1093.90224430142
20
380.502047035407
30
0
11
480.756258422041
21
557.502047035407
31
0
0
LINE
8
layer0
10
480.756258422041
20
557.502047035407
30
0
11
304.256258422041
21
404.648563267454
31
0
0
LINE
8
layer0
10
304.256258422041
20
404.648563267454
30
0
11
917.402244301423
21
227.648563267454
31
0
0
LINE
8
layer0
10
2084.63530623082
20
94.5020470354075
30
0
11
1444.64253283412
21
279.252047035407
31
0
0
LINE
8
layer0
10
1444.64253283412
20
279.252047035407
30
0
11
1268.14253283412
21
126.398563267454
31
0
0
LINE
8
layer0
10
1268.14253283412
20
126.398563267454
30
0
11
1908.13530623082
21
-58.3514367325459
31
0
0
LINE
8
layer0
10
1908.13530623082
20
-58.3514367325459
30
0
11
2084.63530623082
21
94.5020470354075
31
0
0
ENDBLK
0
BLOCK
8
layer0
2
PF_OBJECT70
70
0
10
0
20
0
30
0
0
LINE
8
layer0
10
1112.12948563738
20
386.787301073252
30
0
11
1445.54926609438
21
290.537301073252
31
0
0
LINE
8
layer0
10
1445.54926609438
20
290.537301073252
30
0
11
1452.84361085871
21
287.583879111868
31
0
0
LINE
8
layer0
10
1452.84361085871
20
287.583879111868
30
0
11
1457.95562982366
21
283.647969662622
31
0
0
LINE
8
layer0
10
1457.95562982366
20
283.647969662622
30
0
11
1460.38492295543
21
279.1148469655
31
0
0
LINE
8
layer0
10
1460.38492295543
20
279.1148469655
30
0
11
1459.8936941164
21
274.428244654219
31
0
0
LINE
8
layer0
10
1459.8936941164
20
274.428244654219
30
0
11
1456.53002820792
21
270.046920016485
31
0
0
LINE
8
layer0
10
1456.53002820792
20
270.046920016485
30
0
11
1456.53002820792
21
270.046920016485
31
0
0
LINE
8
layer0
10
1456.53002820792
20
270.046920016485
30
0
11
1071.14872352384
21
381.296920016485
31
0
0
LINE
8
layer0
10
1071.14872352384
20
381.296920016485
30
0
11
1077.05556744661
21
384.944092398646
31
0
0
LINE
8
layer0
10
1077.05556744661
20
384.944092398646
30
0
11
1084.9273863451
21
387.500101881124
31
0
0
LINE
8
layer0
10
1084.9273863451
20
387.500101881124
30
0
11
1093.99363173935
21
388.714748447009
31
0
0
LINE
8
layer0
10
1093.99363173935
20
388.714748447009
30
0
11
1103.36683636191
21
388.469134027492
31
0
0
LINE
8
layer0
10
1103.36683636191
20
388.469134027492
30
0
11
1112.12948563738
21
386.787301073252
31
0
0
LINE
8
layer0
10
1071.14872352384
20
381.296920016485
30
0
11
1123.11024775091
21
366.296920016485
31
0
0
LINE
8
layer0
10
1123.11024775091
20
366.296920016485
30
0
11
1066.39719031411
21
377.181971549928
31
0
0
LINE
8
layer0
10
1066.39719031411
20
377.181971549928
30
0
11
1071.14872352384
21
381.296920016485
31
0
0
LINE
8
layer0
10
1071.14872352384
20
381.296920016485
30
0
11
1071.14872352384
21
381.296920016485
31
0
0
LINE
8
layer0
10
1066.39719031411
20
377.181971549928
30
0
11
1114.34759847544
21
367.978752970726
31
0
0
LINE
8
layer0
10
1114.34759847544
20
367.978752970726
30
0
11
1057.49058812784
21
369.468627795221
31
0
0
LINE
8
layer0
10
1057.49058812784
20
369.468627795221
30
0
11
1066.39719031411
21
377.181971549928
31
0
0
LINE
8
layer0
10
1057.49058812784
20
369.468627795221
30
0
11
1104.97439385288
21
368.224367390243
31
0
0
LINE
8
layer0
10
1104.97439385288
20
368.224367390243
30
0
11
1047.10075722385
21
360.470770291343
31
0
0
LINE
8
layer0
10
1047.10075722385
20
360.470770291343
30
0
11
1057.49058812784
21
369.468627795221
31
0
0
LINE
8
layer0
10
1047.10075722385
20
360.470770291343
30
0
11
1095.90814845863
21
367.009720824358
31
0
0
LINE
8
layer0
10
1095.90814845863
20
367.009720824358
30
0
11
1029.90396592746
21
345.577912165089
31
0
0
LINE
8
layer0
10
1029.90396592746
20
345.577912165089
30
0
11
1047.10075722385
21
360.470770291343
31
0
0
LINE
8
layer0
10
1029.90396592746
20
345.577912165089
30
0
11
1088.03632956014
21
364.45371134188
31
0
0
LINE
8
layer0
10
1088.03632956014
20
364.45371134188
30
0
11
961.442450803717
21
286.288500886353
31
0
0
LINE
8
layer0
10
961.442450803717
20
286.288500886353
30
0
11
1029.90396592746
21
345.577912165089
31
0
0
LINE
8
layer0
10
961.442450803717
20
286.288500886353
30
0
11
1082.12948563738
21
360.806538959719
31
0
0
LINE
8
layer0
10
1082.12948563738
20
360.806538959719
30
0
11
915.629485637376
21
216.61330922961
31
0
0
LINE
8
layer0
10
915.629485637376
20
216.61330922961
30
0
11
908.335140873054
21
219.566731190993
31
0
0
LINE
8
layer0
10
908.335140873054
20
219.566731190993
30
0
11
903.223121908098
21
223.502640640239
31
0
0
LINE
8
layer0
10
903.223121908098
20
223.502640640239
30
0
11
900.793828776327
21
228.035763337361
31
0
0
LINE
8
layer0
10
900.793828776327
20
228.035763337361
30
0
11
901.285057615361
21
232.722365648643
31
0
0
LINE
8
layer0
10
901.285057615361
20
232.722365648643
30
0
11
904.648723523842
21
237.103690286376
31
0
0
LINE
8
layer0
10
904.648723523842
20
237.103690286376
30
0
11
961.442450803717
21
286.288500886353
31
0
0
LINE
8
layer0
10
915.629485637376
20
216.61330922961
30
0
11
945.629485637376
21
242.594071343143
31
0
0
LINE
8
layer0
10
945.629485637376
20
242.594071343143
30
0
11
923.859382570489
21
214.237542624742
31
0
0
LINE
8
layer0
10
923.859382570489
20
214.237542624742
30
0
11
915.629485637376
21
216.61330922961
31
0
0
LINE
8
layer0
10
915.629485637376
20
216.61330922961
30
0
11
915.629485637376
21
216.61330922961
31
0
0
LINE
8
layer0
10
923.859382570489
20
214.237542624742
30
0
11
942.265819728895
21
238.212746705409
31
0
0
LINE
8
layer0
10
942.265819728895
20
238.212746705409
30
0
11
939.286070079904
21
209.784241531609
31
0
0
LINE
8
layer0
10
939.286070079904
20
209.784241531609
30
0
11
923.859382570489
21
214.237542624742
31
0
0
LINE
8
layer0
10
939.286070079904
20
209.784241531609
30
0
11
941.774590889861
21
233.526144394128
31
0
0
LINE
8
layer0
10
941.774590889861
20
233.526144394128
30
0
11
957.28178508766
21
204.589326079615
31
0
0
LINE
8
layer0
10
957.28178508766
20
204.589326079615
30
0
11
939.286070079904
21
209.784241531609
31
0
0
LINE
8
layer0
10
957.28178508766
20
204.589326079615
30
0
11
944.203884021631
21
228.993021697006
31
0
0
LINE
8
layer0
10
944.203884021631
20
228.993021697006
30
0
11
987.067501340169
21
195.990930431419
31
0
0
LINE
8
layer0
10
987.067501340169
20
195.990930431419
30
0
11
957.28178508766
21
204.589326079615
31
0
0
LINE
8
layer0
10
987.067501340169
20
195.990930431419
30
0
11
949.315902986587
21
225.05711224776
31
0
0
LINE
8
layer0
10
949.315902986587
20
225.05711224776
30
0
11
1105.64632389764
21
161.760172869547
31
0
0
LINE
8
layer0
10
1105.64632389764
20
161.760172869547
30
0
11
987.067501340169
21
195.990930431419
31
0
0
LINE
8
layer0
10
1105.64632389764
20
161.760172869547
30
0
11
956.610247750909
21
222.103690286376
31
0
0
LINE
8
layer0
10
956.610247750909
20
222.103690286376
30
0
11
1290.03002820792
21
125.853690286376
31
0
0
LINE
8
layer0
10
1290.03002820792
20
125.853690286376
30
0
11
1284.12318428515
21
122.206517904215
31
0
0
LINE
8
layer0
10
1284.12318428515
20
122.206517904215
30
0
11
1276.25136538666
21
119.650508421737
31
0
0
LINE
8
layer0
10
1276.25136538666
20
119.650508421737
30
0
11
1267.18511999241
21
118.435861855852
31
0
0
LINE
8
layer0
10
1267.18511999241
20
118.435861855852
30
0
11
1257.81191536985
21
118.681476275369
31
0
0
LINE
8
layer0
10
1257.81191536985
20
118.681476275369
30
0
11
1249.04926609438
21
120.36330922961
31
0
0
LINE
8
layer0
10
1249.04926609438
20
120.36330922961
30
0
11
1105.64632389764
21
161.760172869547
31
0
0
LINE
8
layer0
10
1290.03002820792
20
125.853690286376
30
0
11
1238.06850398085
21
140.853690286376
31
0
0
LINE
8
layer0
10
1238.06850398085
20
140.853690286376
30
0
11
1294.78156141765
21
129.968638752933
31
0
0
LINE
8
layer0
10
1294.78156141765
20
129.968638752933
30
0
11
1290.03002820792
21
125.853690286376
31
0
0
LINE
8
layer0
10
1290.03002820792
20
125.853690286376
30
0
11
1290.03002820792
21
125.853690286376
31
0
0
LINE
8
layer0
10
1294.78156141765
20
129.968638752933
30
0
11
1246.83115325632
21
139.171857332136
31
0
0
LINE
8
layer0
10
1246.83115325632
20
139.171857332136
30
0
11
1303.68816360392
21
137.68198250764
31
0
0
LINE
8
layer0
10
1303.68816360392
20
137.68198250764
30
0
11
1294.78156141765
21
129.968638752933
31
0
0
LINE
8
layer0
10
1303.68816360392
20
137.68198250764
30
0
11
1256.20435787888
21
138.926242912619
31
0
0
LINE
8
layer0
10
1256.20435787888
20
138.926242912619
30
0
11
1314.07799450791
21
146.679840011519
31
0
0
LINE
8
layer0
10
1314.07799450791
20
146.679840011519
30
0
11
1303.68816360392
21
137.68198250764
31
0
0
LINE
8
layer0
10
1314.07799450791
20
146.679840011519
30
0
11
1265.27060327313
21
140.140889478504
31
0
0
LINE
8
layer0
10
1265.27060327313
20
140.140889478504
30
0
11
1331.2747858043
21
161.572698137773
31
0
0
LINE
8
layer0
10
1331.2747858043
20
161.572698137773
30
0
11
1314.07799450791
21
146.679840011519
31
0
0
LINE
8
layer0
10
1331.2747858043
20
161.572698137773
30
0
11
1273.14242217162
21
142.696898960982
31
0
0
LINE
8
layer0
10
1273.14242217162
20
142.696898960982
30
0
11
1399.73630092804
21
220.862109416509
31
0
0
LINE
8
layer0
10
1399.73630092804
20
220.862109416509
30
0
11
1331.2747858043
21
161.572698137773
31
0
0
LINE
8
layer0
10
1399.73630092804
20
220.862109416509
30
0
11
1279.04926609438
21
146.344071343143
31
0
0
LINE
8
layer0
10
1279.04926609438
20
146.344071343143
30
0
11
1430.54926609438
21
277.546920016485
31
0
0
LINE
8
layer0
10
1430.54926609438
20
277.546920016485
30
0
11
1456.53002820792
21
270.046920016485
31
0
0
LINE
8
layer0
10
1456.53002820792
20
270.046920016485
30
0
11
1399.73630092804
21
220.862109416509
31
0
0
LINE
8
layer0
10
1430.54926609438
20
277.546920016485
30
0
11
1415.54926609438
21
264.556538959719
31
0
0
LINE
8
layer0
10
1415.54926609438
20
264.556538959719
30
0
11
1426.43431762783
21
278.734803318919
31
0
0
LINE
8
layer0
10
1426.43431762783
20
278.734803318919
30
0
11
1430.54926609438
21
277.546920016485
31
0
0
LINE
8
layer0
10
1426.43431762783
20
278.734803318919
30
0
11
1418.91293200287
21
268.937863597452
31
0
0
LINE
8
layer0
10
1418.91293200287
20
268.937863597452
30
0
11
1420.13054114596
21
280.554546843277
31
0
0
LINE
8
layer0
10
1420.13054114596
20
280.554546843277
30
0
11
1426.43431762783
21
278.734803318919
31
0
0
LINE
8
layer0
10
1420.13054114596
20
280.554546843277
30
0
11
1419.4041608419
21
273.624465908734
31
0
0
LINE
8
layer0
10
1419.4041608419
20
273.624465908734
30
0
11
1414.87772875763
21
282.07090316648
31
0
0
LINE
8
layer0
10
1414.87772875763
20
282.07090316648
30
0
11
1420.13054114596
21
280.554546843277
31
0
0
LINE
8
layer0
10
1414.87772875763
20
282.07090316648
30
0
11
1416.97486771013
21
278.157588605856
31
0
0
LINE
8
layer0
10
1416.97486771013
20
278.157588605856
30
0
11
1410.10136705664
21
283.449720023387
31
0
0
LINE
8
layer0
10
1410.10136705664
20
283.449720023387
30
0
11
1414.87772875763
21
282.07090316648
31
0
0
LINE
8
layer0
10
1410.10136705664
20
283.449720023387
30
0
11
1411.86284874517
21
282.093498055102
31
0
0
LINE
8
layer0
10
1411.86284874517
20
282.093498055102
30
0
11
1404.56850398085
21
285.046920016485
31
0
0
LINE
8
layer0
10
1404.56850398085
20
285.046920016485
30
0
11
1410.10136705664
21
283.449720023387
31
0
0
LINE
8
layer0
10
1445.54926609438
20
294.00140268839
30
0
11
1445.54926609438
21
290.537301073252
31
0
0
LINE
8
layer0
10
1445.54926609438
20
290.537301073252
30
0
11
1112.12948563738
21
386.787301073252
31
0
0
LINE
8
layer0
10
1112.12948563738
20
386.787301073252
30
0
11
1112.12948563738
21
390.25140268839
31
0
0
LINE
8
layer0
10
1112.12948563738
20
390.25140268839
30
0
11
1445.54926609438
21
294.00140268839
31
0
0
LINE
8
layer0
10
1112.12948563738
20
390.25140268839
30
0
11
1112.12948563738
21
386.787301073252
31
0
0
LINE
8
layer0
10
1112.12948563738
20
386.787301073252
30
0
11
1103.36683636191
21
388.469134027492
31
0
0
LINE
8
layer0
10
1103.36683636191
20
388.469134027492
30
0
11
1103.36683636191
21
391.93323564263
31
0
0
LINE
8
layer0
10
1103.36683636191
20
391.93323564263
30
0
11
1112.12948563738
21
390.25140268839
31
0
0
LINE
8
layer0
10
1103.36683636191
20
391.93323564263
30
0
11
1103.36683636191
21
388.469134027492
31
0
0
LINE
8
layer0
10
1103.36683636191
20
388.469134027492
30
0
11
1093.99363173935
21
388.714748447009
31
0
0
LINE
8
layer0
10
1093.99363173935
20
388.714748447009
30
0
11
1093.99363173935
21
392.178850062147
31
0
0
LINE
8
layer0
10
1093.99363173935
20
392.178850062147
30
0
11
1103.36683636191
21
391.93323564263
31
0
0
LINE
8
layer0
10
1093.99363173935
20
392.178850062147
30
0
11
1093.99363173935
21
388.714748447009
31
0
0
LINE
8
layer0
10
1093.99363173935
20
388.714748447009
30
0
11
1084.9273863451
21
387.500101881124
31
0
0
LINE
8
layer0
10
1084.9273863451
20
387.500101881124
30
0
11
1084.9273863451
21
390.964203496262
31
0
0
LINE
8
layer0
10
1084.9273863451
20
390.964203496262
30
0
11
1093.99363173935
21
392.178850062147
31
0
0
LINE
8
layer0
10
1084.9273863451
20
390.964203496262
30
0
11
1084.9273863451
21
387.500101881124
31
0
0
LINE
8
layer0
10
1084.9273863451
20
387.500101881124
30
0
11
1077.05556744661
21
384.944092398646
31
0
0
LINE
8
layer0
10
1077.05556744661
20
384.944092398646
30
0
11
1077.05556744661
21
388.408194013784
31
0
0
LINE
8
layer0
10
1077.05556744661
20
388.408194013784
30
0
11
1084.9273863451
21
390.964203496262
31
0
0
LINE
8
layer0
10
1077.05556744661
20
388.408194013784
30
0
11
1077.05556744661
21
384.944092398646
31
0
0
LINE
8
layer0
10
1077.05556744661
20
384.944092398646
30
0
11
1071.14872352384
21
381.296920016485
31
0
0
LINE
8
layer0
10
1071.14872352384
20
381.296920016485
30
0
11
1071.14872352384
21
384.761021631623
31
0
0
LINE
8
layer0
10
1071.14872352384
20
384.761021631623
30
0
11
1077.05556744661
21
388.408194013784
31
0
0
LINE
8
layer0
10
1071.14872352384
20
384.761021631623
30
0
11
1071.14872352384
21
381.296920016485
31
0
0
LINE
8
layer0
10
1071.14872352384
20
381.296920016485
30
0
11
1066.39719031411
21
377.181971549928
31
0
0
LINE
8
layer0
10
1066.39719031411
20
377.181971549928
30
0
11
1066.39719031411
21
380.646073165066
31
0
0
LINE
8
layer0
10
1066.39719031411
20
380.646073165066
30
0
11
1071.14872352384
21
384.761021631623
31
0
0
LINE
8
layer0
10
1066.39719031411
20
380.646073165066
30
0
11
1066.39719031411
21
377.181971549928
31
0
0
LINE
8
layer0
10
1066.39719031411
20
377.181971549928
30
0
11
1057.49058812784
21
369.468627795221
31
0
0
LINE
8
layer0
10
1057.49058812784
20
369.468627795221
30
0
11
1057.49058812784
21
372.932729410359
31
0
0
LINE
8
layer0
10
1057.49058812784
20
372.932729410359
30
0
11
1066.39719031411
21
380.646073165066
31
0
0
LINE
8
layer0
10
1057.49058812784
20
372.932729410359
30
0
11
1057.49058812784
21
369.468627795221
31
0
0
LINE
8
layer0
10
1057.49058812784
20
369.468627795221
30
0
11
1047.10075722385
21
360.470770291343
31
0
0
LINE
8
layer0
10
1047.10075722385
20
360.470770291343
30
0
11
1047.10075722385
21
363.934871906481
31
0
0
LINE
8
layer0
10
1047.10075722385
20
363.934871906481
30
0
11
1057.49058812784
21
372.932729410359
31
0
0
LINE
8
layer0
10
1047.10075722385
20
363.934871906481
30
0
11
1047.10075722385
21
360.470770291343
31
0
0
LINE
8
layer0
10
1047.10075722385
20
360.470770291343
30
0
11
1029.90396592746
21
345.577912165089
31
0
0
LINE
8
layer0
10
1029.90396592746
20
345.577912165089
30
0
11
1029.90396592746
21
349.042013780226
31
0
0
LINE
8
layer0
10
1029.90396592746
20
349.042013780226
30
0
11
1047.10075722385
21
363.934871906481
31
0
0
LINE
8
layer0
10
1029.90396592746
20
349.042013780226
30
0
11
1029.90396592746
21
345.577912165089
31
0
0
LINE
8
layer0
10
1029.90396592746
20
345.577912165089
30
0
11
961.442450803717
21
286.288500886353
31
0
0
LINE
8
layer0
10
961.442450803717
20
286.288500886353
30
0
11
961.442450803717
21
289.75260250149
31
0
0
LINE
8
layer0
10
961.442450803717
20
289.75260250149
30
0
11
1029.90396592746
21
349.042013780226
31
0
0
LINE
8
layer0
10
961.442450803717
20
289.75260250149
30
0
11
961.442450803717
21
286.288500886353
31
0
0
LINE
8
layer0
10
961.442450803717
20
286.288500886353
30
0
11
904.648723523842
21
237.103690286376
31
0
0
LINE
8
layer0
10
904.648723523842
20
237.103690286376
30
0
11
904.648723523842
21
240.567791901514
31
0
0
LINE
8
layer0
10
904.648723523842
20
240.567791901514
30
0
11
961.442450803717
21
289.75260250149
31
0
0
LINE
8
layer0
10
904.648723523842
20
240.567791901514
30
0
11
904.648723523842
21
237.103690286376
31
0
0
LINE
8
layer0
10
904.648723523842
20
237.103690286376
30
0
11
901.285057615361
21
232.722365648643
31
0
0
LINE
8
layer0
10
901.285057615361
20
232.722365648643
30
0
11
901.285057615361
21
236.18646726378
31
0
0
LINE
8
layer0
10
901.285057615361
20
236.18646726378
30
0
11
904.648723523842
21
240.567791901514
31
0
0
LINE
8
layer0
10
901.285057615361
20
236.18646726378
30
0
11
901.285057615361
21
232.722365648643
31
0
0
LINE
8
layer0
10
901.285057615361
20
232.722365648643
30
0
11
900.793828776327
21
228.035763337361
31
0
0
LINE
8
layer0
10
900.793828776327
20
228.035763337361
30
0
11
900.793828776327
21
231.499864952499
31
0
0
LINE
8
layer0
10
900.793828776327
20
231.499864952499
30
0
11
901.285057615361
21
236.18646726378
31
0
0
LINE
8
layer0
10
900.793828776327
20
231.499864952499
30
0
11
900.793828776327
21
228.035763337361
31
0
0
LINE
8
layer0
10
900.793828776327
20
228.035763337361
30
0
11
903.223121908098
21
223.502640640239
31
0
0
LINE
8
layer0
10
903.223121908098
20
223.502640640239
30
0
11
903.223121908098
21
226.966742255377
31
0
0
LINE
8
layer0
10
903.223121908098
20
226.966742255377
30
0
11
900.793828776327
21
231.499864952499
31
0
0
LINE
8
layer0
10
903.223121908098
20
226.966742255377
30
0
11
903.223121908098
21
223.502640640239
31
0
0
LINE
8
layer0
10
903.223121908098
20
223.502640640239
30
0
11
908.335140873054
21
219.566731190993
31
0
0
LINE
8
layer0
10
908.335140873054
20
219.566731190993
30
0
11
908.335140873054
21
223.030832806131
31
0
0
LINE
8
layer0
10
908.335140873054
20
223.030832806131
30
0
11
903.223121908098
21
226.966742255377
31
0
0
LINE
8
layer0
10
908.335140873054
20
223.030832806131
30
0
11
908.335140873054
21
219.566731190993
31
0
0
LINE
8
layer0
10
908.335140873054
20
219.566731190993
30
0
11
915.629485637376
21
216.61330922961
31
0
0
LINE
8
layer0
10
915.629485637376
20
216.61330922961
30
0
11
915.629485637376
21
220.077410844747
31
0
0
LINE
8
layer0
10
915.629485637376
20
220.077410844747
30
0
11
908.335140873054
21
223.030832806131
31
0
0
LINE
8
layer0
10
915.629485637376
20
220.077410844747
30
0
11
915.629485637376
21
216.61330922961
31
0
0
LINE
8
layer0
10
915.629485637376
20
216.61330922961
30
0
11
923.859382570489
21
214.237542624742
31
0
0
LINE
8
layer0
10
923.859382570489
20
214.237542624742
30
0
11
923.859382570489
21
217.701644239879
31
0
0
LINE
8
layer0
10
923.859382570489
20
217.701644239879
30
0
11
915.629485637376
21
220.077410844747
31
0
0
LINE
8
layer0
10
923.859382570489
20
217.701644239879
30
0
11
923.859382570489
21
214.237542624742
31
0
0
LINE
8
layer0
10
923.859382570489
20
214.237542624742
30
0
11
939.286070079904
21
209.784241531609
31
0
0
LINE
8
layer0
10
939.286070079904
20
209.784241531609
30
0
11
939.286070079904
21
213.248343146747
31
0
0
LINE
8
layer0
10
939.286070079904
20
213.248343146747
30
0
11
923.859382570489
21
217.701644239879
31
0
0
LINE
8
layer0
10
939.286070079904
20
213.248343146747
30
0
11
939.286070079904
21
209.784241531609
31
0
0
LINE
8
layer0
10
939.286070079904
20
209.784241531609
30
0
11
957.28178508766
21
204.589326079615
31
0
0
LINE
8
layer0
10
957.28178508766
20
204.589326079615
30
0
11
957.28178508766
21
208.053427694753
31
0
0
LINE
8
layer0
10
957.28178508766
20
208.053427694753
30
0
11
939.286070079904
21
213.248343146747
31
0
0
LINE
8
layer0
10
957.28178508766
20
208.053427694753
30
0
11
957.28178508766
21
204.589326079615
31
0
0
LINE
8
layer0
10
957.28178508766
20
204.589326079615
30
0
11
987.067501340169
21
195.990930431419
31
0
0
LINE
8
layer0
10
987.067501340169
20
195.990930431419
30
0
11
987.067501340169
21
199.455032046557
31
0
0
LINE
8
layer0
10
987.067501340169
20
199.455032046557
30
0
11
957.28178508766
21
208.053427694753
31
0
0
LINE
8
layer0
10
987.067501340169
20
199.455032046557
30
0
11
987.067501340169
21
195.990930431419
31
0
0
LINE
8
layer0
10
987.067501340169
20
195.990930431419
30
0
11
1105.64632389764
21
161.760172869547
31
0
0
LINE
8
layer0
10
1105.64632389764
20
161.760172869547
30
0
11
1105.64632389764
21
165.224274484685
31
0
0
LINE
8
layer0
10
1105.64632389764
20
165.224274484685
30
0
11
987.067501340169
21
199.455032046557
31
0
0
LINE
8
layer0
10
1105.64632389764
20
165.224274484685
30
0
11
1105.64632389764
21
161.760172869547
31
0
0
LINE
8
layer0
10
1105.64632389764
20
161.760172869547
30
0
11
1249.04926609438
21
120.36330922961
31
0
0
LINE
8
layer0
10
1249.04926609438
20
120.36330922961
30
0
11
1249.04926609438
21
123.827410844747
31
0
0
LINE
8
layer0
10
1249.04926609438
20
123.827410844747
30
0
11
1105.64632389764
21
165.224274484685
31
0
0
LINE
8
layer0
10
1249.04926609438
20
123.827410844747
30
0
11
1249.04926609438
21
120.36330922961
31
0
0
LINE
8
layer0
10
1249.04926609438
20
120.36330922961
30
0
11
1257.81191536985
21
118.681476275369
31
0
0
LINE
8
layer0
10
1257.81191536985
20
118.681476275369
30
0
11
1257.81191536985
21
122.145577890507
31
0
0
LINE
8
layer0
10
1257.81191536985
20
122.145577890507
30
0
11
1249.04926609438
21
123.827410844747
31
0
0
LINE
8
layer0
10
1257.81191536985
20
122.145577890507
30
0
11
1257.81191536985
21
118.681476275369
31
0
0
LINE
8
layer0
10
1257.81191536985
20
118.681476275369
30
0
11
1267.18511999241
21
118.435861855852
31
0
0
LINE
8
layer0
10
1267.18511999241
20
118.435861855852
30
0
11
1267.18511999241
21
121.89996347099
31
0
0
LINE
8
layer0
10
1267.18511999241
20
121.89996347099
30
0
11
1257.81191536985
21
122.145577890507
31
0
0
LINE
8
layer0
10
1267.18511999241
20
121.89996347099
30
0
11
1267.18511999241
21
118.435861855852
31
0
0
LINE
8
layer0
10
1267.18511999241
20
118.435861855852
30
0
11
1276.25136538666
21
119.650508421737
31
0
0
LINE
8
layer0
10
1276.25136538666
20
119.650508421737
30
0
11
1276.25136538666
21
123.114610036875
31
0
0
LINE
8
layer0
10
1276.25136538666
20
123.114610036875
30
0
11
1267.18511999241
21
121.89996347099
31
0
0
LINE
8
layer0
10
1276.25136538666
20
123.114610036875
30
0
11
1276.25136538666
21
119.650508421737
31
0
0
LINE
8
layer0
10
1276.25136538666
20
119.650508421737
30
0
11
1284.12318428515
21
122.206517904215
31
0
0
LINE
8
layer0
10
1284.12318428515
20
122.206517904215
30
0
11
1284.12318428515
21
125.670619519353
31
0
0
LINE
8
layer0
10
1284.12318428515
20
125.670619519353
30
0
11
1276.25136538666
21
123.114610036875
31
0
0
LINE
8
layer0
10
1284.12318428515
20
125.670619519353
30
0
11
1284.12318428515
21
122.206517904215
31
0
0
LINE
8
layer0
10
1284.12318428515
20
122.206517904215
30
0
11
1290.03002820792
21
125.853690286376
31
0
0
LINE
8
layer0
10
1290.03002820792
20
125.853690286376
30
0
11
1290.03002820792
21
129.317791901514
31
0
0
LINE
8
layer0
10
1290.03002820792
20
129.317791901514
30
0
11
1284.12318428515
21
125.670619519353
31
0
0
LINE
8
layer0
10
1290.03002820792
20
129.317791901514
30
0
11
1290.03002820792
21
125.853690286376
31
0
0
LINE
8
layer0
10
1290.03002820792
20
125.853690286376
30
0
11
1294.78156141765
21
129.968638752933
31
0
0
LINE
8
layer0
10
1294.78156141765
20
129.968638752933
30
0
11
1294.78156141765
21
133.432740368071
31
0
0
LINE
8
layer0
10
1294.78156141765
20
133.432740368071
30
0
11
1290.03002820792
21
129.317791901514
31
0
0
LINE
8
layer0
10
1294.78156141765
20
133.432740368071
30
0
11
1294.78156141765
21
129.968638752933
31
0
0
LINE
8
layer0
10
1294.78156141765
20
129.968638752933
30
0
11
1303.68816360392
21
137.68198250764
31
0
0
LINE
8
layer0
10
1303.68816360392
20
137.68198250764
30
0
11
1303.68816360392
21
141.146084122778
31
0
0
LINE
8
layer0
10
1303.68816360392
20
141.146084122778
30
0
11
1294.78156141765
21
133.432740368071
31
0
0
LINE
8
layer0
10
1303.68816360392
20
141.146084122778
30
0
11
1303.68816360392
21
137.68198250764
31
0
0
LINE
8
layer0
10
1303.68816360392
20
137.68198250764
30
0
11
1314.07799450791
21
146.679840011519
31
0
0
LINE
8
layer0
10
1314.07799450791
20
146.679840011519
30
0
11
1314.07799450791
21
150.143941626656
31
0
0
LINE
8
layer0
10
1314.07799450791
20
150.143941626656
30
0
11
1303.68816360392
21
141.146084122778
31
0
0
LINE
8
layer0
10
1314.07799450791
20
150.143941626656
30
0
11
1314.07799450791
21
146.679840011519
31
0
0
LINE
8
layer0
10
1314.07799450791
20
146.679840011519
30
0
11
1331.2747858043
21
161.572698137773
31
0
0
LINE
8
layer0
10
1331.2747858043
20
161.572698137773
30
0
11
1331.2747858043
21
165.036799752911
31
0
0
LINE
8
layer0
10
1331.2747858043
20
165.036799752911
30
0
11
1314.07799450791
21
150.143941626656
31
0
0
LINE
8
layer0
10
1331.2747858043
20
165.036799752911
30
0
11
1331.2747858043
21
161.572698137773
31
0
0
LINE
8
layer0
10
1331.2747858043
20
161.572698137773
30
0
11
1399.73630092804
21
220.862109416509
31
0
0
LINE
8
layer0
10
1399.73630092804
20
220.862109416509
30
0
11
1399.73630092804
21
224.326211031647
31
0
0
LINE
8
layer0
10
1399.73630092804
20
224.326211031647
30
0
11
1331.2747858043
21
165.036799752911
31
0
0
LINE
8
layer0
10
1399.73630092804
20
224.326211031647
30
0
11
1399.73630092804
21
220.862109416509
31
0
0
LINE
8
layer0
10
1399.73630092804
20
220.862109416509
30
0
11
1456.53002820792
21
270.046920016485
31
0
0
LINE
8
layer0
10
1456.53002820792
20
270.046920016485
30
0
11
1456.53002820792
21
273.511021631623
31
0
0
LINE
8
layer0
10
1456.53002820792
20
273.511021631623
30
0
11
1399.73630092804
21
224.326211031647
31
0
0
LINE
8
layer0
10
1456.53002820792
20
273.511021631623
30
0
11
1456.53002820792
21
270.046920016485
31
0
0
LINE
8
layer0
10
1456.53002820792
20
270.046920016485
30
0
11
1459.8936941164
21
274.428244654219
31
0
0
LINE
8
layer0
10
1459.8936941164
20
274.428244654219
30
0
11
1459.8936941164
21
277.892346269357
31
0
0
LINE
8
layer0
10
1459.8936941164
20
277.892346269357
30
0
11
1456.53002820792
21
273.511021631623
31
0
0
LINE
8
layer0
10
1459.8936941164
20
277.892346269357
30
0
11
1459.8936941164
21
274.428244654219
31
0
0
LINE
8
layer0
10
1459.8936941164
20
274.428244654219
30
0
11
1460.38492295543
21
279.1148469655
31
0
0
LINE
8
layer0
10
1460.38492295543
20
279.1148469655
30
0
11
1460.38492295543
21
282.578948580638
31
0
0
LINE
8
layer0
10
1460.38492295543
20
282.578948580638
30
0
11
1459.8936941164
21
277.892346269357
31
0
0
LINE
8
layer0
10
1460.38492295543
20
282.578948580638
30
0
11
1460.38492295543
21
279.1148469655
31
0
0
LINE
8
layer0
10
1460.38492295543
20
279.1148469655
30
0
11
1457.95562982366
21
283.647969662622
31
0
0
LINE
8
layer0
10
1457.95562982366
20
283.647969662622
30
0
11
1457.95562982366
21
287.11207127776
31
0
0
LINE
8
layer0
10
1457.95562982366
20
287.11207127776
30
0
11
1460.38492295543
21
282.578948580638
31
0
0
LINE
8
layer0
10
1457.95562982366
20
287.11207127776
30
0
11
1457.95562982366
21
283.647969662622
31
0
0
LINE
8
layer0
10
1457.95562982366
20
283.647969662622
30
0
11
1452.84361085871
21
287.583879111868
31
0
0
LINE
8
layer0
10
1452.84361085871
20
287.583879111868
30
0
11
1452.84361085871
21
291.047980727006
31
0
0
LINE
8
layer0
10
1452.84361085871
20
291.047980727006
30
0
11
1457.95562982366
21
287.11207127776
31
0
0
LINE
8
layer0
10
1452.84361085871
20
291.047980727006
30
0
11
1452.84361085871
21
287.583879111868
31
0
0
LINE
8
layer0
10
1452.84361085871
20
287.583879111868
30
0
11
1445.54926609438
21
290.537301073252
31
0
0
LINE
8
layer0
10
1445.54926609438
20
290.537301073252
30
0
11
1445.54926609438
21
294.00140268839
31
0
0
LINE
8
layer0
10
1445.54926609438
20
294.00140268839
30
0
11
1452.84361085871
21
291.047980727006
31
0
0
LINE
8
layer0
10
1404.56850398085
20
285.046920016485
30
0
11
1404.56850398085
21
288.511021631623
31
0
0
LINE
8
layer0
10
1404.56850398085
20
288.511021631623
30
0
11
1123.11024775091
21
369.761021631623
31
0
0
LINE
8
layer0
10
1123.11024775091
20
369.761021631623
30
0
11
1123.11024775091
21
366.296920016485
31
0
0
LINE
8
layer0
10
1123.11024775091
20
366.296920016485
30
0
11
1404.56850398085
21
285.046920016485
31
0
0
LINE
8
layer0
10
1123.11024775091
20
366.296920016485
30
0
11
1123.11024775091
21
369.761021631623
31
0
0
LINE
8
layer0
10
1123.11024775091
20
369.761021631623
30
0
11
1114.34759847544
21
371.442854585864
31
0
0
LINE
8
layer0
10
1114.34759847544
20
371.442854585864
30
0
11
1114.34759847544
21
367.978752970726
31
0
0
LINE
8
layer0
10
1114.34759847544
20
367.978752970726
30
0
11
1123.11024775091
21
366.296920016485
31
0
0
LINE
8
layer0
10
1114.34759847544
20
367.978752970726
30
0
11
1114.34759847544
21
371.442854585864
31
0
0
LINE
8
layer0
10
1114.34759847544
20
371.442854585864
30
0
11
1104.97439385288
21
371.688469005381
31
0
0
LINE
8
layer0
10
1104.97439385288
20
371.688469005381
30
0
11
1104.97439385288
21
368.224367390243
31
0
0
LINE
8
layer0
10
1104.97439385288
20
368.224367390243
30
0
11
1114.34759847544
21
367.978752970726
31
0
0
LINE
8
layer0
10
1104.97439385288
20
368.224367390243
30
0
11
1104.97439385288
21
371.688469005381
31
0
0
LINE
8
layer0
10
1104.97439385288
20
371.688469005381
30
0
11
1095.90814845863
21
370.473822439495
31
0
0
LINE
8
layer0
10
1095.90814845863
20
370.473822439495
30
0
11
1095.90814845863
21
367.009720824358
31
0
0
LINE
8
layer0
10
1095.90814845863
20
367.009720824358
30
0
11
1104.97439385288
21
368.224367390243
31
0
0
LINE
8
layer0
10
1095.90814845863
20
367.009720824358
30
0
11
1095.90814845863
21
370.473822439495
31
0
0
LINE
8
layer0
10
1095.90814845863
20
370.473822439495
30
0
11
1088.03632956014
21
367.917812957017
31
0
0
LINE
8
layer0
10
1088.03632956014
20
367.917812957017
30
0
11
1088.03632956014
21
364.45371134188
31
0
0
LINE
8
layer0
10
1088.03632956014
20
364.45371134188
30
0
11
1095.90814845863
21
367.009720824358
31
0
0
LINE
8
layer0
10
1088.03632956014
20
364.45371134188
30
0
11
1088.03632956014
21
367.917812957017
31
0
0
LINE
8
layer0
10
1088.03632956014
20
367.917812957017
30
0
11
1082.12948563738
21
364.270640574856
31
0
0
LINE
8
layer0
10
1082.12948563738
20
364.270640574856
30
0
11
1082.12948563738
21
360.806538959719
31
0
0
LINE
8
layer0
10
1082.12948563738
20
360.806538959719
30
0
11
1088.03632956014
21
364.45371134188
31
0
0
LINE
8
layer0
10
1082.12948563738
20
360.806538959719
30
0
11
1082.12948563738
21
364.270640574856
31
0
0
LINE
8
layer0
10
1082.12948563738
20
364.270640574856
30
0
11
945.629485637376
21
246.058172958281
31
0
0
LINE
8
layer0
10
945.629485637376
20
246.058172958281
30
0
11
945.629485637376
21
242.594071343143
31
0
0
LINE
8
layer0
10
945.629485637376
20
242.594071343143
30
0
11
1082.12948563738
21
360.806538959719
31
0
0
LINE
8
layer0
10
945.629485637376
20
242.594071343143
30
0
11
945.629485637376
21
246.058172958281
31
0
0
LINE
8
layer0
10
945.629485637376
20
246.058172958281
30
0
11
942.265819728895
21
241.676848320547
31
0
0
LINE
8
layer0
10
942.265819728895
20
241.676848320547
30
0
11
942.265819728895
21
238.212746705409
31
0
0
LINE
8
layer0
10
942.265819728895
20
238.212746705409
30
0
11
945.629485637376
21
242.594071343143
31
0
0
LINE
8
layer0
10
942.265819728895
20
238.212746705409
30
0
11
942.265819728895
21
241.676848320547
31
0
0
LINE
8
layer0
10
942.265819728895
20
241.676848320547
30
0
11
941.774590889861
21
236.990246009266
31
0
0
LINE
8
layer0
10
941.774590889861
20
236.990246009266
30
0
11
941.774590889861
21
233.526144394128
31
0
0
LINE
8
layer0
10
941.774590889861
20
233.526144394128
30
0
11
942.265819728895
21
238.212746705409
31
0
0
LINE
8
layer0
10
941.774590889861
20
233.526144394128
30
0
11
941.774590889861
21
236.990246009266
31
0
0
LINE
8
layer0
10
941.774590889861
20
236.990246009266
30
0
11
944.203884021631
21
232.457123312144
31
0
0
LINE
8
layer0
10
944.203884021631
20
232.457123312144
30
0
11
944.203884021631
21
228.993021697006
31
0
0
LINE
8
layer0
10
944.203884021631
20
228.993021697006
30
0
11
941.774590889861
21
233.526144394128
31
0
0
LINE
8
layer0
10
944.203884021631
20
228.993021697006
30
0
11
944.203884021631
21
232.457123312144
31
0
0
LINE
8
layer0
10
944.203884021631
20
232.457123312144
30
0
11
949.315902986587
21
228.521213862898
31
0
0
LINE
8
layer0
10
949.315902986587
20
228.521213862898
30
0
11
949.315902986587
21
225.05711224776
31
0
0
LINE
8
layer0
10
949.315902986587
20
225.05711224776
30
0
11
944.203884021631
21
228.993021697006
31
0
0
LINE
8
layer0
10
949.315902986587
20
225.05711224776
30
0
11
949.315902986587
21
228.521213862898
31
0
0
LINE
8
layer0
10
949.315902986587
20
228.521213862898
30
0
11
956.610247750909
21
225.567791901514
31
0
0
LINE
8
layer0
10
956.610247750909
20
225.567791901514
30
0
11
956.610247750909
21
222.103690286376
31
0
0
LINE
8
layer0
10
956.610247750909
20
222.103690286376
30
0
11
949.315902986587
21
225.05711224776
31
0
0
LINE
8
layer0
10
956.610247750909
20
222.103690286376
30
0
11
956.610247750909
21
225.567791901514
31
0
0
LINE
8
layer0
10
956.610247750909
20
225.567791901514
30
0
11
1238.06850398085
21
144.317791901514
31
0
0
LINE
8
layer0
10
1238.06850398085
20
144.317791901514
30
0
11
1238.06850398085
21
140.853690286376
31
0
0
LINE
8
layer0
10
1238.06850398085
20
140.853690286376
30
0
11
956.610247750909
21
222.103690286376
31
0
0
LINE
8
layer0
10
1238.06850398085
20
140.853690286376
30
0
11
1238.06850398085
21
144.317791901514
31
0
0
LINE
8
layer0
10
1238.06850398085
20
144.317791901514
30
0
11
1246.83115325632
21
142.635958947273
31
0
0
LINE
8
layer0
10
1246.83115325632
20
142.635958947273
30
0
11
1246.83115325632
21
139.171857332136
31
0
0
LINE
8
layer0
10
1246.83115325632
20
139.171857332136
30
0
11
1238.06850398085
21
140.853690286376
31
0
0
LINE
8
layer0
10
1246.83115325632
20
139.171857332136
30
0
11
1246.83115325632
21
142.635958947273
31
0
0
LINE
8
layer0
10
1246.83115325632
20
142.635958947273
30
0
11
1256.20435787888
21
142.390344527757
31
0
0
LINE
8
layer0
10
1256.20435787888
20
142.390344527757
30
0
11
1256.20435787888
21
138.926242912619
31
0
0
LINE
8
layer0
10
1256.20435787888
20
138.926242912619
30
0
11
1246.83115325632
21
139.171857332136
31
0
0
LINE
8
layer0
10
1256.20435787888
20
138.926242912619
30
0
11
1256.20435787888
21
142.390344527757
31
0
0
LINE
8
layer0
10
1256.20435787888
20
142.390344527757
30
0
11
1265.27060327313
21
143.604991093642
31
0
0
LINE
8
layer0
10
1265.27060327313
20
143.604991093642
30
0
11
1265.27060327313
21
140.140889478504
31
0
0
LINE
8
layer0
10
1265.27060327313
20
140.140889478504
30
0
11
1256.20435787888
21
138.926242912619
31
0
0
LINE
8
layer0
10
1265.27060327313
20
140.140889478504
30
0
11
1265.27060327313
21
143.604991093642
31
0
0
LINE
8
layer0
10
1265.27060327313
20
143.604991093642
30
0
11
1273.14242217162
21
146.16100057612
31
0
0
LINE
8
layer0
10
1273.14242217162
20
146.16100057612
30
0
11
1273.14242217162
21
142.696898960982
31
0
0
LINE
8
layer0
10
1273.14242217162
20
142.696898960982
30
0
11
1265.27060327313
21
140.140889478504
31
0
0
LINE
8
layer0
10
1273.14242217162
20
142.696898960982
30
0
11
1273.14242217162
21
146.16100057612
31
0
0
LINE
8
layer0
10
1273.14242217162
20
146.16100057612
30
0
11
1279.04926609438
21
149.808172958281
31
0
0
LINE
8
layer0
10
1279.04926609438
20
149.808172958281
30
0
11
1279.04926609438
21
146.344071343143
31
0
0
LINE
8
layer0
10
1279.04926609438
20
146.344071343143
30
0
11
1273.14242217162
21
142.696898960982
31
0
0
LINE
8
layer0
10
1279.04926609438
20
146.344071343143
30
0
11
1279.04926609438
21
149.808172958281
31
0
0
LINE
8
layer0
10
1279.04926609438
20
149.808172958281
30
0
11
1415.54926609438
21
268.020640574856
31
0
0
LINE
8
layer0
10
1415.54926609438
20
268.020640574856
30
0
11
1415.54926609438
21
264.556538959719
31
0
0
LINE
8
layer0
10
1415.54926609438
20
264.556538959719
30
0
11
1279.04926609438
21
146.344071343143
31
0
0
LINE
8
layer0
10
1415.54926609438
20
264.556538959719
30
0
11
1415.54926609438
21
268.020640574856
31
0
0
LINE
8
layer0
10
1415.54926609438
20
268.020640574856
30
0
11
1418.91293200287
21
272.40196521259
31
0
0
LINE
8
layer0
10
1418.91293200287
20
272.40196521259
30
0
11
1418.91293200287
21
268.937863597452
31
0
0
LINE
8
layer0
10
1418.91293200287
20
268.937863597452
30
0
11
1415.54926609438
21
264.556538959719
31
0
0
LINE
8
layer0
10
1418.91293200287
20
268.937863597452
30
0
11
1418.91293200287
21
272.40196521259
31
0
0
LINE
8
layer0
10
1418.91293200287
20
272.40196521259
30
0
11
1419.4041608419
21
277.088567523871
31
0
0
LINE
8
layer0
10
1419.4041608419
20
277.088567523871
30
0
11
1419.4041608419
21
273.624465908734
31
0
0
LINE
8
layer0
10
1419.4041608419
20
273.624465908734
30
0
11
1418.91293200287
21
268.937863597452
31
0
0
LINE
8
layer0
10
1419.4041608419
20
273.624465908734
30
0
11
1419.4041608419
21
277.088567523871
31
0
0
LINE
8
layer0
10
1419.4041608419
20
277.088567523871
30
0
11
1416.97486771013
21
281.621690220993
31
0
0
LINE
8
layer0
10
1416.97486771013
20
281.621690220993
30
0
11
1416.97486771013
21
278.157588605856
31
0
0
LINE
8
layer0
10
1416.97486771013
20
278.157588605856
30
0
11
1419.4041608419
21
273.624465908734
31
0
0
LINE
8
layer0
10
1416.97486771013
20
278.157588605856
30
0
11
1416.97486771013
21
281.621690220993
31
0
0
LINE
8
layer0
10
1416.97486771013
20
281.621690220993
30
0
11
1411.86284874517
21
285.557599670239
31
0
0
LINE
8
layer0
10
1411.86284874517
20
285.557599670239
30
0
11
1411.86284874517
21
282.093498055102
31
0
0
LINE
8
layer0
10
1411.86284874517
20
282.093498055102
30
0
11
1416.97486771013
21
278.157588605856
31
0
0
LINE
8
layer0
10
1411.86284874517
20
282.093498055102
30
0
11
1411.86284874517
21
285.557599670239
31
0
0
LINE
8
layer0
10
1411.86284874517
20
285.557599670239
30
0
11
1404.56850398085
21
288.511021631623
31
0
0
LINE
8
layer0
10
1404.56850398085
20
288.511021631623
30
0
11
1404.56850398085
21
285.046920016485
31
0
0
LINE
8
layer0
10
1404.56850398085
20
285.046920016485
30
0
11
1411.86284874517
21
282.093498055102
31
0
0
LINE
8
layer0
10
1445.54926609438
20
294.00140268839
30
0
11
1112.12948563738
21
390.25140268839
31
0
0
LINE
8
layer0
10
1112.12948563738
20
390.25140268839
30
0
11
1103.36683636191
21
391.93323564263
31
0
0
LINE
8
layer0
10
1103.36683636191
20
391.93323564263
30
0
11
1093.99363173935
21
392.178850062147
31
0
0
LINE
8
layer0
10
1093.99363173935
20
392.178850062147
30
0
11
1084.9273863451
21
390.964203496262
31
0
0
LINE
8
layer0
10
1084.9273863451
20
390.964203496262
30
0
11
1077.05556744661
21
388.408194013784
31
0
0
LINE
8
layer0
10
1077.05556744661
20
388.408194013784
30
0
11
1071.14872352384
21
384.761021631623
31
0
0
LINE
8
layer0
10
1071.14872352384
20
384.761021631623
30
0
11
1071.14872352384
21
384.761021631623
31
0
0
LINE
8
layer0
10
1071.14872352384
20
384.761021631623
30
0
11
1456.53002820792
21
273.511021631623
31
0
0
LINE
8
layer0
10
1456.53002820792
20
273.511021631623
30
0
11
1459.8936941164
21
277.892346269357
31
0
0
LINE
8
layer0
10
1459.8936941164
20
277.892346269357
30
0
11
1460.38492295543
21
282.578948580638
31
0
0
LINE
8
layer0
10
1460.38492295543
20
282.578948580638
30
0
11
1457.95562982366
21
287.11207127776
31
0
0
LINE
8
layer0
10
1457.95562982366
20
287.11207127776
30
0
11
1452.84361085871
21
291.047980727006
31
0
0
LINE
8
layer0
10
1452.84361085871
20
291.047980727006
30
0
11
1445.54926609438
21
294.00140268839
31
0
0
LINE
8
layer0
10
1066.39719031411
20
380.646073165066
30
0
11
1123.11024775091
21
369.761021631623
31
0
0
LINE
8
layer0
10
1123.11024775091
20
369.761021631623
30
0
11
1071.14872352384
21
384.761021631623
31
0
0
LINE
8
layer0
10
1071.14872352384
20
384.761021631623
30
0
11
1066.39719031411
21
380.646073165066
31
0
0
LINE
8
layer0
10
1057.49058812784
20
372.932729410359
30
0
11
1114.34759847544
21
371.442854585864
31
0
0
LINE
8
layer0
10
1114.34759847544
20
371.442854585864
30
0
11
1066.39719031411
21
380.646073165066
31
0
0
LINE
8
layer0
10
1066.39719031411
20
380.646073165066
30
0
11
1057.49058812784
21
372.932729410359
31
0
0
LINE
8
layer0
10
1047.10075722385
20
363.934871906481
30
0
11
1104.97439385288
21
371.688469005381
31
0
0
LINE
8
layer0
10
1104.97439385288
20
371.688469005381
30
0
11
1057.49058812784
21
372.932729410359
31
0
0
LINE
8
layer0
10
1057.49058812784
20
372.932729410359
30
0
11
1047.10075722385
21
363.934871906481
31
0
0
LINE
8
layer0
10
1029.90396592746
20
349.042013780226
30
0
11
1095.90814845863
21
370.473822439495
31
0
0
LINE
8
layer0
10
1095.90814845863
20
370.473822439495
30
0
11
1047.10075722385
21
363.934871906481
31
0
0
LINE
8
layer0
10
1047.10075722385
20
363.934871906481
30
0
11
1029.90396592746
21
349.042013780226
31
0
0
LINE
8
layer0
10
961.442450803717
20
289.75260250149
30
0
11
1088.03632956014
21
367.917812957017
31
0
0
LINE
8
layer0
10
1088.03632956014
20
367.917812957017
30
0
11
1029.90396592746
21
349.042013780226
31
0
0
LINE
8
layer0
10
1029.90396592746
20
349.042013780226
30
0
11
961.442450803717
21
289.75260250149
31
0
0
LINE
8
layer0
10
915.629485637376
20
220.077410844747
30
0
11
1082.12948563738
21
364.270640574856
31
0
0
LINE
8
layer0
10
1082.12948563738
20
364.270640574856
30
0
11
961.442450803717
21
289.75260250149
31
0
0
LINE
8
layer0
10
961.442450803717
20
289.75260250149
30
0
11
904.648723523842
21
240.567791901514
31
0
0
LINE
8
layer0
10
904.648723523842
20
240.567791901514
30
0
11
901.285057615361
21
236.18646726378
31
0
0
LINE
8
layer0
10
901.285057615361
20
236.18646726378
30
0
11
900.793828776327
21
231.499864952499
31
0
0
LINE
8
layer0
10
900.793828776327
20
231.499864952499
30
0
11
903.223121908098
21
226.966742255377
31
0
0
LINE
8
layer0
10
903.223121908098
20
226.966742255377
30
0
11
908.335140873054
21
223.030832806131
31
0
0
LINE
8
layer0
10
908.335140873054
20
223.030832806131
30
0
11
915.629485637376
21
220.077410844747
31
0
0
LINE
8
layer0
10
915.629485637376
20
220.077410844747
30
0
11
915.629485637376
21
220.077410844747
31
0
0
LINE
8
layer0
10
923.859382570489
20
217.701644239879
30
0
11
945.629485637376
21
246.058172958281
31
0
0
LINE
8
layer0
10
945.629485637376
20
246.058172958281
30
0
11
915.629485637376
21
220.077410844747
31
0
0
LINE
8
layer0
10
915.629485637376
20
220.077410844747
30
0
11
923.859382570489
21
217.701644239879
31
0
0
LINE
8
layer0
10
939.286070079904
20
213.248343146747
30
0
11
942.265819728895
21
241.676848320547
31
0
0
LINE
8
layer0
10
942.265819728895
20
241.676848320547
30
0
11
923.859382570489
21
217.701644239879
31
0
0
LINE
8
layer0
10
923.859382570489
20
217.701644239879
30
0
11
939.286070079904
21
213.248343146747
31
0
0
LINE
8
layer0
10
957.28178508766
20
208.053427694753
30
0
11
941.774590889861
21
236.990246009266
31
0
0
LINE
8
layer0
10
941.774590889861
20
236.990246009266
30
0
11
939.286070079904
21
213.248343146747
31
0
0
LINE
8
layer0
10
939.286070079904
20
213.248343146747
30
0
11
957.28178508766
21
208.053427694753
31
0
0
LINE
8
layer0
10
987.067501340169
20
199.455032046557
30
0
11
944.203884021631
21
232.457123312144
31
0
0
LINE
8
layer0
10
944.203884021631
20
232.457123312144
30
0
11
957.28178508766
21
208.053427694753
31
0
0
LINE
8
layer0
10
957.28178508766
20
208.053427694753
30
0
11
987.067501340169
21
199.455032046557
31
0
0
LINE
8
layer0
10
1105.64632389764
20
165.224274484685
30
0
11
949.315902986587
21
228.521213862898
31
0
0
LINE
8
layer0
10
949.315902986587
20
228.521213862898
30
0
11
987.067501340169
21
199.455032046557
31
0
0
LINE
8
layer0
10
987.067501340169
20
199.455032046557
30
0
11
1105.64632389764
21
165.224274484685
31
0
0
LINE
8
layer0
10
1290.03002820792
20
129.317791901514
30
0
11
956.610247750909
21
225.567791901514
31
0
0
LINE
8
layer0
10
956.610247750909
20
225.567791901514
30
0
11
1105.64632389764
21
165.224274484685
31
0
0
LINE
8
layer0
10
1105.64632389764
20
165.224274484685
30
0
11
1249.04926609438
21
123.827410844747
31
0
0
LINE
8
layer0
10
1249.04926609438
20
123.827410844747
30
0
11
1257.81191536985
21
122.145577890507
31
0
0
LINE
8
layer0
10
1257.81191536985
20
122.145577890507
30
0
11
1267.18511999241
21
121.89996347099
31
0
0
LINE
8
layer0
10
1267.18511999241
20
121.89996347099
30
0
11
1276.25136538666
21
123.114610036875
31
0
0
LINE
8
layer0
10
1276.25136538666
20
123.114610036875
30
0
11
1284.12318428515
21
125.670619519353
31
0
0
LINE
8
layer0
10
1284.12318428515
20
125.670619519353
30
0
11
1290.03002820792
21
129.317791901514
31
0
0
LINE
8
layer0
10
1290.03002820792
20
129.317791901514
30
0
11
1290.03002820792
21
129.317791901514
31
0
0
LINE
8
layer0
10
1294.78156141765
20
133.432740368071
30
0
11
1238.06850398085
21
144.317791901514
31
0
0
LINE
8
layer0
10
1238.06850398085
20
144.317791901514
30
0
11
1290.03002820792
21
129.317791901514
31
0
0
LINE
8
layer0
10
1290.03002820792
20
129.317791901514
30
0
11
1294.78156141765
21
133.432740368071
31
0
0
LINE
8
layer0
10
1303.68816360392
20
141.146084122778
30
0
11
1246.83115325632
21
142.635958947273
31
0
0
LINE
8
layer0
10
1246.83115325632
20
142.635958947273
30
0
11
1294.78156141765
21
133.432740368071
31
0
0
LINE
8
layer0
10
1294.78156141765
20
133.432740368071
30
0
11
1303.68816360392
21
141.146084122778
31
0
0
LINE
8
layer0
10
1314.07799450791
20
150.143941626656
30
0
11
1256.20435787888
21
142.390344527757
31
0
0
LINE
8
layer0
10
1256.20435787888
20
142.390344527757
30
0
11
1303.68816360392
21
141.146084122778
31
0
0
LINE
8
layer0
10
1303.68816360392
20
141.146084122778
30
0
11
1314.07799450791
21
150.143941626656
31
0
0
LINE
8
layer0
10
1331.2747858043
20
165.036799752911
30
0
11
1265.27060327313
21
143.604991093642
31
0
0
LINE
8
layer0
10
1265.27060327313
20
143.604991093642
30
0
11
1314.07799450791
21
150.143941626656
31
0
0
LINE
8
layer0
10
1314.07799450791
20
150.143941626656
30
0
11
1331.2747858043
21
165.036799752911
31
0
0
LINE
8
layer0
10
1399.73630092804
20
224.326211031647
30
0
11
1273.14242217162
21
146.16100057612
31
0
0
LINE
8
layer0
10
1273.14242217162
20
146.16100057612
30
0
11
1331.2747858043
21
165.036799752911
31
0
0
LINE
8
layer0
10
1331.2747858043
20
165.036799752911
30
0
11
1399.73630092804
21
224.326211031647
31
0
0
LINE
8
layer0
10
1456.53002820792
20
273.511021631623
30
0
11
1430.54926609438
21
281.011021631623
31
0
0
LINE
8
layer0
10
1430.54926609438
20
281.011021631623
30
0
11
1279.04926609438
21
149.808172958281
31
0
0
LINE
8
layer0
10
1279.04926609438
20
149.808172958281
30
0
11
1399.73630092804
21
224.326211031647
31
0
0
LINE
8
layer0
10
1399.73630092804
20
224.326211031647
30
0
11
1456.53002820792
21
273.511021631623
31
0
0
LINE
8
layer0
10
1456.53002820792
20
273.511021631623
30
0
11
1456.53002820792
21
273.511021631623
31
0
0
LINE
8
layer0
10
1426.43431762783
20
282.198904934057
30
0
11
1415.54926609438
21
268.020640574856
31
0
0
LINE
8
layer0
10
1415.54926609438
20
268.020640574856
30
0
11
1430.54926609438
21
281.011021631623
31
0
0
LINE
8
layer0
10
1430.54926609438
20
281.011021631623
30
0
11
1426.43431762783
21
282.198904934057
31
0
0
LINE
8
layer0
10
1420.13054114596
20
284.018648458415
30
0
11
1418.91293200287
21
272.40196521259
31
0
0
LINE
8
layer0
10
1418.91293200287
20
272.40196521259
30
0
11
1426.43431762783
21
282.198904934057
31
0
0
LINE
8
layer0
10
1426.43431762783
20
282.198904934057
30
0
11
1420.13054114596
21
284.018648458415
31
0
0
LINE
8
layer0
10
1414.87772875763
20
285.535004781617
30
0
11
1419.4041608419
21
277.088567523871
31
0
0
LINE
8
layer0
10
1419.4041608419
20
277.088567523871
30
0
11
1420.13054114596
21
284.018648458415
31
0
0
LINE
8
layer0
10
1420.13054114596
20
284.018648458415
30
0
11
1414.87772875763
21
285.535004781617
31
0
0
LINE
8
layer0
10
1410.10136705664
20
286.913821638525
30
0
11
1416.97486771013
21
281.621690220993
31
0
0
LINE
8
layer0
10
1416.97486771013
20
281.621690220993
30
0
11
1414.87772875763
21
285.535004781617
31
0
0
LINE
8
layer0
10
1414.87772875763
20
285.535004781617
30
0
11
1410.10136705664
21
286.913821638525
31
0
0
LINE
8
layer0
10
1404.56850398085
20
288.511021631623
30
0
11
1411.86284874517
21
285.557599670239
31
0
0
LINE
8
layer0
10
1411.86284874517
20
285.557599670239
30
0
11
1410.10136705664
21
286.913821638525
31
0
0
LINE
8
layer0
10
1410.10136705664
20
286.913821638525
30
0
11
1404.56850398085
21
288.511021631623
31
0
0
ENDBLK
0
BLOCK
8
layer0
2
PF_OBJECT71
70
0
10
0
20
0
30
0
0
LINE
8
layer0
10
1122.19518424145
20
238.10064120355
30
0
11
1412.31369450923
21
154.35064120355
31
0
0
LINE
8
layer0
10
1412.31369450923
20
154.35064120355
30
0
11
1419.60803927356
21
151.397219242166
31
0
0
LINE
8
layer0
10
1419.60803927356
20
151.397219242166
30
0
11
1424.72005823851
21
147.46130979292
31
0
0
LINE
8
layer0
10
1424.72005823851
20
147.46130979292
30
0
11
1427.14935137028
21
142.928187095798
31
0
0
LINE
8
layer0
10
1427.14935137028
20
142.928187095798
30
0
11
1426.65812253125
21
138.241584784517
31
0
0
LINE
8
layer0
10
1426.65812253125
20
138.241584784517
30
0
11
1423.29445662277
21
133.860260146784
31
0
0
LINE
8
layer0
10
1423.29445662277
20
133.860260146784
30
0
11
1281.79445662277
21
11.3176655112854
31
0
0
LINE
8
layer0
10
1281.79445662277
20
11.3176655112854
30
0
11
1275.8876127
21
7.67049312912445
31
0
0
LINE
8
layer0
10
1275.8876127
20
7.67049312912445
30
0
11
1268.01579380151
21
5.11448364664636
31
0
0
LINE
8
layer0
10
1268.01579380151
20
5.11448364664636
30
0
11
1258.94954840726
21
3.89983708076136
31
0
0
LINE
8
layer0
10
1258.94954840726
20
3.89983708076136
30
0
11
1249.5763437847
21
4.14545150027823
31
0
0
LINE
8
layer0
10
1249.5763437847
20
4.14545150027823
30
0
11
1240.81369450923
21
5.8272844545188
31
0
0
LINE
8
layer0
10
1240.81369450923
20
5.8272844545188
30
0
11
950.695184241448
21
89.5772844545188
31
0
0
LINE
8
layer0
10
950.695184241448
20
89.5772844545188
30
0
11
943.400839477126
21
92.5307064159025
31
0
0
LINE
8
layer0
10
943.400839477126
20
92.5307064159025
30
0
11
938.28882051217
21
96.4666158651484
31
0
0
LINE
8
layer0
10
938.28882051217
20
96.4666158651484
30
0
11
935.859527380399
21
100.999738562271
31
0
0
LINE
8
layer0
10
935.859527380399
20
100.999738562271
30
0
11
936.350756219434
21
105.686340873552
31
0
0
LINE
8
layer0
10
936.350756219434
20
105.686340873552
30
0
11
939.714422127914
21
110.067665511285
31
0
0
LINE
8
layer0
10
939.714422127914
20
110.067665511285
30
0
11
1081.21442212791
21
232.610260146783
31
0
0
LINE
8
layer0
10
1081.21442212791
20
232.610260146783
30
0
11
1087.12126605068
21
236.257432528944
31
0
0
LINE
8
layer0
10
1087.12126605068
20
236.257432528944
30
0
11
1094.99308494917
21
238.813442011422
31
0
0
LINE
8
layer0
10
1094.99308494917
20
238.813442011422
30
0
11
1104.05933034342
21
240.028088577308
31
0
0
LINE
8
layer0
10
1104.05933034342
20
240.028088577308
30
0
11
1113.43253496598
21
239.78247415779
31
0
0
LINE
8
layer0
10
1113.43253496598
20
239.78247415779
30
0
11
1122.19518424145
21
238.10064120355
31
0
0
LINE
8
layer0
10
1122.19518424145
20
242.430768222472
30
0
11
1412.31369450923
21
158.680768222472
31
0
0
LINE
8
layer0
10
1412.31369450923
20
158.680768222472
30
0
11
1412.31369450923
21
154.35064120355
31
0
0
LINE
8
layer0
10
1412.31369450923
20
154.35064120355
30
0
11
1122.19518424145
21
238.10064120355
31
0
0
LINE
8
layer0
10
1122.19518424145
20
238.10064120355
30
0
11
1122.19518424145
21
242.430768222472
31
0
0
LINE
8
layer0
10
1412.31369450923
20
284.254451771216
30
0
11
1412.31369450923
21
158.680768222472
31
0
0
LINE
8
layer0
10
1412.31369450923
20
158.680768222472
30
0
11
1122.19518424145
21
242.430768222472
31
0
0
LINE
8
layer0
10
1122.19518424145
20
242.430768222472
30
0
11
1122.19518424145
21
368.004451771216
31
0
0
LINE
8
layer0
10
1122.19518424145
20
368.004451771216
30
0
11
1412.31369450923
21
284.254451771216
31
0
0
LINE
8
layer0
10
1113.43253496598
20
244.112601176713
30
0
11
1122.19518424145
21
242.430768222472
31
0
0
LINE
8
layer0
10
1122.19518424145
20
242.430768222472
30
0
11
1122.19518424145
21
238.10064120355
31
0
0
LINE
8
layer0
10
1122.19518424145
20
238.10064120355
30
0
11
1113.43253496598
21
239.78247415779
31
0
0
LINE
8
layer0
10
1113.43253496598
20
239.78247415779
30
0
11
1113.43253496598
21
244.112601176713
31
0
0
LINE
8
layer0
10
1122.19518424145
20
368.004451771216
30
0
11
1122.19518424145
21
242.430768222472
31
0
0
LINE
8
layer0
10
1122.19518424145
20
242.430768222472
30
0
11
1113.43253496598
21
244.112601176713
31
0
0
LINE
8
layer0
10
1113.43253496598
20
244.112601176713
30
0
11
1113.43253496598
21
369.686284725456
31
0
0
LINE
8
layer0
10
1113.43253496598
20
369.686284725456
30
0
11
1122.19518424145
21
368.004451771216
31
0
0
LINE
8
layer0
10
1104.05933034342
20
244.35821559623
30
0
11
1113.43253496598
21
244.112601176713
31
0
0
LINE
8
layer0
10
1113.43253496598
20
244.112601176713
30
0
11
1113.43253496598
21
239.78247415779
31
0
0
LINE
8
layer0
10
1113.43253496598
20
239.78247415779
30
0
11
1104.05933034342
21
240.028088577308
31
0
0
LINE
8
layer0
10
1104.05933034342
20
240.028088577308
30
0
11
1104.05933034342
21
244.35821559623
31
0
0
LINE
8
layer0
10
1113.43253496598
20
369.686284725456
30
0
11
1113.43253496598
21
244.112601176713
31
0
0
LINE
8
layer0
10
1113.43253496598
20
244.112601176713
30
0
11
1111.1631447769
21
244.172068026781
31
0
0
LINE
8
layer0
10
1111.1631447769
20
244.172068026781
30
0
11
1111.1631447769
21
369.745751575524
31
0
0
LINE
8
layer0
10
1111.1631447769
20
369.745751575524
30
0
11
1113.43253496598
21
369.686284725456
31
0
0
LINE
8
layer0
10
1111.1631447769
20
369.745751575524
30
0
11
1111.1631447769
21
244.172068026781
31
0
0
LINE
8
layer0
10
1111.1631447769
20
244.172068026781
30
0
11
1104.18907226092
21
244.354815853342
31
0
0
LINE
8
layer0
10
1104.18907226092
20
244.354815853342
30
0
11
1104.18907226092
21
369.928499402085
31
0
0
LINE
8
layer0
10
1104.18907226092
20
369.928499402085
30
0
11
1111.1631447769
21
369.745751575524
31
0
0
LINE
8
layer0
10
1104.18907226092
20
369.928499402085
30
0
11
1104.18907226092
21
244.354815853342
31
0
0
LINE
8
layer0
10
1104.18907226092
20
244.354815853342
30
0
11
1104.05933034342
21
244.35821559623
31
0
0
LINE
8
layer0
10
1104.05933034342
20
244.35821559623
30
0
11
1104.05933034342
21
369.931899144973
31
0
0
LINE
8
layer0
10
1104.05933034342
20
369.931899144973
30
0
11
1104.18907226092
21
369.928499402085
31
0
0
LINE
8
layer0
10
1094.99308494917
20
243.143569030345
30
0
11
1104.05933034342
21
244.35821559623
31
0
0
LINE
8
layer0
10
1104.05933034342
20
244.35821559623
30
0
11
1104.05933034342
21
240.028088577308
31
0
0
LINE
8
layer0
10
1104.05933034342
20
240.028088577308
30
0
11
1094.99308494917
21
238.813442011422
31
0
0
LINE
8
layer0
10
1094.99308494917
20
238.813442011422
30
0
11
1094.99308494917
21
243.143569030345
31
0
0
LINE
8
layer0
10
1104.05933034342
20
369.931899144973
30
0
11
1104.05933034342
21
244.35821559623
31
0
0
LINE
8
layer0
10
1104.05933034342
20
244.35821559623
30
0
11
1094.99308494917
21
243.143569030345
31
0
0
LINE
8
layer0
10
1094.99308494917
20
243.143569030345
30
0
11
1094.99308494917
21
368.717252579088
31
0
0
LINE
8
layer0
10
1094.99308494917
20
368.717252579088
30
0
11
1104.05933034342
21
369.931899144973
31
0
0
LINE
8
layer0
10
1087.12126605068
20
240.587559547867
30
0
11
1094.99308494917
21
243.143569030345
31
0
0
LINE
8
layer0
10
1094.99308494917
20
243.143569030345
30
0
11
1094.99308494917
21
238.813442011422
31
0
0
LINE
8
layer0
10
1094.99308494917
20
238.813442011422
30
0
11
1087.12126605068
21
236.257432528944
31
0
0
LINE
8
layer0
10
1087.12126605068
20
236.257432528944
30
0
11
1087.12126605068
21
240.587559547867
31
0
0
LINE
8
layer0
10
1094.99308494917
20
368.717252579088
30
0
11
1094.99308494917
21
243.143569030345
31
0
0
LINE
8
layer0
10
1094.99308494917
20
243.143569030345
30
0
11
1094.33383443707
21
242.929507886155
31
0
0
LINE
8
layer0
10
1094.33383443707
20
242.929507886155
30
0
11
1094.33383443707
21
368.503191434899
31
0
0
LINE
8
layer0
10
1094.33383443707
20
368.503191434899
30
0
11
1094.99308494917
21
368.717252579088
31
0
0
LINE
8
layer0
10
1094.33383443707
20
368.503191434899
30
0
11
1094.33383443707
21
242.929507886155
31
0
0
LINE
8
layer0
10
1094.33383443707
20
242.929507886155
30
0
11
1087.12126605068
21
240.587559547867
31
0
0
LINE
8
layer0
10
1087.12126605068
20
240.587559547867
30
0
11
1087.12126605068
21
366.16124309661
31
0
0
LINE
8
layer0
10
1087.12126605068
20
366.16124309661
30
0
11
1094.33383443707
21
368.503191434899
31
0
0
LINE
8
layer0
10
1081.21442212791
20
236.940387165706
30
0
11
1087.12126605068
21
240.587559547867
31
0
0
LINE
8
layer0
10
1087.12126605068
20
240.587559547867
30
0
11
1087.12126605068
21
236.257432528944
31
0
0
LINE
8
layer0
10
1087.12126605068
20
236.257432528944
30
0
11
1081.21442212791
21
232.610260146783
31
0
0
LINE
8
layer0
10
1081.21442212791
20
232.610260146783
30
0
11
1081.21442212791
21
236.940387165706
31
0
0
LINE
8
layer0
10
1087.12126605068
20
366.16124309661
30
0
11
1087.12126605068
21
240.587559547867
31
0
0
LINE
8
layer0
10
1087.12126605068
20
240.587559547867
30
0
11
1086.44130951309
21
240.167721350447
31
0
0
LINE
8
layer0
10
1086.44130951309
20
240.167721350447
30
0
11
1086.44130951309
21
365.741404899191
31
0
0
LINE
8
layer0
10
1086.44130951309
20
365.741404899191
30
0
11
1087.12126605068
21
366.16124309661
31
0
0
LINE
8
layer0
10
1086.44130951309
20
365.741404899191
30
0
11
1086.44130951309
21
240.167721350447
31
0
0
LINE
8
layer0
10
1086.44130951309
20
240.167721350447
30
0
11
1081.21442212791
21
236.940387165706
31
0
0
LINE
8
layer0
10
1081.21442212791
20
236.940387165706
30
0
11
1081.21442212791
21
362.514070714449
31
0
0
LINE
8
layer0
10
1081.21442212791
20
362.514070714449
30
0
11
1086.44130951309
21
365.741404899191
31
0
0
LINE
8
layer0
10
939.714422127914
20
114.397792530208
30
0
11
1081.21442212791
21
236.940387165706
31
0
0
LINE
8
layer0
10
1081.21442212791
20
236.940387165706
30
0
11
1081.21442212791
21
232.610260146783
31
0
0
LINE
8
layer0
10
1081.21442212791
20
232.610260146783
30
0
11
939.714422127914
21
110.067665511285
31
0
0
LINE
8
layer0
10
939.714422127914
20
110.067665511285
30
0
11
939.714422127914
21
114.397792530208
31
0
0
LINE
8
layer0
10
1081.21442212791
20
362.514070714449
30
0
11
1081.21442212791
21
236.940387165706
31
0
0
LINE
8
layer0
10
1081.21442212791
20
236.940387165706
30
0
11
1080.70555898223
21
236.499698754493
31
0
0
LINE
8
layer0
10
1080.70555898223
20
236.499698754493
30
0
11
1080.70555898223
21
362.073382303237
31
0
0
LINE
8
layer0
10
1080.70555898223
20
362.073382303237
30
0
11
1081.21442212791
21
362.514070714449
31
0
0
LINE
8
layer0
10
1080.70555898223
20
362.073382303237
30
0
11
1080.70555898223
21
236.499698754493
31
0
0
LINE
8
layer0
10
1080.70555898223
20
236.499698754493
30
0
11
1072.07223273457
21
229.023018904861
31
0
0
LINE
8
layer0
10
1072.07223273457
20
229.023018904861
30
0
11
1072.07223273457
21
354.596702453605
31
0
0
LINE
8
layer0
10
1072.07223273457
20
354.596702453605
30
0
11
1080.70555898223
21
362.073382303237
31
0
0
LINE
8
layer0
10
1072.07223273457
20
354.596702453605
30
0
11
1072.07223273457
21
229.023018904861
31
0
0
LINE
8
layer0
10
1072.07223273457
20
229.023018904861
30
0
11
939.714422127914
21
114.397792530208
31
0
0
LINE
8
layer0
10
939.714422127914
20
114.397792530208
30
0
11
939.714422127914
21
239.971476078951
31
0
0
LINE
8
layer0
10
939.714422127914
20
239.971476078951
30
0
11
1072.07223273457
21
354.596702453605
31
0
0
LINE
8
layer0
10
936.350756219434
20
110.016467892474
30
0
11
939.714422127914
21
114.397792530208
31
0
0
LINE
8
layer0
10
939.714422127914
20
114.397792530208
30
0
11
939.714422127914
21
110.067665511285
31
0
0
LINE
8
layer0
10
939.714422127914
20
110.067665511285
30
0
11
936.350756219434
21
105.686340873552
31
0
0
LINE
8
layer0
10
936.350756219434
20
105.686340873552
30
0
11
936.350756219434
21
110.016467892474
31
0
0
LINE
8
layer0
10
939.714422127914
20
239.971476078951
30
0
11
939.714422127914
21
114.397792530208
31
0
0
LINE
8
layer0
10
939.714422127914
20
114.397792530208
30
0
11
936.350756219434
21
110.016467892474
31
0
0
LINE
8
layer0
10
936.350756219434
20
110.016467892474
30
0
11
936.350756219434
21
235.590151441218
31
0
0
LINE
8
layer0
10
936.350756219434
20
235.590151441218
30
0
11
939.714422127914
21
239.971476078951
31
0
0
LINE
8
layer0
10
935.859527380399
20
105.329865581193
30
0
11
936.350756219434
21
110.016467892474
31
0
0
LINE
8
layer0
10
936.350756219434
20
110.016467892474
30
0
11
936.350756219434
21
105.686340873552
31
0
0
LINE
8
layer0
10
936.350756219434
20
105.686340873552
30
0
11
935.859527380399
21
100.999738562271
31
0
0
LINE
8
layer0
10
935.859527380399
20
100.999738562271
30
0
11
935.859527380399
21
105.329865581193
31
0
0
LINE
8
layer0
10
936.350756219434
20
235.590151441218
30
0
11
936.350756219434
21
110.016467892474
31
0
0
LINE
8
layer0
10
936.350756219434
20
110.016467892474
30
0
11
936.231822519297
21
108.881772797935
31
0
0
LINE
8
layer0
10
936.231822519297
20
108.881772797935
30
0
11
936.231822519297
21
234.455456346679
31
0
0
LINE
8
layer0
10
936.231822519297
20
234.455456346679
30
0
11
936.350756219434
21
235.590151441218
31
0
0
LINE
8
layer0
10
936.231822519297
20
234.455456346679
30
0
11
936.231822519297
21
108.881772797935
31
0
0
LINE
8
layer0
10
936.231822519297
20
108.881772797935
30
0
11
935.859527380399
21
105.329865581193
31
0
0
LINE
8
layer0
10
935.859527380399
20
105.329865581193
30
0
11
935.859527380399
21
230.903549129936
31
0
0
LINE
8
layer0
10
935.859527380399
20
230.903549129936
30
0
11
936.231822519297
21
234.455456346679
31
0
0
LINE
8
layer0
10
938.28882051217
20
100.796742884071
30
0
11
935.859527380399
21
105.329865581193
31
0
0
LINE
8
layer0
10
935.859527380399
20
105.329865581193
30
0
11
935.859527380399
21
100.999738562271
31
0
0
LINE
8
layer0
10
935.859527380399
20
100.999738562271
30
0
11
938.28882051217
21
96.4666158651484
31
0
0
LINE
8
layer0
10
938.28882051217
20
96.4666158651484
30
0
11
938.28882051217
21
100.796742884071
31
0
0
LINE
8
layer0
10
935.859527380399
20
230.903549129936
30
0
11
935.859527380399
21
105.329865581193
31
0
0
LINE
8
layer0
10
935.859527380399
20
105.329865581193
30
0
11
936.18626263212
21
104.720169301171
31
0
0
LINE
8
layer0
10
936.18626263212
20
104.720169301171
30
0
11
936.18626263212
21
230.293852849914
31
0
0
LINE
8
layer0
10
936.18626263212
20
230.293852849914
30
0
11
935.859527380399
21
230.903549129936
31
0
0
LINE
8
layer0
10
936.18626263212
20
230.293852849914
30
0
11
936.18626263212
21
104.720169301171
31
0
0
LINE
8
layer0
10
936.18626263212
20
104.720169301171
30
0
11
938.28882051217
21
100.796742884071
31
0
0
LINE
8
layer0
10
938.28882051217
20
100.796742884071
30
0
11
938.28882051217
21
226.370426432814
31
0
0
LINE
8
layer0
10
938.28882051217
20
226.370426432814
30
0
11
936.18626263212
21
230.293852849914
31
0
0
LINE
8
layer0
10
943.400839477126
20
96.8608334348247
30
0
11
938.28882051217
21
100.796742884071
31
0
0
LINE
8
layer0
10
938.28882051217
20
100.796742884071
30
0
11
938.28882051217
21
96.4666158651484
31
0
0
LINE
8
layer0
10
938.28882051217
20
96.4666158651484
30
0
11
943.400839477126
21
92.5307064159025
31
0
0
LINE
8
layer0
10
943.400839477126
20
92.5307064159025
30
0
11
943.400839477126
21
96.8608334348247
31
0
0
LINE
8
layer0
10
938.28882051217
20
226.370426432814
30
0
11
938.28882051217
21
100.796742884071
31
0
0
LINE
8
layer0
10
938.28882051217
20
100.796742884071
30
0
11
940.820270050763
21
98.8476976579985
31
0
0
LINE
8
layer0
10
940.820270050763
20
98.8476976579985
30
0
11
940.820270050763
21
224.421381206742
31
0
0
LINE
8
layer0
10
940.820270050763
20
224.421381206742
30
0
11
938.28882051217
21
226.370426432814
31
0
0
LINE
8
layer0
10
940.820270050763
20
224.421381206742
30
0
11
940.820270050763
21
98.8476976579985
31
0
0
LINE
8
layer0
10
940.820270050763
20
98.8476976579985
30
0
11
943.400839477126
21
96.8608334348247
31
0
0
LINE
8
layer0
10
943.400839477126
20
96.8608334348247
30
0
11
943.400839477126
21
222.434516983568
31
0
0
LINE
8
layer0
10
943.400839477126
20
222.434516983568
30
0
11
940.820270050763
21
224.421381206742
31
0
0
LINE
8
layer0
10
950.695184241448
20
93.907411473441
30
0
11
943.400839477126
21
96.8608334348247
31
0
0
LINE
8
layer0
10
943.400839477126
20
96.8608334348247
30
0
11
943.400839477126
21
92.5307064159025
31
0
0
LINE
8
layer0
10
943.400839477126
20
92.5307064159025
30
0
11
950.695184241448
21
89.5772844545188
31
0
0
LINE
8
layer0
10
950.695184241448
20
89.5772844545188
30
0
11
950.695184241448
21
93.907411473441
31
0
0
LINE
8
layer0
10
943.400839477126
20
222.434516983568
30
0
11
943.400839477126
21
96.8608334348247
31
0
0
LINE
8
layer0
10
943.400839477126
20
96.8608334348247
30
0
11
948.915056251931
21
94.628171084918
31
0
0
LINE
8
layer0
10
948.915056251931
20
94.628171084918
30
0
11
948.915056251931
21
220.201854633662
31
0
0
LINE
8
layer0
10
948.915056251931
20
220.201854633662
30
0
11
943.400839477126
21
222.434516983568
31
0
0
LINE
8
layer0
10
948.915056251931
20
220.201854633662
30
0
11
948.915056251931
21
94.628171084918
31
0
0
LINE
8
layer0
10
948.915056251931
20
94.628171084918
30
0
11
950.695184241448
21
93.907411473441
31
0
0
LINE
8
layer0
10
950.695184241448
20
93.907411473441
30
0
11
950.695184241448
21
219.481095022185
31
0
0
LINE
8
layer0
10
950.695184241448
20
219.481095022185
30
0
11
948.915056251931
21
220.201854633662
31
0
0
LINE
8
layer0
10
1240.81369450923
20
10.157411473441
30
0
11
950.695184241448
21
93.907411473441
31
0
0
LINE
8
layer0
10
950.695184241448
20
93.907411473441
30
0
11
950.695184241448
21
89.5772844545188
31
0
0
LINE
8
layer0
10
950.695184241448
20
89.5772844545188
30
0
11
1240.81369450923
21
5.8272844545188
31
0
0
LINE
8
layer0
10
1240.81369450923
20
5.8272844545188
30
0
11
1240.81369450923
21
10.157411473441
31
0
0
LINE
8
layer0
10
950.695184241448
20
219.481095022185
30
0
11
950.695184241448
21
93.907411473441
31
0
0
LINE
8
layer0
10
950.695184241448
20
93.907411473441
30
0
11
960.074913841381
21
91.1997167687173
31
0
0
LINE
8
layer0
10
960.074913841381
20
91.1997167687173
30
0
11
960.074913841381
21
216.773400317461
31
0
0
LINE
8
layer0
10
960.074913841381
20
216.773400317461
30
0
11
950.695184241448
21
219.481095022185
31
0
0
LINE
8
layer0
10
960.074913841381
20
216.773400317461
30
0
11
960.074913841381
21
91.1997167687173
31
0
0
LINE
8
layer0
10
960.074913841381
20
91.1997167687173
30
0
11
993.869266787591
21
81.4441273834254
31
0
0
LINE
8
layer0
10
993.869266787591
20
81.4441273834254
30
0
11
993.869266787591
21
207.017810932169
31
0
0
LINE
8
layer0
10
993.869266787591
20
207.017810932169
30
0
11
960.074913841381
21
216.773400317461
31
0
0
LINE
8
layer0
10
993.869266787591
20
207.017810932169
30
0
11
993.869266787591
21
81.4441273834254
31
0
0
LINE
8
layer0
10
993.869266787591
20
81.4441273834254
30
0
11
1240.81369450923
21
10.157411473441
31
0
0
LINE
8
layer0
10
1240.81369450923
20
10.157411473441
30
0
11
1240.81369450923
21
135.731095022185
31
0
0
LINE
8
layer0
10
1240.81369450923
20
135.731095022185
30
0
11
993.869266787591
21
207.017810932169
31
0
0
LINE
8
layer0
10
1249.5763437847
20
8.47557851920044
30
0
11
1240.81369450923
21
10.157411473441
31
0
0
LINE
8
layer0
10
1240.81369450923
20
10.157411473441
30
0
11
1240.81369450923
21
5.8272844545188
31
0
0
LINE
8
layer0
10
1240.81369450923
20
5.8272844545188
30
0
11
1249.5763437847
21
4.14545150027823
31
0
0
LINE
8
layer0
10
1249.5763437847
20
4.14545150027823
30
0
11
1249.5763437847
21
8.47557851920044
31
0
0
LINE
8
layer0
10
1240.81369450923
20
135.731095022185
30
0
11
1240.81369450923
21
10.157411473441
31
0
0
LINE
8
layer0
10
1240.81369450923
20
10.157411473441
30
0
11
1249.5763437847
21
8.47557851920044
31
0
0
LINE
8
layer0
10
1249.5763437847
20
8.47557851920044
30
0
11
1249.5763437847
21
134.049262067944
31
0
0
LINE
8
layer0
10
1249.5763437847
20
134.049262067944
30
0
11
1240.81369450923
21
135.731095022185
31
0
0
LINE
8
layer0
10
1258.94954840726
20
8.22996409968357
30
0
11
1249.5763437847
21
8.47557851920044
31
0
0
LINE
8
layer0
10
1249.5763437847
20
8.47557851920044
30
0
11
1249.5763437847
21
4.14545150027823
31
0
0
LINE
8
layer0
10
1249.5763437847
20
4.14545150027823
30
0
11
1258.94954840726
21
3.89983708076136
31
0
0
LINE
8
layer0
10
1258.94954840726
20
3.89983708076136
30
0
11
1258.94954840726
21
8.22996409968357
31
0
0
LINE
8
layer0
10
1249.5763437847
20
134.049262067944
30
0
11
1249.5763437847
21
8.47557851920044
31
0
0
LINE
8
layer0
10
1249.5763437847
20
8.47557851920044
30
0
11
1258.94954840726
21
8.22996409968357
31
0
0
LINE
8
layer0
10
1258.94954840726
20
8.22996409968357
30
0
11
1258.94954840726
21
133.803647648427
31
0
0
LINE
8
layer0
10
1258.94954840726
20
133.803647648427
30
0
11
1249.5763437847
21
134.049262067944
31
0
0
LINE
8
layer0
10
1268.01579380151
20
9.44461066556858
30
0
11
1258.94954840726
21
8.22996409968357
31
0
0
LINE
8
layer0
10
1258.94954840726
20
8.22996409968357
30
0
11
1258.94954840726
21
3.89983708076136
31
0
0
LINE
8
layer0
10
1258.94954840726
20
3.89983708076136
30
0
11
1268.01579380151
21
5.11448364664636
31
0
0
LINE
8
layer0
10
1268.01579380151
20
5.11448364664636
30
0
11
1268.01579380151
21
9.44461066556858
31
0
0
LINE
8
layer0
10
1258.94954840726
20
133.803647648427
30
0
11
1258.94954840726
21
8.22996409968357
31
0
0
LINE
8
layer0
10
1258.94954840726
20
8.22996409968357
30
0
11
1261.3681098144
21
8.55398988762704
31
0
0
LINE
8
layer0
10
1261.3681098144
20
8.55398988762704
30
0
11
1261.3681098144
21
134.127673436371
31
0
0
LINE
8
layer0
10
1261.3681098144
20
134.127673436371
30
0
11
1258.94954840726
21
133.803647648427
31
0
0
LINE
8
layer0
10
1261.3681098144
20
134.127673436371
30
0
11
1261.3681098144
21
8.55398988762704
31
0
0
LINE
8
layer0
10
1261.3681098144
20
8.55398988762704
30
0
11
1268.01579380151
21
9.44461066556858
31
0
0
LINE
8
layer0
10
1268.01579380151
20
9.44461066556858
30
0
11
1268.01579380151
21
135.018294214312
31
0
0
LINE
8
layer0
10
1268.01579380151
20
135.018294214312
30
0
11
1261.3681098144
21
134.127673436371
31
0
0
LINE
8
layer0
10
1275.8876127
20
12.0006201480467
30
0
11
1268.01579380151
21
9.44461066556858
31
0
0
LINE
8
layer0
10
1268.01579380151
20
9.44461066556858
30
0
11
1268.01579380151
21
5.11448364664636
31
0
0
LINE
8
layer0
10
1268.01579380151
20
5.11448364664636
30
0
11
1275.8876127
21
7.67049312912445
31
0
0
LINE
8
layer0
10
1275.8876127
20
7.67049312912445
30
0
11
1275.8876127
21
12.0006201480467
31
0
0
LINE
8
layer0
10
1268.01579380151
20
135.018294214312
30
0
11
1268.01579380151
21
9.44461066556858
31
0
0
LINE
8
layer0
10
1268.01579380151
20
9.44461066556858
30
0
11
1268.18526001969
21
9.49963699000887
31
0
0
LINE
8
layer0
10
1268.18526001969
20
9.49963699000887
30
0
11
1268.18526001969
21
135.073320538752
31
0
0
LINE
8
layer0
10
1268.18526001969
20
135.073320538752
30
0
11
1268.01579380151
21
135.018294214312
31
0
0
LINE
8
layer0
10
1268.18526001969
20
135.073320538752
30
0
11
1268.18526001969
21
9.49963699000887
31
0
0
LINE
8
layer0
10
1268.18526001969
20
9.49963699000887
30
0
11
1275.8876127
21
12.0006201480467
31
0
0
LINE
8
layer0
10
1275.8876127
20
12.0006201480467
30
0
11
1275.8876127
21
137.57430369679
31
0
0
LINE
8
layer0
10
1275.8876127
20
137.57430369679
30
0
11
1268.18526001969
21
135.073320538752
31
0
0
LINE
8
layer0
10
1281.79445662277
20
15.6477925302077
30
0
11
1275.8876127
21
12.0006201480467
31
0
0
LINE
8
layer0
10
1275.8876127
20
12.0006201480467
30
0
11
1275.8876127
21
7.67049312912445
31
0
0
LINE
8
layer0
10
1275.8876127
20
7.67049312912445
30
0
11
1281.79445662277
21
11.3176655112854
31
0
0
LINE
8
layer0
10
1281.79445662277
20
11.3176655112854
30
0
11
1281.79445662277
21
15.6477925302077
31
0
0
LINE
8
layer0
10
1275.8876127
20
137.57430369679
30
0
11
1275.8876127
21
12.0006201480467
31
0
0
LINE
8
layer0
10
1275.8876127
20
12.0006201480467
30
0
11
1277.18670098195
21
12.8027403607817
31
0
0
LINE
8
layer0
10
1277.18670098195
20
12.8027403607817
30
0
11
1277.18670098195
21
138.376423909525
31
0
0
LINE
8
layer0
10
1277.18670098195
20
138.376423909525
30
0
11
1275.8876127
21
137.57430369679
31
0
0
LINE
8
layer0
10
1277.18670098195
20
138.376423909525
30
0
11
1277.18670098195
21
12.8027403607817
31
0
0
LINE
8
layer0
10
1277.18670098195
20
12.8027403607817
30
0
11
1281.79445662277
21
15.6477925302077
31
0
0
LINE
8
layer0
10
1281.79445662277
20
15.6477925302077
30
0
11
1281.79445662277
21
141.221476078951
31
0
0
LINE
8
layer0
10
1281.79445662277
20
141.221476078951
30
0
11
1277.18670098195
21
138.376423909525
31
0
0
LINE
8
layer0
10
1423.29445662277
20
138.190387165706
30
0
11
1281.79445662277
21
15.6477925302077
31
0
0
LINE
8
layer0
10
1281.79445662277
20
15.6477925302077
30
0
11
1281.79445662277
21
11.3176655112854
31
0
0
LINE
8
layer0
10
1281.79445662277
20
11.3176655112854
30
0
11
1423.29445662277
21
133.860260146784
31
0
0
LINE
8
layer0
10
1423.29445662277
20
133.860260146784
30
0
11
1423.29445662277
21
138.190387165706
31
0
0
LINE
8
layer0
10
1281.79445662277
20
141.221476078951
30
0
11
1281.79445662277
21
15.6477925302077
31
0
0
LINE
8
layer0
10
1281.79445662277
20
15.6477925302077
30
0
11
1283.34242292276
21
16.9883706702
31
0
0
LINE
8
layer0
10
1283.34242292276
20
16.9883706702
30
0
11
1283.34242292276
21
142.562054218944
31
0
0
LINE
8
layer0
10
1283.34242292276
20
142.562054218944
30
0
11
1281.79445662277
21
141.221476078951
31
0
0
LINE
8
layer0
10
1283.34242292276
20
142.562054218944
30
0
11
1283.34242292276
21
16.9883706702
31
0
0
LINE
8
layer0
10
1283.34242292276
20
16.9883706702
30
0
11
1289.70984603222
21
22.5027208396355
31
0
0
LINE
8
layer0
10
1289.70984603222
20
22.5027208396355
30
0
11
1289.70984603222
21
148.076404388379
31
0
0
LINE
8
layer0
10
1289.70984603222
20
148.076404388379
30
0
11
1283.34242292276
21
142.562054218944
31
0
0
LINE
8
layer0
10
1289.70984603222
20
148.076404388379
30
0
11
1289.70984603222
21
22.5027208396355
31
0
0
LINE
8
layer0
10
1289.70984603222
20
22.5027208396355
30
0
11
1309.2210248028
21
39.3998973127408
31
0
0
LINE
8
layer0
10
1309.2210248028
20
39.3998973127408
30
0
11
1309.2210248028
21
164.973580861484
31
0
0
LINE
8
layer0
10
1309.2210248028
20
164.973580861484
30
0
11
1289.70984603222
21
148.076404388379
31
0
0
LINE
8
layer0
10
1309.2210248028
20
164.973580861484
30
0
11
1309.2210248028
21
39.3998973127408
31
0
0
LINE
8
layer0
10
1309.2210248028
20
39.3998973127408
30
0
11
1423.29445662277
21
138.190387165706
31
0
0
LINE
8
layer0
10
1423.29445662277
20
138.190387165706
30
0
11
1423.29445662277
21
263.764070714449
31
0
0
LINE
8
layer0
10
1423.29445662277
20
263.764070714449
30
0
11
1309.2210248028
21
164.973580861484
31
0
0
LINE
8
layer0
10
1426.65812253125
20
142.571711803439
30
0
11
1423.29445662277
21
138.190387165706
31
0
0
LINE
8
layer0
10
1423.29445662277
20
138.190387165706
30
0
11
1423.29445662277
21
133.860260146784
31
0
0
LINE
8
layer0
10
1423.29445662277
20
133.860260146784
30
0
11
1426.65812253125
21
138.241584784517
31
0
0
LINE
8
layer0
10
1426.65812253125
20
138.241584784517
30
0
11
1426.65812253125
21
142.571711803439
31
0
0
LINE
8
layer0
10
1423.29445662277
20
263.764070714449
30
0
11
1423.29445662277
21
138.190387165706
31
0
0
LINE
8
layer0
10
1423.29445662277
20
138.190387165706
30
0
11
1426.65812253125
21
142.571711803439
31
0
0
LINE
8
layer0
10
1426.65812253125
20
142.571711803439
30
0
11
1426.65812253125
21
268.145395352183
31
0
0
LINE
8
layer0
10
1426.65812253125
20
268.145395352183
30
0
11
1423.29445662277
21
263.764070714449
31
0
0
LINE
8
layer0
10
1427.14935137028
20
147.25831411472
30
0
11
1426.65812253125
21
142.571711803439
31
0
0
LINE
8
layer0
10
1426.65812253125
20
142.571711803439
30
0
11
1426.65812253125
21
138.241584784517
31
0
0
LINE
8
layer0
10
1426.65812253125
20
138.241584784517
30
0
11
1427.14935137028
21
142.928187095798
31
0
0
LINE
8
layer0
10
1427.14935137028
20
142.928187095798
30
0
11
1427.14935137028
21
147.25831411472
31
0
0
LINE
8
layer0
10
1426.65812253125
20
268.145395352183
30
0
11
1426.65812253125
21
142.571711803439
31
0
0
LINE
8
layer0
10
1426.65812253125
20
142.571711803439
30
0
11
1427.14935137028
21
147.25831411472
31
0
0
LINE
8
layer0
10
1427.14935137028
20
147.25831411472
30
0
11
1427.14935137028
21
272.831997663464
31
0
0
LINE
8
layer0
10
1427.14935137028
20
272.831997663464
30
0
11
1426.65812253125
21
268.145395352183
31
0
0
LINE
8
layer0
10
1424.72005823851
20
151.791436811843
30
0
11
1427.14935137028
21
147.25831411472
31
0
0
LINE
8
layer0
10
1427.14935137028
20
147.25831411472
30
0
11
1427.14935137028
21
142.928187095798
31
0
0
LINE
8
layer0
10
1427.14935137028
20
142.928187095798
30
0
11
1424.72005823851
21
147.46130979292
31
0
0
LINE
8
layer0
10
1424.72005823851
20
147.46130979292
30
0
11
1424.72005823851
21
151.791436811843
31
0
0
LINE
8
layer0
10
1427.14935137028
20
272.831997663464
30
0
11
1427.14935137028
21
147.25831411472
31
0
0
LINE
8
layer0
10
1427.14935137028
20
147.25831411472
30
0
11
1426.5012997944
21
148.467594818288
31
0
0
LINE
8
layer0
10
1426.5012997944
20
148.467594818288
30
0
11
1426.5012997944
21
274.041278367032
31
0
0
LINE
8
layer0
10
1426.5012997944
20
274.041278367032
30
0
11
1427.14935137028
21
272.831997663464
31
0
0
LINE
8
layer0
10
1426.5012997944
20
274.041278367032
30
0
11
1426.5012997944
21
148.467594818288
31
0
0
LINE
8
layer0
10
1426.5012997944
20
148.467594818288
30
0
11
1424.99248909964
21
151.283073904204
31
0
0
LINE
8
layer0
10
1424.99248909964
20
151.283073904204
30
0
11
1424.99248909964
21
276.856757452947
31
0
0
LINE
8
layer0
10
1424.99248909964
20
276.856757452947
30
0
11
1426.5012997944
21
274.041278367032
31
0
0
LINE
8
layer0
10
1424.99248909964
20
276.856757452947
30
0
11
1424.99248909964
21
151.283073904204
31
0
0
LINE
8
layer0
10
1424.99248909964
20
151.283073904204
30
0
11
1424.72005823851
21
151.791436811843
31
0
0
LINE
8
layer0
10
1424.72005823851
20
151.791436811843
30
0
11
1424.72005823851
21
277.365120360586
31
0
0
LINE
8
layer0
10
1424.72005823851
20
277.365120360586
30
0
11
1424.99248909964
21
276.856757452947
31
0
0
LINE
8
layer0
10
1419.60803927356
20
155.727346261088
30
0
11
1424.72005823851
21
151.791436811843
31
0
0
LINE
8
layer0
10
1424.72005823851
20
151.791436811843
30
0
11
1424.72005823851
21
147.46130979292
31
0
0
LINE
8
layer0
10
1424.72005823851
20
147.46130979292
30
0
11
1419.60803927356
21
151.397219242166
31
0
0
LINE
8
layer0
10
1419.60803927356
20
151.397219242166
30
0
11
1419.60803927356
21
155.727346261088
31
0
0
LINE
8
layer0
10
1420.84573397378
20
280.348088457446
30
0
11
1420.84573397378
21
154.774404908702
31
0
0
LINE
8
layer0
10
1420.84573397378
20
154.774404908702
30
0
11
1419.60803927356
21
155.727346261088
31
0
0
LINE
8
layer0
10
1419.60803927356
20
155.727346261088
30
0
11
1419.60803927356
21
281.301029809832
31
0
0
LINE
8
layer0
10
1419.60803927356
20
281.301029809832
30
0
11
1420.84573397378
21
280.348088457446
31
0
0
LINE
8
layer0
10
1424.72005823851
20
277.365120360586
30
0
11
1424.72005823851
21
151.791436811843
31
0
0
LINE
8
layer0
10
1424.72005823851
20
151.791436811843
30
0
11
1420.84573397378
21
154.774404908702
31
0
0
LINE
8
layer0
10
1420.84573397378
20
154.774404908702
30
0
11
1420.84573397378
21
280.348088457446
31
0
0
LINE
8
layer0
10
1420.84573397378
20
280.348088457446
30
0
11
1424.72005823851
21
277.365120360586
31
0
0
LINE
8
layer0
10
1412.31369450923
20
158.680768222472
30
0
11
1419.60803927356
21
155.727346261088
31
0
0
LINE
8
layer0
10
1419.60803927356
20
155.727346261088
30
0
11
1419.60803927356
21
151.397219242166
31
0
0
LINE
8
layer0
10
1419.60803927356
20
151.397219242166
30
0
11
1412.31369450923
21
154.35064120355
31
0
0
LINE
8
layer0
10
1412.31369450923
20
154.35064120355
30
0
11
1412.31369450923
21
158.680768222472
31
0
0
LINE
8
layer0
10
1419.60803927356
20
281.301029809832
30
0
11
1419.60803927356
21
155.727346261088
31
0
0
LINE
8
layer0
10
1419.60803927356
20
155.727346261088
30
0
11
1412.31369450923
21
158.680768222472
31
0
0
LINE
8
layer0
10
1412.31369450923
20
158.680768222472
30
0
11
1412.31369450923
21
284.254451771216
31
0
0
LINE
8
layer0
10
1412.31369450923
20
284.254451771216
30
0
11
1419.60803927356
21
281.301029809832
31
0
0
LINE
8
layer0
10
1404.56850398085
20
159.473236467742
30
0
11
1123.11024775091
21
240.723236467742
31
0
0
LINE
8
layer0
10
1123.11024775091
20
240.723236467742
30
0
11
1114.34759847544
21
242.405069421982
31
0
0
LINE
8
layer0
10
1114.34759847544
20
242.405069421982
30
0
11
1104.97439385288
21
242.650683841499
31
0
0
LINE
8
layer0
10
1104.97439385288
20
242.650683841499
30
0
11
1095.90814845863
21
241.436037275614
31
0
0
LINE
8
layer0
10
1095.90814845863
20
241.436037275614
30
0
11
1088.03632956014
21
238.880027793136
31
0
0
LINE
8
layer0
10
1088.03632956014
20
238.880027793136
30
0
11
1082.12948563738
21
235.232855410975
31
0
0
LINE
8
layer0
10
1082.12948563738
20
235.232855410975
30
0
11
945.629485637376
21
117.020387794399
31
0
0
LINE
8
layer0
10
945.629485637376
20
117.020387794399
30
0
11
942.265819728895
21
112.639063156666
31
0
0
LINE
8
layer0
10
942.265819728895
20
112.639063156666
30
0
11
941.774590889861
21
107.952460845384
31
0
0
LINE
8
layer0
10
941.774590889861
20
107.952460845384
30
0
11
944.203884021631
21
103.419338148262
31
0
0
LINE
8
layer0
10
944.203884021631
20
103.419338148262
30
0
11
949.315902986587
21
99.4834286990164
31
0
0
LINE
8
layer0
10
949.315902986587
20
99.4834286990164
30
0
11
956.610247750909
21
96.5300067376326
31
0
0
LINE
8
layer0
10
956.610247750909
20
96.5300067376326
30
0
11
1238.06850398085
21
15.2800067376327
31
0
0
LINE
8
layer0
10
1238.06850398085
20
15.2800067376327
30
0
11
1246.83115325632
21
13.5981737833921
31
0
0
LINE
8
layer0
10
1246.83115325632
20
13.5981737833921
30
0
11
1256.20435787888
21
13.3525593638751
31
0
0
LINE
8
layer0
10
1256.20435787888
20
13.3525593638751
30
0
11
1265.27060327313
21
14.5672059297602
31
0
0
LINE
8
layer0
10
1265.27060327313
20
14.5672059297602
30
0
11
1273.14242217162
21
17.1232154122383
31
0
0
LINE
8
layer0
10
1273.14242217162
20
17.1232154122383
30
0
11
1279.04926609438
21
20.7703877943992
31
0
0
LINE
8
layer0
10
1279.04926609438
20
20.7703877943992
30
0
11
1415.54926609438
21
138.982855410975
31
0
0
LINE
8
layer0
10
1415.54926609438
20
138.982855410975
30
0
11
1418.91293200287
21
143.364180048709
31
0
0
LINE
8
layer0
10
1418.91293200287
20
143.364180048709
30
0
11
1419.4041608419
21
148.05078235999
31
0
0
LINE
8
layer0
10
1419.4041608419
20
148.05078235999
30
0
11
1416.97486771013
21
152.583905057112
31
0
0
LINE
8
layer0
10
1416.97486771013
20
152.583905057112
30
0
11
1411.86284874517
21
156.519814506358
31
0
0
LINE
8
layer0
10
1411.86284874517
20
156.519814506358
30
0
11
1404.56850398085
21
159.473236467742
31
0
0
LINE
8
layer0
10
1404.56850398085
20
159.473236467742
30
0
11
1404.56850398085
21
285.046920016485
31
0
0
LINE
8
layer0
10
1404.56850398085
20
285.046920016485
30
0
11
1123.11024775091
21
366.296920016485
31
0
0
LINE
8
layer0
10
1123.11024775091
20
366.296920016485
30
0
11
1123.11024775091
21
240.723236467742
31
0
0
LINE
8
layer0
10
1123.11024775091
20
240.723236467742
30
0
11
1404.56850398085
21
159.473236467742
31
0
0
LINE
8
layer0
10
1123.11024775091
20
240.723236467742
30
0
11
1123.11024775091
21
366.296920016485
31
0
0
LINE
8
layer0
10
1123.11024775091
20
366.296920016485
30
0
11
1114.34759847544
21
367.978752970726
31
0
0
LINE
8
layer0
10
1114.34759847544
20
367.978752970726
30
0
11
1114.34759847544
21
242.405069421982
31
0
0
LINE
8
layer0
10
1114.34759847544
20
242.405069421982
30
0
11
1123.11024775091
21
240.723236467742
31
0
0
LINE
8
layer0
10
1114.34759847544
20
242.405069421982
30
0
11
1114.34759847544
21
367.978752970726
31
0
0
LINE
8
layer0
10
1114.34759847544
20
367.978752970726
30
0
11
1104.97439385288
21
368.224367390243
31
0
0
LINE
8
layer0
10
1104.97439385288
20
368.224367390243
30
0
11
1104.97439385288
21
242.650683841499
31
0
0
LINE
8
layer0
10
1104.97439385288
20
242.650683841499
30
0
11
1114.34759847544
21
242.405069421982
31
0
0
LINE
8
layer0
10
1104.97439385288
20
242.650683841499
30
0
11
1104.97439385288
21
368.224367390243
31
0
0
LINE
8
layer0
10
1104.97439385288
20
368.224367390243
30
0
11
1095.90814845863
21
367.009720824358
31
0
0
LINE
8
layer0
10
1095.90814845863
20
367.009720824358
30
0
11
1095.90814845863
21
241.436037275614
31
0
0
LINE
8
layer0
10
1095.90814845863
20
241.436037275614
30
0
11
1104.97439385288
21
242.650683841499
31
0
0
LINE
8
layer0
10
1095.90814845863
20
241.436037275614
30
0
11
1095.90814845863
21
367.009720824358
31
0
0
LINE
8
layer0
10
1095.90814845863
20
367.009720824358
30
0
11
1088.03632956014
21
364.45371134188
31
0
0
LINE
8
layer0
10
1088.03632956014
20
364.45371134188
30
0
11
1088.03632956014
21
238.880027793136
31
0
0
LINE
8
layer0
10
1088.03632956014
20
238.880027793136
30
0
11
1095.90814845863
21
241.436037275614
31
0
0
LINE
8
layer0
10
1088.03632956014
20
238.880027793136
30
0
11
1088.03632956014
21
364.45371134188
31
0
0
LINE
8
layer0
10
1088.03632956014
20
364.45371134188
30
0
11
1082.12948563738
21
360.806538959719
31
0
0
LINE
8
layer0
10
1082.12948563738
20
360.806538959719
30
0
11
1082.12948563738
21
235.232855410975
31
0
0
LINE
8
layer0
10
1082.12948563738
20
235.232855410975
30
0
11
1088.03632956014
21
238.880027793136
31
0
0
LINE
8
layer0
10
1082.12948563738
20
235.232855410975
30
0
11
1082.12948563738
21
360.806538959719
31
0
0
LINE
8
layer0
10
1082.12948563738
20
360.806538959719
30
0
11
945.629485637376
21
242.594071343143
31
0
0
LINE
8
layer0
10
945.629485637376
20
242.594071343143
30
0
11
945.629485637376
21
117.020387794399
31
0
0
LINE
8
layer0
10
945.629485637376
20
117.020387794399
30
0
11
1082.12948563738
21
235.232855410975
31
0
0
LINE
8
layer0
10
945.629485637376
20
117.020387794399
30
0
11
945.629485637376
21
242.594071343143
31
0
0
LINE
8
layer0
10
945.629485637376
20
242.594071343143
30
0
11
942.265819728895
21
238.212746705409
31
0
0
LINE
8
layer0
10
942.265819728895
20
238.212746705409
30
0
11
942.265819728895
21
112.639063156666
31
0
0
LINE
8
layer0
10
942.265819728895
20
112.639063156666
30
0
11
945.629485637376
21
117.020387794399
31
0
0
LINE
8
layer0
10
942.265819728895
20
112.639063156666
30
0
11
942.265819728895
21
238.212746705409
31
0
0
LINE
8
layer0
10
942.265819728895
20
238.212746705409
30
0
11
941.774590889861
21
233.526144394128
31
0
0
LINE
8
layer0
10
941.774590889861
20
233.526144394128
30
0
11
941.774590889861
21
107.952460845384
31
0
0
LINE
8
layer0
10
941.774590889861
20
107.952460845384
30
0
11
942.265819728895
21
112.639063156666
31
0
0
LINE
8
layer0
10
941.774590889861
20
107.952460845384
30
0
11
941.774590889861
21
233.526144394128
31
0
0
LINE
8
layer0
10
941.774590889861
20
233.526144394128
30
0
11
944.203884021631
21
228.993021697006
31
0
0
LINE
8
layer0
10
944.203884021631
20
228.993021697006
30
0
11
944.203884021631
21
103.419338148262
31
0
0
LINE
8
layer0
10
944.203884021631
20
103.419338148262
30
0
11
941.774590889861
21
107.952460845384
31
0
0
LINE
8
layer0
10
944.203884021631
20
103.419338148262
30
0
11
944.203884021631
21
228.993021697006
31
0
0
LINE
8
layer0
10
944.203884021631
20
228.993021697006
30
0
11
949.315902986587
21
225.05711224776
31
0
0
LINE
8
layer0
10
949.315902986587
20
225.05711224776
30
0
11
949.315902986587
21
99.4834286990164
31
0
0
LINE
8
layer0
10
949.315902986587
20
99.4834286990164
30
0
11
944.203884021631
21
103.419338148262
31
0
0
LINE
8
layer0
10
949.315902986587
20
99.4834286990164
30
0
11
949.315902986587
21
225.05711224776
31
0
0
LINE
8
layer0
10
949.315902986587
20
225.05711224776
30
0
11
956.610247750909
21
222.103690286376
31
0
0
LINE
8
layer0
10
956.610247750909
20
222.103690286376
30
0
11
956.610247750909
21
96.5300067376326
31
0
0
LINE
8
layer0
10
956.610247750909
20
96.5300067376326
30
0
11
949.315902986587
21
99.4834286990164
31
0
0
LINE
8
layer0
10
956.610247750909
20
96.5300067376326
30
0
11
956.610247750909
21
222.103690286376
31
0
0
LINE
8
layer0
10
956.610247750909
20
222.103690286376
30
0
11
1238.06850398085
21
140.853690286376
31
0
0
LINE
8
layer0
10
1238.06850398085
20
140.853690286376
30
0
11
1238.06850398085
21
15.2800067376327
31
0
0
LINE
8
layer0
10
1238.06850398085
20
15.2800067376327
30
0
11
956.610247750909
21
96.5300067376326
31
0
0
LINE
8
layer0
10
1238.06850398085
20
15.2800067376327
30
0
11
1238.06850398085
21
140.853690286376
31
0
0
LINE
8
layer0
10
1238.06850398085
20
140.853690286376
30
0
11
1246.83115325632
21
139.171857332136
31
0
0
LINE
8
layer0
10
1246.83115325632
20
139.171857332136
30
0
11
1246.83115325632
21
13.5981737833921
31
0
0
LINE
8
layer0
10
1246.83115325632
20
13.5981737833921
30
0
11
1238.06850398085
21
15.2800067376327
31
0
0
LINE
8
layer0
10
1246.83115325632
20
13.5981737833921
30
0
11
1246.83115325632
21
139.171857332136
31
0
0
LINE
8
layer0
10
1246.83115325632
20
139.171857332136
30
0
11
1256.20435787888
21
138.926242912619
31
0
0
LINE
8
layer0
10
1256.20435787888
20
138.926242912619
30
0
11
1256.20435787888
21
13.3525593638751
31
0
0
LINE
8
layer0
10
1256.20435787888
20
13.3525593638751
30
0
11
1246.83115325632
21
13.5981737833921
31
0
0
LINE
8
layer0
10
1256.20435787888
20
13.3525593638751
30
0
11
1256.20435787888
21
138.926242912619
31
0
0
LINE
8
layer0
10
1256.20435787888
20
138.926242912619
30
0
11
1265.27060327313
21
140.140889478504
31
0
0
LINE
8
layer0
10
1265.27060327313
20
140.140889478504
30
0
11
1265.27060327313
21
14.5672059297602
31
0
0
LINE
8
layer0
10
1265.27060327313
20
14.5672059297602
30
0
11
1256.20435787888
21
13.3525593638751
31
0
0
LINE
8
layer0
10
1265.27060327313
20
14.5672059297602
30
0
11
1265.27060327313
21
140.140889478504
31
0
0
LINE
8
layer0
10
1265.27060327313
20
140.140889478504
30
0
11
1273.14242217162
21
142.696898960982
31
0
0
LINE
8
layer0
10
1273.14242217162
20
142.696898960982
30
0
11
1273.14242217162
21
17.1232154122383
31
0
0
LINE
8
layer0
10
1273.14242217162
20
17.1232154122383
30
0
11
1265.27060327313
21
14.5672059297602
31
0
0
LINE
8
layer0
10
1273.14242217162
20
17.1232154122383
30
0
11
1273.14242217162
21
142.696898960982
31
0
0
LINE
8
layer0
10
1273.14242217162
20
142.696898960982
30
0
11
1279.04926609438
21
146.344071343143
31
0
0
LINE
8
layer0
10
1279.04926609438
20
146.344071343143
30
0
11
1279.04926609438
21
20.7703877943992
31
0
0
LINE
8
layer0
10
1279.04926609438
20
20.7703877943992
30
0
11
1273.14242217162
21
17.1232154122383
31
0
0
LINE
8
layer0
10
1279.04926609438
20
20.7703877943992
30
0
11
1279.04926609438
21
146.344071343143
31
0
0
LINE
8
layer0
10
1279.04926609438
20
146.344071343143
30
0
11
1415.54926609438
21
264.556538959719
31
0
0
LINE
8
layer0
10
1415.54926609438
20
264.556538959719
30
0
11
1415.54926609438
21
138.982855410975
31
0
0
LINE
8
layer0
10
1415.54926609438
20
138.982855410975
30
0
11
1279.04926609438
21
20.7703877943992
31
0
0
LINE
8
layer0
10
1415.54926609438
20
138.982855410975
30
0
11
1415.54926609438
21
264.556538959719
31
0
0
LINE
8
layer0
10
1415.54926609438
20
264.556538959719
30
0
11
1418.91293200287
21
268.937863597452
31
0
0
LINE
8
layer0
10
1418.91293200287
20
268.937863597452
30
0
11
1418.91293200287
21
143.364180048709
31
0
0
LINE
8
layer0
10
1418.91293200287
20
143.364180048709
30
0
11
1415.54926609438
21
138.982855410975
31
0
0
LINE
8
layer0
10
1418.91293200287
20
143.364180048709
30
0
11
1418.91293200287
21
268.937863597452
31
0
0
LINE
8
layer0
10
1418.91293200287
20
268.937863597452
30
0
11
1419.4041608419
21
273.624465908734
31
0
0
LINE
8
layer0
10
1419.4041608419
20
273.624465908734
30
0
11
1419.4041608419
21
148.05078235999
31
0
0
LINE
8
layer0
10
1419.4041608419
20
148.05078235999
30
0
11
1418.91293200287
21
143.364180048709
31
0
0
LINE
8
layer0
10
1419.4041608419
20
148.05078235999
30
0
11
1419.4041608419
21
273.624465908734
31
0
0
LINE
8
layer0
10
1419.4041608419
20
273.624465908734
30
0
11
1416.97486771013
21
278.157588605856
31
0
0
LINE
8
layer0
10
1416.97486771013
20
278.157588605856
30
0
11
1416.97486771013
21
152.583905057112
31
0
0
LINE
8
layer0
10
1416.97486771013
20
152.583905057112
30
0
11
1419.4041608419
21
148.05078235999
31
0
0
LINE
8
layer0
10
1416.97486771013
20
152.583905057112
30
0
11
1416.97486771013
21
278.157588605856
31
0
0
LINE
8
layer0
10
1416.97486771013
20
278.157588605856
30
0
11
1411.86284874517
21
282.093498055102
31
0
0
LINE
8
layer0
10
1411.86284874517
20
282.093498055102
30
0
11
1411.86284874517
21
156.519814506358
31
0
0
LINE
8
layer0
10
1411.86284874517
20
156.519814506358
30
0
11
1416.97486771013
21
152.583905057112
31
0
0
LINE
8
layer0
10
1411.86284874517
20
156.519814506358
30
0
11
1411.86284874517
21
282.093498055102
31
0
0
LINE
8
layer0
10
1411.86284874517
20
282.093498055102
30
0
11
1404.56850398085
21
285.046920016485
31
0
0
LINE
8
layer0
10
1404.56850398085
20
285.046920016485
30
0
11
1404.56850398085
21
159.473236467742
31
0
0
LINE
8
layer0
10
1404.56850398085
20
159.473236467742
30
0
11
1411.86284874517
21
156.519814506358
31
0
0
LINE
8
layer0
10
1412.31369450923
20
284.254451771216
30
0
11
1122.19518424145
21
368.004451771216
31
0
0
LINE
8
layer0
10
1122.19518424145
20
368.004451771216
30
0
11
1113.43253496598
21
369.686284725456
31
0
0
LINE
8
layer0
10
1113.43253496598
20
369.686284725456
30
0
11
1111.1631447769
21
369.745751575524
31
0
0
LINE
8
layer0
10
1111.1631447769
20
369.745751575524
30
0
11
1420.84573397378
21
280.348088457446
31
0
0
LINE
8
layer0
10
1420.84573397378
20
280.348088457446
30
0
11
1419.60803927356
21
281.301029809832
31
0
0
LINE
8
layer0
10
1419.60803927356
20
281.301029809832
30
0
11
1412.31369450923
21
284.254451771216
31
0
0
LINE
8
layer0
10
1104.18907226092
20
369.928499402085
30
0
11
1123.11024775091
21
366.296920016485
31
0
0
LINE
8
layer0
10
1123.11024775091
20
366.296920016485
30
0
11
1111.1631447769
21
369.745751575524
31
0
0
LINE
8
layer0
10
1111.1631447769
20
369.745751575524
30
0
11
1104.18907226092
21
369.928499402085
31
0
0
LINE
8
layer0
10
1094.33383443707
20
368.503191434899
30
0
11
1114.34759847544
21
367.978752970726
31
0
0
LINE
8
layer0
10
1114.34759847544
20
367.978752970726
30
0
11
1104.18907226092
21
369.928499402085
31
0
0
LINE
8
layer0
10
1104.18907226092
20
369.928499402085
30
0
11
1104.05933034342
21
369.931899144973
31
0
0
LINE
8
layer0
10
1104.05933034342
20
369.931899144973
30
0
11
1094.99308494917
21
368.717252579088
31
0
0
LINE
8
layer0
10
1094.99308494917
20
368.717252579088
30
0
11
1094.33383443707
21
368.503191434899
31
0
0
LINE
8
layer0
10
1086.44130951309
20
365.741404899191
30
0
11
1104.97439385288
21
368.224367390243
31
0
0
LINE
8
layer0
10
1104.97439385288
20
368.224367390243
30
0
11
1094.33383443707
21
368.503191434899
31
0
0
LINE
8
layer0
10
1094.33383443707
20
368.503191434899
30
0
11
1087.12126605068
21
366.16124309661
31
0
0
LINE
8
layer0
10
1087.12126605068
20
366.16124309661
30
0
11
1086.44130951309
21
365.741404899191
31
0
0
LINE
8
layer0
10
1080.70555898223
20
362.073382303237
30
0
11
1095.90814845863
21
367.009720824358
31
0
0
LINE
8
layer0
10
1095.90814845863
20
367.009720824358
30
0
11
1086.44130951309
21
365.741404899191
31
0
0
LINE
8
layer0
10
1086.44130951309
20
365.741404899191
30
0
11
1081.21442212791
21
362.514070714449
31
0
0
LINE
8
layer0
10
1081.21442212791
20
362.514070714449
30
0
11
1080.70555898223
21
362.073382303237
31
0
0
LINE
8
layer0
10
1072.07223273457
20
354.596702453605
30
0
11
1088.03632956014
21
364.45371134188
31
0
0
LINE
8
layer0
10
1088.03632956014
20
364.45371134188
30
0
11
1080.70555898223
21
362.073382303237
31
0
0
LINE
8
layer0
10
1080.70555898223
20
362.073382303237
30
0
11
1072.07223273457
21
354.596702453605
31
0
0
LINE
8
layer0
10
936.231822519297
20
234.455456346679
30
0
11
1082.12948563738
21
360.806538959719
31
0
0
LINE
8
layer0
10
1082.12948563738
20
360.806538959719
30
0
11
1072.07223273457
21
354.596702453605
31
0
0
LINE
8
layer0
10
1072.07223273457
20
354.596702453605
30
0
11
939.714422127914
21
239.971476078951
31
0
0
LINE
8
layer0
10
939.714422127914
20
239.971476078951
30
0
11
936.350756219434
21
235.590151441218
31
0
0
LINE
8
layer0
10
936.350756219434
20
235.590151441218
30
0
11
936.231822519297
21
234.455456346679
31
0
0
LINE
8
layer0
10
936.18626263212
20
230.293852849914
30
0
11
945.629485637376
21
242.594071343143
31
0
0
LINE
8
layer0
10
945.629485637376
20
242.594071343143
30
0
11
936.231822519297
21
234.455456346679
31
0
0
LINE
8
layer0
10
936.231822519297
20
234.455456346679
30
0
11
935.859527380399
21
230.903549129936
31
0
0
LINE
8
layer0
10
935.859527380399
20
230.903549129936
30
0
11
936.18626263212
21
230.293852849914
31
0
0
LINE
8
layer0
10
940.820270050763
20
224.421381206742
30
0
11
942.265819728895
21
238.212746705409
31
0
0
LINE
8
layer0
10
942.265819728895
20
238.212746705409
30
0
11
936.18626263212
21
230.293852849914
31
0
0
LINE
8
layer0
10
936.18626263212
20
230.293852849914
30
0
11
938.28882051217
21
226.370426432814
31
0
0
LINE
8
layer0
10
938.28882051217
20
226.370426432814
30
0
11
940.820270050763
21
224.421381206742
31
0
0
LINE
8
layer0
10
948.915056251931
20
220.201854633662
30
0
11
941.774590889861
21
233.526144394128
31
0
0
LINE
8
layer0
10
941.774590889861
20
233.526144394128
30
0
11
940.820270050763
21
224.421381206742
31
0
0
LINE
8
layer0
10
940.820270050763
20
224.421381206742
30
0
11
943.400839477126
21
222.434516983568
31
0
0
LINE
8
layer0
10
943.400839477126
20
222.434516983568
30
0
11
948.915056251931
21
220.201854633662
31
0
0
LINE
8
layer0
10
960.074913841381
20
216.773400317461
30
0
11
944.203884021631
21
228.993021697006
31
0
0
LINE
8
layer0
10
944.203884021631
20
228.993021697006
30
0
11
948.915056251931
21
220.201854633662
31
0
0
LINE
8
layer0
10
948.915056251931
20
220.201854633662
30
0
11
950.695184241448
21
219.481095022185
31
0
0
LINE
8
layer0
10
950.695184241448
20
219.481095022185
30
0
11
960.074913841381
21
216.773400317461
31
0
0
LINE
8
layer0
10
993.869266787591
20
207.017810932169
30
0
11
949.315902986587
21
225.05711224776
31
0
0
LINE
8
layer0
10
949.315902986587
20
225.05711224776
30
0
11
960.074913841381
21
216.773400317461
31
0
0
LINE
8
layer0
10
960.074913841381
20
216.773400317461
30
0
11
993.869266787591
21
207.017810932169
31
0
0
LINE
8
layer0
10
1261.3681098144
20
134.127673436371
30
0
11
956.610247750909
21
222.103690286376
31
0
0
LINE
8
layer0
10
956.610247750909
20
222.103690286376
30
0
11
993.869266787591
21
207.017810932169
31
0
0
LINE
8
layer0
10
993.869266787591
20
207.017810932169
30
0
11
1240.81369450923
21
135.731095022185
31
0
0
LINE
8
layer0
10
1240.81369450923
20
135.731095022185
30
0
11
1249.5763437847
21
134.049262067944
31
0
0
LINE
8
layer0
10
1249.5763437847
20
134.049262067944
30
0
11
1258.94954840726
21
133.803647648427
31
0
0
LINE
8
layer0
10
1258.94954840726
20
133.803647648427
30
0
11
1261.3681098144
21
134.127673436371
31
0
0
LINE
8
layer0
10
1268.18526001969
20
135.073320538752
30
0
11
1238.06850398085
21
140.853690286376
31
0
0
LINE
8
layer0
10
1238.06850398085
20
140.853690286376
30
0
11
1261.3681098144
21
134.127673436371
31
0
0
LINE
8
layer0
10
1261.3681098144
20
134.127673436371
30
0
11
1268.01579380151
21
135.018294214312
31
0
0
LINE
8
layer0
10
1268.01579380151
20
135.018294214312
30
0
11
1268.18526001969
21
135.073320538752
31
0
0
LINE
8
layer0
10
1277.18670098195
20
138.376423909525
30
0
11
1246.83115325632
21
139.171857332136
31
0
0
LINE
8
layer0
10
1246.83115325632
20
139.171857332136
30
0
11
1268.18526001969
21
135.073320538752
31
0
0
LINE
8
layer0
10
1268.18526001969
20
135.073320538752
30
0
11
1275.8876127
21
137.57430369679
31
0
0
LINE
8
layer0
10
1275.8876127
20
137.57430369679
30
0
11
1277.18670098195
21
138.376423909525
31
0
0
LINE
8
layer0
10
1283.34242292276
20
142.562054218944
30
0
11
1256.20435787888
21
138.926242912619
31
0
0
LINE
8
layer0
10
1256.20435787888
20
138.926242912619
30
0
11
1277.18670098195
21
138.376423909525
31
0
0
LINE
8
layer0
10
1277.18670098195
20
138.376423909525
30
0
11
1281.79445662277
21
141.221476078951
31
0
0
LINE
8
layer0
10
1281.79445662277
20
141.221476078951
30
0
11
1283.34242292276
21
142.562054218944
31
0
0
LINE
8
layer0
10
1289.70984603222
20
148.076404388379
30
0
11
1265.27060327313
21
140.140889478504
31
0
0
LINE
8
layer0
10
1265.27060327313
20
140.140889478504
30
0
11
1283.34242292276
21
142.562054218944
31
0
0
LINE
8
layer0
10
1283.34242292276
20
142.562054218944
30
0
11
1289.70984603222
21
148.076404388379
31
0
0
LINE
8
layer0
10
1309.2210248028
20
164.973580861484
30
0
11
1273.14242217162
21
142.696898960982
31
0
0
LINE
8
layer0
10
1273.14242217162
20
142.696898960982
30
0
11
1289.70984603222
21
148.076404388379
31
0
0
LINE
8
layer0
10
1289.70984603222
20
148.076404388379
30
0
11
1309.2210248028
21
164.973580861484
31
0
0
LINE
8
layer0
10
1426.5012997944
20
274.041278367032
30
0
11
1279.04926609438
21
146.344071343143
31
0
0
LINE
8
layer0
10
1279.04926609438
20
146.344071343143
30
0
11
1309.2210248028
21
164.973580861484
31
0
0
LINE
8
layer0
10
1309.2210248028
20
164.973580861484
30
0
11
1423.29445662277
21
263.764070714449
31
0
0
LINE
8
layer0
10
1423.29445662277
20
263.764070714449
30
0
11
1426.65812253125
21
268.145395352183
31
0
0
LINE
8
layer0
10
1426.65812253125
20
268.145395352183
30
0
11
1427.14935137028
21
272.831997663464
31
0
0
LINE
8
layer0
10
1427.14935137028
20
272.831997663464
30
0
11
1426.5012997944
21
274.041278367032
31
0
0
LINE
8
layer0
10
1424.99248909964
20
276.856757452947
30
0
11
1415.54926609438
21
264.556538959719
31
0
0
LINE
8
layer0
10
1415.54926609438
20
264.556538959719
30
0
11
1426.5012997944
21
274.041278367032
31
0
0
LINE
8
layer0
10
1426.5012997944
20
274.041278367032
30
0
11
1424.99248909964
21
276.856757452947
31
0
0
LINE
8
layer0
10
1420.84573397378
20
280.348088457446
30
0
11
1420.13054114596
21
280.554546843277
31
0
0
LINE
8
layer0
10
1420.13054114596
20
280.554546843277
30
0
11
1418.91293200287
21
268.937863597452
31
0
0
LINE
8
layer0
10
1418.91293200287
20
268.937863597452
30
0
11
1424.99248909964
21
276.856757452947
31
0
0
LINE
8
layer0
10
1424.99248909964
20
276.856757452947
30
0
11
1424.72005823851
21
277.365120360586
31
0
0
LINE
8
layer0
10
1424.72005823851
20
277.365120360586
30
0
11
1420.84573397378
21
280.348088457446
31
0
0
LINE
8
layer0
10
1414.87772875763
20
282.07090316648
30
0
11
1419.4041608419
21
273.624465908734
31
0
0
LINE
8
layer0
10
1419.4041608419
20
273.624465908734
30
0
11
1420.13054114596
21
280.554546843277
31
0
0
LINE
8
layer0
10
1420.13054114596
20
280.554546843277
30
0
11
1414.87772875763
21
282.07090316648
31
0
0
LINE
8
layer0
10
1410.10136705664
20
283.449720023387
30
0
11
1416.97486771013
21
278.157588605856
31
0
0
LINE
8
layer0
10
1416.97486771013
20
278.157588605856
30
0
11
1414.87772875763
21
282.07090316648
31
0
0
LINE
8
layer0
10
1414.87772875763
20
282.07090316648
30
0
11
1410.10136705664
21
283.449720023387
31
0
0
LINE
8
layer0
10
1404.56850398085
20
285.046920016485
30
0
11
1411.86284874517
21
282.093498055102
31
0
0
LINE
8
layer0
10
1411.86284874517
20
282.093498055102
30
0
11
1410.10136705664
21
283.449720023387
31
0
0
LINE
8
layer0
10
1410.10136705664
20
283.449720023387
30
0
11
1404.56850398085
21
285.046920016485
31
0
0
ENDBLK
0
BLOCK
8
layer0
2
PF_OBJECT72
70
0
10
0
20
0
30
0
0
LINE
8
layer0
10
550.256258422041
20
617.690812598426
30
0
11
2154.13530623082
21
154.690812598426
31
0
0
LINE
8
layer0
10
2154.13530623082
20
154.690812598426
30
0
11
2154.13530623082
21
414.498433733758
31
0
0
LINE
8
layer0
10
2154.13530623082
20
414.498433733758
30
0
11
550.256258422041
21
877.498433733758
31
0
0
LINE
8
layer0
10
550.256258422041
20
877.498433733758
30
0
11
550.256258422041
21
617.690812598426
31
0
0
LINE
8
layer0
10
2158.13530623082
20
158.154914213564
30
0
11
554.256258422041
21
621.154914213564
31
0
0
LINE
8
layer0
10
554.256258422041
20
621.154914213564
30
0
11
554.256258422041
21
880.962535348895
31
0
0
LINE
8
layer0
10
554.256258422041
20
880.962535348895
30
0
11
2158.13530623082
21
417.962535348895
31
0
0
LINE
8
layer0
10
2158.13530623082
20
417.962535348895
30
0
11
2158.13530623082
21
158.154914213564
31
0
0
LINE
8
layer0
10
2154.13530623082
20
414.498433733758
30
0
11
2154.13530623082
21
154.690812598426
31
0
0
LINE
8
layer0
10
2154.13530623082
20
154.690812598426
30
0
11
2158.13530623082
21
158.154914213564
31
0
0
LINE
8
layer0
10
2158.13530623082
20
158.154914213564
30
0
11
2158.13530623082
21
417.962535348895
31
0
0
LINE
8
layer0
10
2158.13530623082
20
417.962535348895
30
0
11
2154.13530623082
21
414.498433733758
31
0
0
LINE
8
layer0
10
550.256258422041
20
617.690812598426
30
0
11
550.256258422041
21
877.498433733758
31
0
0
LINE
8
layer0
10
550.256258422041
20
877.498433733758
30
0
11
554.256258422041
21
880.962535348895
31
0
0
LINE
8
layer0
10
554.256258422041
20
880.962535348895
30
0
11
554.256258422041
21
621.154914213564
31
0
0
LINE
8
layer0
10
554.256258422041
20
621.154914213564
30
0
11
550.256258422041
21
617.690812598426
31
0
0
LINE
8
layer0
10
550.256258422041
20
877.498433733758
30
0
11
2154.13530623082
21
414.498433733758
31
0
0
LINE
8
layer0
10
2154.13530623082
20
414.498433733758
30
0
11
2158.13530623082
21
417.962535348895
31
0
0
LINE
8
layer0
10
2158.13530623082
20
417.962535348895
30
0
11
554.256258422041
21
880.962535348895
31
0
0
LINE
8
layer0
10
554.256258422041
20
880.962535348895
30
0
11
550.256258422041
21
877.498433733758
31
0
0
LINE
8
layer0
10
2154.13530623082
20
154.690812598426
30
0
11
550.256258422041
21
617.690812598426
31
0
0
LINE
8
layer0
10
550.256258422041
20
617.690812598426
30
0
11
554.256258422041
21
621.154914213564
31
0
0
LINE
8
layer0
10
554.256258422041
20
621.154914213564
30
0
11
2158.13530623082
21
158.154914213564
31
0
0
LINE
8
layer0
10
2158.13530623082
20
158.154914213564
30
0
11
2154.13530623082
21
154.690812598426
31
0
0
ENDBLK
0
BLOCK
8
layer0
2
PF_OBJECT73
70
0
10
0
20
0
30
0
0
LINE
8
layer0
10
1318.32826326022
20
362.254079006132
30
0
11
1311.33937586588
21
366.808126696246
31
0
0
LINE
8
layer0
10
1311.33937586588
20
366.808126696246
30
0
11
1311.33937586588
21
496.711937263912
31
0
0
LINE
8
layer0
10
1311.33937586588
20
496.711937263912
30
0
11
1318.32826326022
21
492.157889573798
31
0
0
LINE
8
layer0
10
1318.32826326022
20
492.157889573798
30
0
11
1318.32826326022
21
362.254079006132
31
0
0
LINE
8
layer0
10
1316.82975692265
20
356.562936167863
30
0
11
1318.32826326022
21
362.254079006132
31
0
0
LINE
8
layer0
10
1318.32826326022
20
362.254079006132
30
0
11
1318.32826326022
21
492.157889573798
31
0
0
LINE
8
layer0
10
1318.32826326022
20
492.157889573798
30
0
11
1316.82975692265
21
486.466746735529
31
0
0
LINE
8
layer0
10
1316.82975692265
20
486.466746735529
30
0
11
1316.82975692265
21
356.562936167863
31
0
0
LINE
8
layer0
10
1307.72166154242
20
353.068492470695
30
0
11
1316.82975692265
21
356.562936167863
31
0
0
LINE
8
layer0
10
1316.82975692265
20
356.562936167863
30
0
11
1316.82975692265
21
486.466746735529
31
0
0
LINE
8
layer0
10
1316.82975692265
20
486.466746735529
30
0
11
1307.72166154242
21
482.972303038361
31
0
0
LINE
8
layer0
10
1307.72166154242
20
482.972303038361
30
0
11
1307.72166154242
21
353.068492470695
31
0
0
LINE
8
layer0
10
1296.33937586588
20
353.81774563948
30
0
11
1307.72166154242
21
353.068492470695
31
0
0
LINE
8
layer0
10
1307.72166154242
20
353.068492470695
30
0
11
1307.72166154242
21
482.972303038361
31
0
0
LINE
8
layer0
10
1307.72166154242
20
482.972303038361
30
0
11
1296.33937586588
21
483.721556207145
31
0
0
LINE
8
layer0
10
1296.33937586588
20
483.721556207145
30
0
11
1296.33937586588
21
353.81774563948
31
0
0
LINE
8
layer0
10
1289.35048847154
20
358.371793329594
30
0
11
1296.33937586588
21
353.81774563948
31
0
0
LINE
8
layer0
10
1296.33937586588
20
353.81774563948
30
0
11
1296.33937586588
21
483.721556207145
31
0
0
LINE
8
layer0
10
1296.33937586588
20
483.721556207145
30
0
11
1289.35048847154
21
488.27560389726
31
0
0
LINE
8
layer0
10
1289.35048847154
20
488.27560389726
30
0
11
1289.35048847154
21
358.371793329594
31
0
0
LINE
8
layer0
10
1290.84899480911
20
364.062936167863
30
0
11
1289.35048847154
21
358.371793329594
31
0
0
LINE
8
layer0
10
1289.35048847154
20
358.371793329594
30
0
11
1289.35048847154
21
488.27560389726
31
0
0
LINE
8
layer0
10
1289.35048847154
20
488.27560389726
30
0
11
1290.84899480911
21
493.966746735529
31
0
0
LINE
8
layer0
10
1290.84899480911
20
493.966746735529
30
0
11
1290.84899480911
21
364.062936167863
31
0
0
LINE
8
layer0
10
1299.95709018934
20
367.557379865031
30
0
11
1290.84899480911
21
364.062936167863
31
0
0
LINE
8
layer0
10
1290.84899480911
20
364.062936167863
30
0
11
1290.84899480911
21
493.966746735529
31
0
0
LINE
8
layer0
10
1290.84899480911
20
493.966746735529
30
0
11
1299.95709018934
21
497.461190432697
31
0
0
LINE
8
layer0
10
1299.95709018934
20
497.461190432697
30
0
11
1299.95709018934
21
367.557379865031
31
0
0
LINE
8
layer0
10
1311.33937586588
20
366.808126696246
30
0
11
1299.95709018934
21
367.557379865031
31
0
0
LINE
8
layer0
10
1299.95709018934
20
367.557379865031
30
0
11
1299.95709018934
21
497.461190432697
31
0
0
LINE
8
layer0
10
1299.95709018934
20
497.461190432697
30
0
11
1311.33937586588
21
496.711937263912
31
0
0
LINE
8
layer0
10
1311.33937586588
20
496.711937263912
30
0
11
1311.33937586588
21
366.808126696246
31
0
0
LINE
8
layer0
10
1311.33937586588
20
496.711937263912
30
0
11
1299.95709018934
21
497.461190432697
31
0
0
LINE
8
layer0
10
1299.95709018934
20
497.461190432697
30
0
11
1290.84899480911
21
493.966746735529
31
0
0
LINE
8
layer0
10
1290.84899480911
20
493.966746735529
30
0
11
1289.35048847154
21
488.27560389726
31
0
0
LINE
8
layer0
10
1289.35048847154
20
488.27560389726
30
0
11
1296.33937586588
21
483.721556207145
31
0
0
LINE
8
layer0
10
1296.33937586588
20
483.721556207145
30
0
11
1307.72166154242
21
482.972303038361
31
0
0
LINE
8
layer0
10
1307.72166154242
20
482.972303038361
30
0
11
1316.82975692265
21
486.466746735529
31
0
0
LINE
8
layer0
10
1316.82975692265
20
486.466746735529
30
0
11
1318.32826326022
21
492.157889573798
31
0
0
LINE
8
layer0
10
1318.32826326022
20
492.157889573798
30
0
11
1311.33937586588
21
496.711937263912
31
0
0
LINE
8
layer0
10
1299.95709018934
20
367.557379865031
30
0
11
1311.33937586588
21
366.808126696246
31
0
0
LINE
8
layer0
10
1311.33937586588
20
366.808126696246
30
0
11
1318.32826326022
21
362.254079006132
31
0
0
LINE
8
layer0
10
1318.32826326022
20
362.254079006132
30
0
11
1316.82975692265
21
356.562936167863
31
0
0
LINE
8
layer0
10
1316.82975692265
20
356.562936167863
30
0
11
1307.72166154242
21
353.068492470695
31
0
0
LINE
8
layer0
10
1307.72166154242
20
353.068492470695
30
0
11
1296.33937586588
21
353.81774563948
31
0
0
LINE
8
layer0
10
1296.33937586588
20
353.81774563948
30
0
11
1289.35048847154
21
358.371793329594
31
0
0
LINE
8
layer0
10
1289.35048847154
20
358.371793329594
30
0
11
1290.84899480911
21
364.062936167863
31
0
0
LINE
8
layer0
10
1290.84899480911
20
364.062936167863
30
0
11
1299.95709018934
21
367.557379865031
31
0
0
ENDBLK
0
BLOCK
8
layer0
2
PF_OBJECT74
70
0
10
0
20
0
30
0
0
LINE
8
layer0
10
1308.49962990372
20
380.329596666258
30
0
11
1312.49962990372
21
383.793698281396
31
0
0
LINE
8
layer0
10
1312.49962990372
20
383.793698281396
30
0
11
1272.49962990372
21
418.434714432774
31
0
0
LINE
8
layer0
10
1272.49962990372
20
418.434714432774
30
0
11
1270.20561040446
21
419.102948424054
31
0
0
LINE
8
layer0
10
1270.20561040446
20
419.102948424054
30
0
11
1267.49962990372
21
417.568689028989
31
0
0
LINE
8
layer0
10
1267.49962990372
20
417.568689028989
30
0
11
1262.49962990372
21
413.238562010067
31
0
0
LINE
8
layer0
10
1262.49962990372
20
413.238562010067
30
0
11
1262.49962990372
21
408.04240958736
31
0
0
LINE
8
layer0
10
1262.49962990372
20
408.04240958736
30
0
11
1267.49962990372
21
412.372536606283
31
0
0
LINE
8
layer0
10
1267.49962990372
20
412.372536606283
30
0
11
1269.47931521418
21
413.653527025984
31
0
0
LINE
8
layer0
10
1269.47931521418
20
413.653527025984
30
0
11
1270.99962990372
21
412.805549308175
31
0
0
LINE
8
layer0
10
1270.99962990372
20
412.805549308175
30
0
11
1308.49962990372
21
380.329596666258
31
0
0
LINE
8
layer0
10
1295.17912182804
20
388.793698281396
30
0
11
1291.17912182804
21
385.329596666258
31
0
0
LINE
8
layer0
10
1291.17912182804
20
385.329596666258
30
0
11
1253.67912182804
21
417.805549308175
31
0
0
LINE
8
layer0
10
1253.67912182804
20
417.805549308175
30
0
11
1252.15880713849
21
418.653527025984
31
0
0
LINE
8
layer0
10
1252.15880713849
20
418.653527025984
30
0
11
1250.17912182804
21
417.372536606283
31
0
0
LINE
8
layer0
10
1250.17912182804
20
417.372536606283
30
0
11
1245.17912182804
21
413.04240958736
31
0
0
LINE
8
layer0
10
1245.17912182804
20
413.04240958736
30
0
11
1245.17912182804
21
418.238562010067
31
0
0
LINE
8
layer0
10
1245.17912182804
20
418.238562010067
30
0
11
1250.17912182804
21
422.568689028989
31
0
0
LINE
8
layer0
10
1250.17912182804
20
422.568689028989
30
0
11
1252.88510232877
21
424.102948424054
31
0
0
LINE
8
layer0
10
1252.88510232877
20
424.102948424054
30
0
11
1255.17912182804
21
423.434714432774
31
0
0
LINE
8
layer0
10
1255.17912182804
20
423.434714432774
30
0
11
1295.17912182804
21
388.793698281396
31
0
0
LINE
8
layer0
10
1295.17912182804
20
388.793698281396
30
0
11
1312.49962990372
21
383.793698281396
31
0
0
LINE
8
layer0
10
1312.49962990372
20
383.793698281396
30
0
11
1308.49962990372
21
380.329596666258
31
0
0
LINE
8
layer0
10
1308.49962990372
20
380.329596666258
30
0
11
1291.17912182804
21
385.329596666258
31
0
0
LINE
8
layer0
10
1291.17912182804
20
385.329596666258
30
0
11
1295.17912182804
21
388.793698281396
31
0
0
LINE
8
layer0
10
1291.17912182804
20
385.329596666258
30
0
11
1308.49962990372
21
380.329596666258
31
0
0
LINE
8
layer0
10
1308.49962990372
20
380.329596666258
30
0
11
1270.99962990372
21
412.805549308175
31
0
0
LINE
8
layer0
10
1270.99962990372
20
412.805549308175
30
0
11
1253.67912182804
21
417.805549308175
31
0
0
LINE
8
layer0
10
1253.67912182804
20
417.805549308175
30
0
11
1291.17912182804
21
385.329596666258
31
0
0
LINE
8
layer0
10
1253.67912182804
20
417.805549308175
30
0
11
1270.99962990372
21
412.805549308175
31
0
0
LINE
8
layer0
10
1270.99962990372
20
412.805549308175
30
0
11
1269.47931521418
21
413.653527025984
31
0
0
LINE
8
layer0
10
1269.47931521418
20
413.653527025984
30
0
11
1252.15880713849
21
418.653527025984
31
0
0
LINE
8
layer0
10
1252.15880713849
20
418.653527025984
30
0
11
1253.67912182804
21
417.805549308175
31
0
0
LINE
8
layer0
10
1252.15880713849
20
418.653527025984
30
0
11
1269.47931521418
21
413.653527025984
31
0
0
LINE
8
layer0
10
1269.47931521418
20
413.653527025984
30
0
11
1267.49962990372
21
412.372536606283
31
0
0
LINE
8
layer0
10
1267.49962990372
20
412.372536606283
30
0
11
1250.17912182804
21
417.372536606283
31
0
0
LINE
8
layer0
10
1250.17912182804
20
417.372536606283
30
0
11
1252.15880713849
21
418.653527025984
31
0
0
LINE
8
layer0
10
1250.17912182804
20
417.372536606283
30
0
11
1267.49962990372
21
412.372536606283
31
0
0
LINE
8
layer0
10
1267.49962990372
20
412.372536606283
30
0
11
1262.49962990372
21
408.04240958736
31
0
0
LINE
8
layer0
10
1262.49962990372
20
408.04240958736
30
0
11
1245.17912182804
21
413.04240958736
31
0
0
LINE
8
layer0
10
1245.17912182804
20
413.04240958736
30
0
11
1250.17912182804
21
417.372536606283
31
0
0
LINE
8
layer0
10
1245.17912182804
20
413.04240958736
30
0
11
1262.49962990372
21
408.04240958736
31
0
0
LINE
8
layer0
10
1262.49962990372
20
408.04240958736
30
0
11
1262.49962990372
21
413.238562010067
31
0
0
LINE
8
layer0
10
1262.49962990372
20
413.238562010067
30
0
11
1245.17912182804
21
418.238562010067
31
0
0
LINE
8
layer0
10
1245.17912182804
20
418.238562010067
30
0
11
1245.17912182804
21
413.04240958736
31
0
0
LINE
8
layer0
10
1245.17912182804
20
418.238562010067
30
0
11
1262.49962990372
21
413.238562010067
31
0
0
LINE
8
layer0
10
1262.49962990372
20
413.238562010067
30
0
11
1267.49962990372
21
417.568689028989
31
0
0
LINE
8
layer0
10
1267.49962990372
20
417.568689028989
30
0
11
1250.17912182804
21
422.568689028989
31
0
0
LINE
8
layer0
10
1250.17912182804
20
422.568689028989
30
0
11
1245.17912182804
21
418.238562010067
31
0
0
LINE
8
layer0
10
1250.17912182804
20
422.568689028989
30
0
11
1267.49962990372
21
417.568689028989
31
0
0
LINE
8
layer0
10
1267.49962990372
20
417.568689028989
30
0
11
1270.20561040446
21
419.102948424054
31
0
0
LINE
8
layer0
10
1270.20561040446
20
419.102948424054
30
0
11
1252.88510232877
21
424.102948424054
31
0
0
LINE
8
layer0
10
1252.88510232877
20
424.102948424054
30
0
11
1250.17912182804
21
422.568689028989
31
0
0
LINE
8
layer0
10
1252.88510232877
20
424.102948424054
30
0
11
1270.20561040446
21
419.102948424054
31
0
0
LINE
8
layer0
10
1270.20561040446
20
419.102948424054
30
0
11
1272.49962990372
21
418.434714432774
31
0
0
LINE
8
layer0
10
1272.49962990372
20
418.434714432774
30
0
11
1255.17912182804
21
423.434714432774
31
0
0
LINE
8
layer0
10
1255.17912182804
20
423.434714432774
30
0
11
1252.88510232877
21
424.102948424054
31
0
0
LINE
8
layer0
10
1255.17912182804
20
423.434714432774
30
0
11
1272.49962990372
21
418.434714432774
31
0
0
LINE
8
layer0
10
1272.49962990372
20
418.434714432774
30
0
11
1312.49962990372
21
383.793698281396
31
0
0
LINE
8
layer0
10
1312.49962990372
20
383.793698281396
30
0
11
1295.17912182804
21
388.793698281396
31
0
0
LINE
8
layer0
10
1295.17912182804
20
388.793698281396
30
0
11
1255.17912182804
21
423.434714432774
31
0
0
ENDBLK
0
BLOCK
8
layer0
2
PF_OBJECT75
70
0
10
0
20
0
30
0
0
LINE
8
layer0
10
1311.16469341319
20
475.400403784439
30
0
11
1289.51405831857
21
481.650403784439
31
0
0
LINE
8
layer0
10
1289.51405831857
20
481.650403784439
30
0
11
1289.94817876274
21
486.290705777152
31
0
0
LINE
8
layer0
10
1289.94817876274
20
486.290705777152
30
0
11
1311.59881385735
21
480.040705777152
31
0
0
LINE
8
layer0
10
1311.59881385735
20
480.040705777152
30
0
11
1311.16469341319
21
475.400403784439
31
0
0
LINE
8
layer0
10
1255.04578696315
20
462.326866488734
30
0
11
1276.69642205776
21
456.076866488734
31
0
0
LINE
8
layer0
10
1276.69642205776
20
456.076866488734
30
0
11
1277.13054250193
21
460.717168481447
31
0
0
LINE
8
layer0
10
1277.13054250193
20
460.717168481447
30
0
11
1255.47990740731
21
466.967168481447
31
0
0
LINE
8
layer0
10
1255.47990740731
20
466.967168481447
30
0
11
1255.04578696315
21
462.326866488734
31
0
0
LINE
8
layer0
10
1289.51405831857
20
481.650403784439
30
0
11
1255.04578696315
21
462.326866488734
31
0
0
LINE
8
layer0
10
1255.04578696315
20
462.326866488734
30
0
11
1255.47990740731
21
466.967168481447
31
0
0
LINE
8
layer0
10
1255.47990740731
20
466.967168481447
30
0
11
1289.94817876274
21
486.290705777152
31
0
0
LINE
8
layer0
10
1289.94817876274
20
486.290705777152
30
0
11
1289.51405831857
21
481.650403784439
31
0
0
LINE
8
layer0
10
1276.69642205776
20
456.076866488734
30
0
11
1311.16469341319
21
475.400403784439
31
0
0
LINE
8
layer0
10
1311.16469341319
20
475.400403784439
30
0
11
1311.59881385735
21
480.040705777152
31
0
0
LINE
8
layer0
10
1311.59881385735
20
480.040705777152
30
0
11
1277.13054250193
21
460.717168481447
31
0
0
LINE
8
layer0
10
1277.13054250193
20
460.717168481447
30
0
11
1276.69642205776
21
456.076866488734
31
0
0
LINE
8
layer0
10
1311.59881385735
20
480.040705777152
30
0
11
1289.94817876274
21
486.290705777152
31
0
0
LINE
8
layer0
10
1289.94817876274
20
486.290705777152
30
0
11
1255.47990740731
21
466.967168481447
31
0
0
LINE
8
layer0
10
1255.47990740731
20
466.967168481447
30
0
11
1277.13054250193
21
460.717168481447
31
0
0
LINE
8
layer0
10
1277.13054250193
20
460.717168481447
30
0
11
1311.59881385735
21
480.040705777152
31
0
0
LINE
8
layer0
10
1289.51405831857
20
481.650403784439
30
0
11
1311.16469341319
21
475.400403784439
31
0
0
LINE
8
layer0
10
1311.16469341319
20
475.400403784439
30
0
11
1276.69642205776
21
456.076866488734
31
0
0
LINE
8
layer0
10
1276.69642205776
20
456.076866488734
30
0
11
1255.04578696315
21
462.326866488734
31
0
0
LINE
8
layer0
10
1255.04578696315
20
462.326866488734
30
0
11
1289.51405831857
21
481.650403784439
31
0
0
ENDBLK
0
BLOCK
8
layer0
2
PF_OBJECT76
70
0
10
0
20
0
30
0
0
LINE
8
layer0
10
1875.61864573243
20
-711.762794416288
30
0
11
1875.61864573243
21
-841.666604983954
31
0
0
LINE
8
layer0
10
1875.61864573243
20
-841.666604983954
30
0
11
316.772918920436
21
-391.666604983954
31
0
0
LINE
8
layer0
10
316.772918920436
20
-391.666604983954
30
0
11
316.772918920436
21
-261.762794416288
31
0
0
LINE
8
layer0
10
316.772918920436
20
-261.762794416288
30
0
11
1875.61864573243
21
-711.762794416288
31
0
0
LINE
8
layer0
10
308.777918920436
20
-398.590478087211
30
0
11
316.772918920436
21
-391.666604983954
31
0
0
LINE
8
layer0
10
316.772918920436
20
-391.666604983954
30
0
11
1875.61864573243
21
-841.666604983954
31
0
0
LINE
8
layer0
10
1875.61864573243
20
-841.666604983954
30
0
11
1867.62364573243
21
-848.590478087211
31
0
0
LINE
8
layer0
10
1867.62364573243
20
-848.590478087211
30
0
11
308.777918920436
21
-398.590478087211
31
0
0
LINE
8
layer0
10
308.777918920436
20
-268.686667519545
30
0
11
316.772918920436
21
-261.762794416288
31
0
0
LINE
8
layer0
10
316.772918920436
20
-261.762794416288
30
0
11
316.772918920436
21
-391.666604983954
31
0
0
LINE
8
layer0
10
316.772918920436
20
-391.666604983954
30
0
11
308.777918920436
21
-398.590478087211
31
0
0
LINE
8
layer0
10
308.777918920436
20
-398.590478087211
30
0
11
308.777918920436
21
-268.686667519545
31
0
0
LINE
8
layer0
10
1875.61864573243
20
-711.762794416288
30
0
11
1867.62364573243
21
-718.686667519545
31
0
0
LINE
8
layer0
10
1867.62364573243
20
-718.686667519545
30
0
11
1867.62364573243
21
-848.590478087211
31
0
0
LINE
8
layer0
10
1867.62364573243
20
-848.590478087211
30
0
11
1875.61864573243
21
-841.666604983954
31
0
0
LINE
8
layer0
10
1875.61864573243
20
-841.666604983954
30
0
11
1875.61864573243
21
-711.762794416288
31
0
0
LINE
8
layer0
10
1867.62364573243
20
-718.686667519545
30
0
11
1875.61864573243
21
-711.762794416288
31
0
0
LINE
8
layer0
10
1875.61864573243
20
-711.762794416288
30
0
11
316.772918920436
21
-261.762794416288
31
0
0
LINE
8
layer0
10
316.772918920436
20
-261.762794416288
30
0
11
308.777918920436
21
-268.686667519545
31
0
0
LINE
8
layer0
10
308.777918920436
20
-268.686667519545
30
0
11
1867.62364573243
21
-718.686667519545
31
0
0
LINE
8
layer0
10
308.777918920436
20
-268.686667519545
30
0
11
308.777918920436
21
-398.590478087211
31
0
0
LINE
8
layer0
10
308.777918920436
20
-398.590478087211
30
0
11
1867.62364573243
21
-848.59047808721
31
0
0
LINE
8
layer0
10
1867.62364573243
20
-848.59047808721
30
0
11
1867.62364573243
21
-718.686667519545
31
0
0
LINE
8
layer0
10
1867.62364573243
20
-718.686667519545
30
0
11
308.777918920436
21
-268.686667519545
31
0
0
ENDBLK
0
ENDSEC
0
SECTION
2
ENTITIES
0
INSERT
2
PF_OBJECT0
8
0
10
0
20
0
30
0
0
INSERT
2
PF_OBJECT1
8
0
10
0
20
0
30
0
0
INSERT
2
PF_OBJECT2
8
0
10
0
20
0
30
0
0
INSERT
2
PF_OBJECT3
8
0
10
0
20
0
30
0
0
INSERT
2
PF_OBJECT4
8
0
10
0
20
0
30
0
0
INSERT
2
PF_OBJECT5
8
0
10
0
20
0
30
0
0
INSERT
2
PF_OBJECT6
8
0
10
0
20
0
30
0
0
INSERT
2
PF_OBJECT7
8
0
10
0
20
0
30
0
0
INSERT
2
PF_SKETCH8
8
0
10
0
20
0
30
0
0
INSERT
2
PF_SKETCH9
8
0
10
0
20
0
30
0
0
INSERT
2
PF_SKETCH10
8
0
10
0
20
0
30
0
0
INSERT
2
PF_SKETCH11
8
0
10
0
20
0
30
0
0
INSERT
2
PF_SKETCH12
8
0
10
0
20
0
30
0
0
INSERT
2
PF_SKETCH13
8
0
10
0
20
0
30
0
0
INSERT
2
PF_OBJECT14
8
0
10
0
20
0
30
0
0
INSERT
2
PF_OBJECT15
8
0
10
0
20
0
30
0
0
INSERT
2
PF_OBJECT16
8
0
10
0
20
0
30
0
0
INSERT
2
PF_OBJECT17
8
0
10
0
20
0
30
0
0
INSERT
2
PF_OBJECT18
8
0
10
0
20
0
30
0
0
INSERT
2
PF_OBJECT19
8
0
10
0
20
0
30
0
0
INSERT
2
PF_OBJECT20
8
0
10
0
20
0
30
0
0
INSERT
2
PF_OBJECT21
8
0
10
0
20
0
30
0
0
INSERT
2
PF_OBJECT22
8
0
10
0
20
0
30
0
0
INSERT
2
PF_OBJECT23
8
0
10
0
20
0
30
0
0
INSERT
2
PF_OBJECT24
8
0
10
0
20
0
30
0
0
INSERT
2
PF_OBJECT25
8
0
10
0
20
0
30
0
0
INSERT
2
PF_SKETCH26
8
0
10
0
20
0
30
0
0
INSERT
2
PF_SKETCH27
8
0
10
0
20
0
30
0
0
INSERT
2
PF_SKETCH28
8
0
10
0
20
0
30
0
0
INSERT
2
PF_SKETCH29
8
0
10
0
20
0
30
0
0
INSERT
2
PF_SKETCH30
8
0
10
0
20
0
30
0
0
INSERT
2
PF_SKETCH31
8
0
10
0
20
0
30
0
0
INSERT
2
PF_OBJECT32
8
0
10
0
20
0
30
0
0
INSERT
2
PF_OBJECT33
8
0
10
0
20
0
30
0
0
INSERT
2
PF_OBJECT34
8
0
10
0
20
0
30
0
0
INSERT
2
PF_OBJECT35
8
0
10
0
20
0
30
0
0
INSERT
2
PF_SKETCH36
8
0
10
0
20
0
30
0
0
INSERT
2
PF_SKETCH37
8
0
10
0
20
0
30
0
0
INSERT
2
PF_SKETCH38
8
0
10
0
20
0
30
0
0
INSERT
2
PF_SKETCH39
8
0
10
0
20
0
30
0
0
INSERT
2
PF_SKETCH40
8
0
10
0
20
0
30
0
0
INSERT
2
PF_SKETCH41
8
0
10
0
20
0
30
0
0
INSERT
2
PF_OBJECT42
8
0
10
0
20
0
30
0
0
INSERT
2
PF_OBJECT43
8
0
10
0
20
0
30
0
0
INSERT
2
PF_OBJECT44
8
0
10
0
20
0
30
0
0
INSERT
2
PF_OBJECT45
8
0
10
0
20
0
30
0
0
INSERT
2
PF_OBJECT46
8
0
10
0
20
0
30
0
0
INSERT
2
PF_OBJECT47
8
0
10
0
20
0
30
0
0
INSERT
2
PF_OBJECT48
8
0
10
0
20
0
30
0
0
INSERT
2
PF_OBJECT49
8
0
10
0
20
0
30
0
0
INSERT
2
PF_OBJECT50
8
0
10
0
20
0
30
0
0
INSERT
2
PF_OBJECT51
8
0
10
0
20
0
30
0
0
INSERT
2
PF_SKETCH52
8
0
10
0
20
0
30
0
0
INSERT
2
PF_SKETCH53
8
0
10
0
20
0
30
0
0
INSERT
2
PF_OBJECT54
8
0
10
0
20
0
30
0
0
INSERT
2
PF_OBJECT55
8
0
10
0
20
0
30
0
0
INSERT
2
PF_OBJECT56
8
0
10
0
20
0
30
0
0
INSERT
2
PF_OBJECT57
8
0
10
0
20
0
30
0
0
INSERT
2
PF_OBJECT58
8
0
10
0
20
0
30
0
0
INSERT
2
PF_OBJECT59
8
0
10
0
20
0
30
0
0
INSERT
2
PF_OBJECT60
8
0
10
0
20
0
30
0
0
INSERT
2
PF_OBJECT61
8
0
10
0
20
0
30
0
0
INSERT
2
PF_OBJECT62
8
0
10
0
20
0
30
0
0
INSERT
2
PF_OBJECT63
8
0
10
0
20
0
30
0
0
INSERT
2
PF_OBJECT64
8
0
10
0
20
0
30
0
0
INSERT
2
PF_OBJECT65
8
0
10
0
20
0
30
0
0
INSERT
2
PF_OBJECT66
8
0
10
0
20
0
30
0
0
INSERT
2
PF_SKETCH67
8
0
10
0
20
0
30
0
0
INSERT
2
PF_SKETCH68
8
0
10
0
20
0
30
0
0
INSERT
2
PF_OBJECT69
8
0
10
0
20
0
30
0
0
INSERT
2
PF_OBJECT70
8
0
10
0
20
0
30
0
0
INSERT
2
PF_OBJECT71
8
0
10
0
20
0
30
0
0
INSERT
2
PF_OBJECT72
8
0
10
0
20
0
30
0
0
INSERT
2
PF_OBJECT73
8
0
10
0
20
0
30
0
0
INSERT
2
PF_OBJECT74
8
0
10
0
20
0
30
0
0
INSERT
2
PF_OBJECT75
8
0
10
0
20
0
30
0
0
INSERT
2
PF_OBJECT76
8
0
10
0
20
0
30
0
0
ENDSEC
0
EOF
