0
SECTION
2
HEADER
9
$EXTMIN
10
-570.000000000001
20
-570
30
0
9
$EXTMAX
10
4570
20
2750
30
0
0
ENDSEC
0
SECTION
2
TABLES
0
TABLE
2
LAYER
5
2
70
3
0
LAYER
5
14
2
layer0
5
14
70
0
62
7
6
CONTINUOUS
0
ENDTAB
0
TABLE
2
DIMSTYLE
70
2
0
DIMSTYLE
2
PFDIMSTYLE
70
0
3

4

5

6

7

40
1
41
30
42
0
43
0
44
1
45
0
46
0
47
0
48
0
71
0
72
0
73
0
74
0
75
0
76
0
77
2
78
12
140
30
141
0
142
0
143
1
144
1
145
0
146
1
147
5
170
0
171
1
172
0
173
1
174
0
175
0
176
7
177
7
178
7
0
ENDTAB
0
ENDSEC
0
SECTION
2
BLOCKS
0
BLOCK
8
layer0
2
PF_OBJECT0
70
0
10
0
20
0
30
0
0
LINE
8
layer0
10
3499.10161513775
20
1325.27820916122
30
0
11
3499.10161513775
21
-969.689110867545
31
0
0
LINE
8
layer0
10
3499.10161513775
20
-969.689110867545
30
0
11
-25.6217782649107
21
47.8108891324554
31
0
0
LINE
8
layer0
10
-25.6217782649107
20
47.8108891324554
30
0
11
-25.6217782649108
21
2342.77820916122
31
0
0
LINE
8
layer0
10
-25.6217782649108
20
2342.77820916122
30
0
11
3499.10161513775
21
1325.27820916122
31
0
0
LINE
8
layer0
10
3464.10161513775
20
1294.96732002876
30
0
11
3499.10161513775
21
1325.27820916122
31
0
0
LINE
8
layer0
10
3499.10161513775
20
1325.27820916122
30
0
11
-25.6217782649107
21
2342.77820916122
31
0
0
LINE
8
layer0
10
-25.6217782649107
20
2342.77820916122
30
0
11
-2.46139223857096E-14
21
2294.96732002876
31
0
0
LINE
8
layer0
10
-2.46139223857096E-14
20
2294.96732002876
30
0
11
3464.10161513775
21
1294.96732002876
31
0
0
LINE
8
layer0
10
0
20
0
30
0
11
-25.6217782649108
21
47.8108891324554
31
0
0
LINE
8
layer0
10
-25.6217782649108
20
47.8108891324554
30
0
11
3499.10161513775
21
-969.689110867545
31
0
0
LINE
8
layer0
10
3499.10161513775
20
-969.689110867545
30
0
11
3464.10161513775
21
-1000
31
0
0
LINE
8
layer0
10
3464.10161513775
20
-1000
30
0
11
0
21
0
31
0
0
LINE
8
layer0
10
3464.10161513775
20
1294.96732002876
30
0
11
3464.10161513775
21
-1000
31
0
0
LINE
8
layer0
10
3464.10161513775
20
-1000
30
0
11
3499.10161513775
21
-969.689110867545
31
0
0
LINE
8
layer0
10
3499.10161513775
20
-969.689110867545
30
0
11
3499.10161513775
21
1325.27820916122
31
0
0
LINE
8
layer0
10
3499.10161513775
20
1325.27820916122
30
0
11
3464.10161513775
21
1294.96732002876
31
0
0
LINE
8
layer0
10
-25.6217782649108
20
2342.77820916122
30
0
11
-25.6217782649108
21
47.8108891324554
31
0
0
LINE
8
layer0
10
-25.6217782649108
20
47.8108891324554
30
0
11
-3.69208835785644E-14
21
1.06581410364015E-14
31
0
0
LINE
8
layer0
10
-3.69208835785644E-14
20
1.06581410364015E-14
30
0
11
-2.46139223857096E-14
21
2294.96732002876
31
0
0
LINE
8
layer0
10
-2.46139223857096E-14
20
2294.96732002876
30
0
11
-25.6217782649108
21
2342.77820916122
31
0
0
LINE
8
layer0
10
0
20
2294.96732002876
30
0
11
-2.46139223857096E-14
21
7.105427357601E-15
31
0
0
LINE
8
layer0
10
-2.46139223857096E-14
20
7.105427357601E-15
30
0
11
3464.10161513775
21
-1000
31
0
0
LINE
8
layer0
10
3464.10161513775
20
-1000
30
0
11
3464.10161513775
21
1294.96732002876
31
0
0
LINE
8
layer0
10
3464.10161513775
20
1294.96732002876
30
0
11
0
21
2294.96732002876
31
0
0
ENDBLK
0
BLOCK
8
layer0
2
PF_OBJECT1
70
0
10
0
20
0
30
0
0
LINE
8
layer0
10
-25.621778264911
20
2342.77820916122
30
0
11
-25.621778264911
21
47.8108891324557
31
0
0
LINE
8
layer0
10
-25.621778264911
20
47.8108891324557
30
0
11
-1560.62177826491
21
-1281.53810567666
31
0
0
LINE
8
layer0
10
-1560.62177826491
20
-1281.53810567666
30
0
11
-1560.62177826491
21
1013.4292143521
31
0
0
LINE
8
layer0
10
-1560.62177826491
20
1013.4292143521
30
0
11
-25.621778264911
21
2342.77820916122
31
0
0
LINE
8
layer0
10
-2.27373675443232E-13
20
2294.96732002876
30
0
11
-25.621778264911
21
2342.77820916122
31
0
0
LINE
8
layer0
10
-25.621778264911
20
2342.77820916122
30
0
11
-1560.62177826491
21
1013.4292143521
31
0
0
LINE
8
layer0
10
-1560.62177826491
20
1013.4292143521
30
0
11
-1500
21
995.929214352105
31
0
0
LINE
8
layer0
10
-1500
20
995.929214352105
30
0
11
-2.27373675443232E-13
21
2294.96732002876
31
0
0
LINE
8
layer0
10
-1500
20
-1299.03810567666
30
0
11
-1560.62177826491
21
-1281.53810567666
31
0
0
LINE
8
layer0
10
-1560.62177826491
20
-1281.53810567666
30
0
11
-25.621778264911
21
47.8108891324557
31
0
0
LINE
8
layer0
10
-25.621778264911
20
47.8108891324557
30
0
11
-2.27373675443232E-13
21
4.54747350886464E-13
31
0
0
LINE
8
layer0
10
-2.27373675443232E-13
20
4.54747350886464E-13
30
0
11
-1500
21
-1299.03810567666
31
0
0
LINE
8
layer0
10
-1560.62177826491
20
1013.4292143521
30
0
11
-1560.62177826491
21
-1281.53810567666
31
0
0
LINE
8
layer0
10
-1560.62177826491
20
-1281.53810567666
30
0
11
-1500
21
-1299.03810567666
31
0
0
LINE
8
layer0
10
-1500
20
-1299.03810567666
30
0
11
-1500
21
995.929214352105
31
0
0
LINE
8
layer0
10
-1500
20
995.929214352105
30
0
11
-1560.62177826491
21
1013.4292143521
31
0
0
LINE
8
layer0
10
-4.54747350886464E-13
20
2294.96732002876
30
0
11
-4.54747350886464E-13
21
2.27373675443232E-13
31
0
0
LINE
8
layer0
10
-4.54747350886464E-13
20
2.27373675443232E-13
30
0
11
-25.6217782649112
21
47.8108891324555
31
0
0
LINE
8
layer0
10
-25.6217782649112
20
47.8108891324555
30
0
11
-25.6217782649112
21
2342.77820916122
31
0
0
LINE
8
layer0
10
-25.6217782649112
20
2342.77820916122
30
0
11
-4.54747350886464E-13
21
2294.96732002876
31
0
0
LINE
8
layer0
10
-1500
20
995.929214352105
30
0
11
-1500
21
-1299.03810567666
31
0
0
LINE
8
layer0
10
-1500
20
-1299.03810567666
30
0
11
-2.27373675443232E-13
21
4.54747350886464E-13
31
0
0
LINE
8
layer0
10
-2.27373675443232E-13
20
4.54747350886464E-13
30
0
11
-2.27373675443232E-13
21
2294.96732002876
31
0
0
LINE
8
layer0
10
-2.27373675443232E-13
20
2294.96732002876
30
0
11
-1500
21
995.929214352105
31
0
0
ENDBLK
0
BLOCK
8
layer0
2
PF_OBJECT2
70
0
10
0
20
0
30
0
0
LINE
8
layer0
10
0
20
0
30
0
11
-1500
21
-1299.03810567666
31
0
0
LINE
8
layer0
10
-1500
20
-1299.03810567666
30
0
11
1964.10161513776
21
-2299.03810567666
31
0
0
LINE
8
layer0
10
1964.10161513776
20
-2299.03810567666
30
0
11
3464.10161513775
21
-1000
31
0
0
LINE
8
layer0
10
3464.10161513775
20
-1000
30
0
11
0
21
0
31
0
0
LINE
8
layer0
10
0
20
0
30
0
11
3464.10161513775
21
-1000
31
0
0
LINE
8
layer0
10
3464.10161513775
20
-1000
30
0
11
-1500
21
-1299.03810567666
31
0
0
LINE
8
layer0
10
-1500
20
-1299.03810567666
30
0
11
0
21
0
31
0
0
LINE
8
layer0
10
3464.10161513775
20
-1000
30
0
11
1964.10161513776
21
-2299.03810567666
31
0
0
LINE
8
layer0
10
1964.10161513776
20
-2299.03810567666
30
0
11
-1500
21
-1299.03810567666
31
0
0
LINE
8
layer0
10
-1500
20
-1299.03810567666
30
0
11
3464.10161513775
21
-1000
31
0
0
ENDBLK
0
BLOCK
8
layer0
2
PF_OBJECT3
70
0
10
0
20
0
30
0
0
LINE
8
layer0
10
1041.67534827
20
-201.978875334514
30
0
11
549.772918920436
21
-59.978875334514
31
0
0
LINE
8
layer0
10
549.772918920436
20
-59.978875334514
30
0
11
549.772918920436
21
-46.122468873963
31
0
0
LINE
8
layer0
10
549.772918920436
20
-46.122468873963
30
0
11
1041.67534827
21
-188.122468873963
31
0
0
LINE
8
layer0
10
1041.67534827
20
-188.122468873963
30
0
11
1041.67534827
21
-201.978875334514
31
0
0
LINE
8
layer0
10
294.272918920436
20
-281.248366001438
30
0
11
786.175348269997
21
-423.248366001438
31
0
0
LINE
8
layer0
10
786.175348269997
20
-423.248366001438
30
0
11
786.175348269997
21
-409.391959540887
31
0
0
LINE
8
layer0
10
786.175348269997
20
-409.391959540887
30
0
11
294.272918920436
21
-267.391959540887
31
0
0
LINE
8
layer0
10
294.272918920436
20
-267.391959540887
30
0
11
294.272918920436
21
-281.248366001438
31
0
0
LINE
8
layer0
10
549.772918920436
20
-59.978875334514
30
0
11
294.272918920436
21
-281.248366001438
31
0
0
LINE
8
layer0
10
294.272918920436
20
-281.248366001438
30
0
11
294.272918920436
21
-267.391959540887
31
0
0
LINE
8
layer0
10
294.272918920436
20
-267.391959540887
30
0
11
549.772918920436
21
-46.122468873963
31
0
0
LINE
8
layer0
10
549.772918920436
20
-46.122468873963
30
0
11
549.772918920436
21
-59.978875334514
31
0
0
LINE
8
layer0
10
786.175348269997
20
-423.248366001438
30
0
11
1041.67534827
21
-201.978875334514
31
0
0
LINE
8
layer0
10
1041.67534827
20
-201.978875334514
30
0
11
1041.67534827
21
-188.122468873963
31
0
0
LINE
8
layer0
10
1041.67534827
20
-188.122468873963
30
0
11
786.175348269997
21
-409.391959540887
31
0
0
LINE
8
layer0
10
786.175348269997
20
-409.391959540887
30
0
11
786.175348269997
21
-423.248366001438
31
0
0
LINE
8
layer0
10
1041.67534827
20
-188.122468873963
30
0
11
549.772918920436
21
-46.122468873963
31
0
0
LINE
8
layer0
10
549.772918920436
20
-46.122468873963
30
0
11
294.272918920436
21
-267.391959540887
31
0
0
LINE
8
layer0
10
294.272918920436
20
-267.391959540887
30
0
11
786.175348269997
21
-409.391959540887
31
0
0
LINE
8
layer0
10
786.175348269997
20
-409.391959540887
30
0
11
1041.67534827
21
-188.122468873963
31
0
0
LINE
8
layer0
10
549.772918920436
20
-59.978875334514
30
0
11
1041.67534827
21
-201.978875334514
31
0
0
LINE
8
layer0
10
1041.67534827
20
-201.978875334514
30
0
11
786.175348269997
21
-423.248366001438
31
0
0
LINE
8
layer0
10
786.175348269997
20
-423.248366001438
30
0
11
294.272918920436
21
-281.248366001438
31
0
0
LINE
8
layer0
10
294.272918920436
20
-281.248366001438
30
0
11
549.772918920436
21
-59.978875334514
31
0
0
ENDBLK
0
BLOCK
8
layer0
2
PF_OBJECT4
70
0
10
0
20
0
30
0
0
LINE
8
layer0
10
1043.67534827
20
-200.246824526945
30
0
11
551.772918920436
21
-58.2468245269451
31
0
0
LINE
8
layer0
10
551.772918920436
20
-58.2468245269451
30
0
11
551.772918920436
21
565.291466197851
31
0
0
LINE
8
layer0
10
551.772918920436
20
565.291466197851
30
0
11
1043.67534827
21
423.291466197851
31
0
0
LINE
8
layer0
10
1043.67534827
20
423.291466197851
30
0
11
1043.67534827
21
-200.246824526945
31
0
0
LINE
8
layer0
10
549.772918920436
20
-59.978875334514
30
0
11
1041.67534827
21
-201.978875334514
31
0
0
LINE
8
layer0
10
1041.67534827
20
-201.978875334514
30
0
11
1041.67534827
21
421.559415390282
31
0
0
LINE
8
layer0
10
1041.67534827
20
421.559415390282
30
0
11
549.772918920436
21
563.559415390282
31
0
0
LINE
8
layer0
10
549.772918920436
20
563.559415390282
30
0
11
549.772918920436
21
-59.978875334514
31
0
0
LINE
8
layer0
10
551.772918920436
20
-58.2468245269451
30
0
11
549.772918920436
21
-59.978875334514
31
0
0
LINE
8
layer0
10
549.772918920436
20
-59.978875334514
30
0
11
549.772918920436
21
563.559415390282
31
0
0
LINE
8
layer0
10
549.772918920436
20
563.559415390282
30
0
11
551.772918920436
21
565.291466197851
31
0
0
LINE
8
layer0
10
551.772918920436
20
565.291466197851
30
0
11
551.772918920436
21
-58.2468245269451
31
0
0
LINE
8
layer0
10
1041.67534827
20
-201.978875334514
30
0
11
1043.67534827
21
-200.246824526945
31
0
0
LINE
8
layer0
10
1043.67534827
20
-200.246824526945
30
0
11
1043.67534827
21
423.291466197851
31
0
0
LINE
8
layer0
10
1043.67534827
20
423.291466197851
30
0
11
1041.67534827
21
421.559415390282
31
0
0
LINE
8
layer0
10
1041.67534827
20
421.559415390282
30
0
11
1041.67534827
21
-201.978875334514
31
0
0
LINE
8
layer0
10
1043.67534827
20
423.291466197851
30
0
11
551.772918920436
21
565.291466197851
31
0
0
LINE
8
layer0
10
551.772918920436
20
565.291466197851
30
0
11
549.772918920436
21
563.559415390282
31
0
0
LINE
8
layer0
10
549.772918920436
20
563.559415390282
30
0
11
1041.67534827
21
421.559415390282
31
0
0
LINE
8
layer0
10
1041.67534827
20
421.559415390282
30
0
11
1043.67534827
21
423.291466197851
31
0
0
LINE
8
layer0
10
551.772918920436
20
-58.2468245269451
30
0
11
1043.67534827
21
-200.246824526945
31
0
0
LINE
8
layer0
10
1043.67534827
20
-200.246824526945
30
0
11
1041.67534827
21
-201.978875334514
31
0
0
LINE
8
layer0
10
1041.67534827
20
-201.978875334514
30
0
11
549.772918920436
21
-59.978875334514
31
0
0
LINE
8
layer0
10
549.772918920436
20
-59.978875334514
30
0
11
551.772918920436
21
-58.2468245269451
31
0
0
ENDBLK
0
BLOCK
8
layer0
2
PF_OBJECT5
70
0
10
0
20
0
30
0
0
LINE
8
layer0
10
1041.67534827
20
421.559415390282
30
0
11
549.772918920436
21
563.559415390282
31
0
0
LINE
8
layer0
10
549.772918920436
20
563.559415390282
30
0
11
541.772918920436
21
556.631212160006
31
0
0
LINE
8
layer0
10
541.772918920436
20
556.631212160006
30
0
11
1033.67534827
21
414.631212160006
31
0
0
LINE
8
layer0
10
1033.67534827
20
414.631212160006
30
0
11
1041.67534827
21
421.559415390282
31
0
0
LINE
8
layer0
10
549.772918920436
20
520.25814520106
30
0
11
1041.67534827
21
378.25814520106
31
0
0
LINE
8
layer0
10
1041.67534827
20
378.25814520106
30
0
11
1033.67534827
21
371.329941970784
31
0
0
LINE
8
layer0
10
1033.67534827
20
371.329941970784
30
0
11
541.772918920436
21
513.329941970784
31
0
0
LINE
8
layer0
10
541.772918920436
20
513.329941970784
30
0
11
549.772918920436
21
520.25814520106
31
0
0
LINE
8
layer0
10
549.772918920436
20
563.559415390282
30
0
11
549.772918920436
21
520.25814520106
31
0
0
LINE
8
layer0
10
549.772918920436
20
520.25814520106
30
0
11
541.772918920436
21
513.329941970784
31
0
0
LINE
8
layer0
10
541.772918920436
20
513.329941970784
30
0
11
541.772918920436
21
556.631212160006
31
0
0
LINE
8
layer0
10
541.772918920436
20
556.631212160006
30
0
11
549.772918920436
21
563.559415390282
31
0
0
LINE
8
layer0
10
1041.67534827
20
378.25814520106
30
0
11
1041.67534827
21
421.559415390282
31
0
0
LINE
8
layer0
10
1041.67534827
20
421.559415390282
30
0
11
1033.67534827
21
414.631212160006
31
0
0
LINE
8
layer0
10
1033.67534827
20
414.631212160006
30
0
11
1033.67534827
21
371.329941970784
31
0
0
LINE
8
layer0
10
1033.67534827
20
371.329941970784
30
0
11
1041.67534827
21
378.25814520106
31
0
0
LINE
8
layer0
10
1033.67534827
20
414.631212160006
30
0
11
541.772918920436
21
556.631212160006
31
0
0
LINE
8
layer0
10
541.772918920436
20
556.631212160006
30
0
11
541.772918920436
21
513.329941970784
31
0
0
LINE
8
layer0
10
541.772918920436
20
513.329941970784
30
0
11
1033.67534827
21
371.329941970784
31
0
0
LINE
8
layer0
10
1033.67534827
20
371.329941970784
30
0
11
1033.67534827
21
414.631212160006
31
0
0
LINE
8
layer0
10
549.772918920436
20
563.559415390282
30
0
11
1041.67534827
21
421.559415390282
31
0
0
LINE
8
layer0
10
1041.67534827
20
421.559415390282
30
0
11
1041.67534827
21
378.25814520106
31
0
0
LINE
8
layer0
10
1041.67534827
20
378.25814520106
30
0
11
549.772918920436
21
520.25814520106
31
0
0
LINE
8
layer0
10
549.772918920436
20
520.25814520106
30
0
11
549.772918920436
21
563.559415390282
31
0
0
ENDBLK
0
BLOCK
8
layer0
2
PF_OBJECT6
70
0
10
0
20
0
30
0
0
LINE
8
layer0
10
319.272918920436
20
350.084153357418
30
0
11
811.175348269997
21
208.084153357418
31
0
0
LINE
8
layer0
10
811.175348269997
20
208.084153357418
30
0
11
786.175348269997
21
186.433518262807
31
0
0
LINE
8
layer0
10
786.175348269997
20
186.433518262807
30
0
11
294.272918920436
21
328.433518262807
31
0
0
LINE
8
layer0
10
294.272918920436
20
328.433518262807
30
0
11
319.272918920436
21
350.084153357418
31
0
0
LINE
8
layer0
10
811.175348269997
20
221.940559817969
30
0
11
319.272918920436
21
363.940559817969
31
0
0
LINE
8
layer0
10
319.272918920436
20
363.940559817969
30
0
11
294.272918920436
21
342.289924723358
31
0
0
LINE
8
layer0
10
294.272918920436
20
342.289924723358
30
0
11
786.175348269997
21
200.289924723358
31
0
0
LINE
8
layer0
10
786.175348269997
20
200.289924723358
30
0
11
811.175348269997
21
221.940559817969
31
0
0
LINE
8
layer0
10
786.175348269997
20
186.433518262807
30
0
11
811.175348269997
21
208.084153357418
31
0
0
LINE
8
layer0
10
811.175348269997
20
208.084153357418
30
0
11
811.175348269997
21
221.940559817969
31
0
0
LINE
8
layer0
10
811.175348269997
20
221.940559817969
30
0
11
786.175348269997
21
200.289924723358
31
0
0
LINE
8
layer0
10
786.175348269997
20
200.289924723358
30
0
11
786.175348269997
21
186.433518262807
31
0
0
LINE
8
layer0
10
319.272918920436
20
350.084153357418
30
0
11
294.272918920436
21
328.433518262807
31
0
0
LINE
8
layer0
10
294.272918920436
20
328.433518262807
30
0
11
294.272918920436
21
342.289924723358
31
0
0
LINE
8
layer0
10
294.272918920436
20
342.289924723358
30
0
11
319.272918920436
21
363.940559817969
31
0
0
LINE
8
layer0
10
319.272918920436
20
363.940559817969
30
0
11
319.272918920436
21
350.084153357418
31
0
0
LINE
8
layer0
10
294.272918920436
20
328.433518262807
30
0
11
786.175348269997
21
186.433518262807
31
0
0
LINE
8
layer0
10
786.175348269997
20
186.433518262807
30
0
11
786.175348269997
21
200.289924723358
31
0
0
LINE
8
layer0
10
786.175348269997
20
200.289924723358
30
0
11
294.272918920436
21
342.289924723358
31
0
0
LINE
8
layer0
10
294.272918920436
20
342.289924723358
30
0
11
294.272918920436
21
328.433518262807
31
0
0
LINE
8
layer0
10
811.175348269997
20
208.084153357418
30
0
11
319.272918920436
21
350.084153357418
31
0
0
LINE
8
layer0
10
319.272918920436
20
350.084153357418
30
0
11
319.272918920436
21
363.940559817969
31
0
0
LINE
8
layer0
10
319.272918920436
20
363.940559817969
30
0
11
811.175348269997
21
221.940559817969
31
0
0
LINE
8
layer0
10
811.175348269997
20
221.940559817969
30
0
11
811.175348269997
21
208.084153357418
31
0
0
LINE
8
layer0
10
1068.67534827
20
-178.596189432334
30
0
11
1082.53175473055
21
-182.596189432334
31
0
0
LINE
8
layer0
10
1082.53175473055
20
-182.596189432334
30
0
11
799.531754730549
21
-427.68137870333
31
0
0
LINE
8
layer0
10
799.531754730549
20
-427.68137870333
30
0
11
785.675348269997
21
-423.68137870333
31
0
0
LINE
8
layer0
10
785.675348269997
20
-423.68137870333
30
0
11
1068.67534827
21
-178.596189432334
31
0
0
LINE
8
layer0
10
1082.53175473055
20
440.942101292462
30
0
11
1068.67534827
21
444.942101292462
31
0
0
LINE
8
layer0
10
1068.67534827
20
444.942101292462
30
0
11
785.675348269997
21
199.856912021466
31
0
0
LINE
8
layer0
10
785.675348269997
20
199.856912021466
30
0
11
799.531754730549
21
195.856912021466
31
0
0
LINE
8
layer0
10
799.531754730549
20
195.856912021466
30
0
11
1082.53175473055
21
440.942101292462
31
0
0
LINE
8
layer0
10
799.531754730549
20
-427.68137870333
30
0
11
1082.53175473055
21
-182.596189432334
31
0
0
LINE
8
layer0
10
1082.53175473055
20
-182.596189432334
30
0
11
1082.53175473055
21
440.942101292462
31
0
0
LINE
8
layer0
10
1082.53175473055
20
440.942101292462
30
0
11
799.531754730549
21
195.856912021466
31
0
0
LINE
8
layer0
10
799.531754730549
20
195.856912021466
30
0
11
799.531754730549
21
-427.68137870333
31
0
0
LINE
8
layer0
10
1068.67534827
20
-178.596189432334
30
0
11
785.675348269997
21
-423.68137870333
31
0
0
LINE
8
layer0
10
785.675348269997
20
-423.68137870333
30
0
11
785.675348269997
21
199.856912021466
31
0
0
LINE
8
layer0
10
785.675348269997
20
199.856912021466
30
0
11
1068.67534827
21
444.942101292462
31
0
0
LINE
8
layer0
10
1068.67534827
20
444.942101292462
30
0
11
1068.67534827
21
-178.596189432334
31
0
0
LINE
8
layer0
10
785.675348269997
20
-423.68137870333
30
0
11
799.531754730549
21
-427.68137870333
31
0
0
LINE
8
layer0
10
799.531754730549
20
-427.68137870333
30
0
11
799.531754730549
21
195.856912021466
31
0
0
LINE
8
layer0
10
799.531754730549
20
195.856912021466
30
0
11
785.675348269997
21
199.856912021466
31
0
0
LINE
8
layer0
10
785.675348269997
20
199.856912021466
30
0
11
785.675348269997
21
-423.68137870333
31
0
0
LINE
8
layer0
10
1082.53175473055
20
-182.596189432334
30
0
11
1068.67534827
21
-178.596189432334
31
0
0
LINE
8
layer0
10
1068.67534827
20
-178.596189432334
30
0
11
1068.67534827
21
444.942101292462
31
0
0
LINE
8
layer0
10
1068.67534827
20
444.942101292462
30
0
11
1082.53175473055
21
440.942101292462
31
0
0
LINE
8
layer0
10
1082.53175473055
20
440.942101292462
30
0
11
1082.53175473055
21
-182.596189432334
31
0
0
LINE
8
layer0
10
562.916512459885
20
-32.5961894323342
30
0
11
576.772918920436
21
-36.5961894323342
31
0
0
LINE
8
layer0
10
576.772918920436
20
-36.5961894323342
30
0
11
293.772918920436
21
-281.68137870333
31
0
0
LINE
8
layer0
10
293.772918920436
20
-281.68137870333
30
0
11
279.916512459885
21
-277.68137870333
31
0
0
LINE
8
layer0
10
279.916512459885
20
-277.68137870333
30
0
11
562.916512459885
21
-32.5961894323342
31
0
0
LINE
8
layer0
10
576.772918920436
20
586.942101292462
30
0
11
562.916512459885
21
590.942101292462
31
0
0
LINE
8
layer0
10
562.916512459885
20
590.942101292462
30
0
11
279.916512459885
21
345.856912021466
31
0
0
LINE
8
layer0
10
279.916512459885
20
345.856912021466
30
0
11
293.772918920436
21
341.856912021466
31
0
0
LINE
8
layer0
10
293.772918920436
20
341.856912021466
30
0
11
576.772918920436
21
586.942101292462
31
0
0
LINE
8
layer0
10
293.772918920436
20
-281.68137870333
30
0
11
576.772918920436
21
-36.5961894323342
31
0
0
LINE
8
layer0
10
576.772918920436
20
-36.5961894323342
30
0
11
576.772918920436
21
586.942101292462
31
0
0
LINE
8
layer0
10
576.772918920436
20
586.942101292462
30
0
11
293.772918920436
21
341.856912021466
31
0
0
LINE
8
layer0
10
293.772918920436
20
341.856912021466
30
0
11
293.772918920436
21
-281.68137870333
31
0
0
LINE
8
layer0
10
562.916512459885
20
-32.5961894323342
30
0
11
279.916512459885
21
-277.68137870333
31
0
0
LINE
8
layer0
10
279.916512459885
20
-277.68137870333
30
0
11
279.916512459885
21
345.856912021466
31
0
0
LINE
8
layer0
10
279.916512459885
20
345.856912021466
30
0
11
562.916512459885
21
590.942101292462
31
0
0
LINE
8
layer0
10
562.916512459885
20
590.942101292462
30
0
11
562.916512459885
21
-32.5961894323342
31
0
0
LINE
8
layer0
10
279.916512459885
20
-277.68137870333
30
0
11
293.772918920436
21
-281.68137870333
31
0
0
LINE
8
layer0
10
293.772918920436
20
-281.68137870333
30
0
11
293.772918920436
21
341.856912021466
31
0
0
LINE
8
layer0
10
293.772918920436
20
341.856912021466
30
0
11
279.916512459885
21
345.856912021466
31
0
0
LINE
8
layer0
10
279.916512459885
20
345.856912021466
30
0
11
279.916512459885
21
-277.68137870333
31
0
0
LINE
8
layer0
10
576.772918920436
20
-36.5961894323342
30
0
11
562.916512459885
21
-32.5961894323342
31
0
0
LINE
8
layer0
10
562.916512459885
20
-32.5961894323342
30
0
11
562.916512459885
21
590.942101292462
31
0
0
LINE
8
layer0
10
562.916512459885
20
590.942101292462
30
0
11
576.772918920436
21
586.942101292462
31
0
0
LINE
8
layer0
10
576.772918920436
20
586.942101292462
30
0
11
576.772918920436
21
-36.5961894323342
31
0
0
ENDBLK
0
BLOCK
8
layer0
2
PF_OBJECT7
70
0
10
0
20
0
30
0
0
LINE
8
layer0
10
645.601349073242
20
184.176252179365
30
0
11
642.539486894763
21
186.328400496291
31
0
0
LINE
8
layer0
10
642.539486894763
20
186.328400496291
30
0
11
632.539486894763
21
177.668146458447
31
0
0
LINE
8
layer0
10
632.539486894763
20
177.668146458447
30
0
11
635.601349073242
21
175.515998141521
31
0
0
LINE
8
layer0
10
635.601349073242
20
175.515998141521
30
0
11
645.601349073242
21
184.176252179365
31
0
0
LINE
8
layer0
10
646.869613913685
20
180.748273477369
30
0
11
645.601349073242
21
184.176252179365
31
0
0
LINE
8
layer0
10
645.601349073242
20
184.176252179365
30
0
11
635.601349073242
21
175.515998141521
31
0
0
LINE
8
layer0
10
635.601349073242
20
175.515998141521
30
0
11
636.869613913685
21
172.088019439525
31
0
0
LINE
8
layer0
10
636.869613913685
20
172.088019439525
30
0
11
646.869613913685
21
180.748273477369
31
0
0
LINE
8
layer0
10
645.601349073242
20
178.052527822407
30
0
11
646.869613913685
21
180.748273477369
31
0
0
LINE
8
layer0
10
646.869613913685
20
180.748273477369
30
0
11
636.869613913685
21
172.088019439525
31
0
0
LINE
8
layer0
10
636.869613913685
20
172.088019439525
30
0
11
635.601349073242
21
169.392273784563
31
0
0
LINE
8
layer0
10
635.601349073242
20
169.392273784563
30
0
11
645.601349073242
21
178.052527822407
31
0
0
LINE
8
layer0
10
642.539486894763
20
177.668146458447
30
0
11
645.601349073242
21
178.052527822407
31
0
0
LINE
8
layer0
10
645.601349073242
20
178.052527822407
30
0
11
635.601349073242
21
169.392273784563
31
0
0
LINE
8
layer0
10
635.601349073242
20
169.392273784563
30
0
11
632.539486894763
21
169.007892420603
31
0
0
LINE
8
layer0
10
632.539486894763
20
169.007892420603
30
0
11
642.539486894763
21
177.668146458447
31
0
0
LINE
8
layer0
10
639.477624716284
20
179.820294775373
30
0
11
642.539486894763
21
177.668146458447
31
0
0
LINE
8
layer0
10
642.539486894763
20
177.668146458447
30
0
11
632.539486894763
21
169.007892420603
31
0
0
LINE
8
layer0
10
632.539486894763
20
169.007892420603
30
0
11
629.477624716284
21
171.160040737529
31
0
0
LINE
8
layer0
10
629.477624716284
20
171.160040737529
30
0
11
639.477624716284
21
179.820294775373
31
0
0
LINE
8
layer0
10
638.209359875841
20
183.248273477369
30
0
11
639.477624716284
21
179.820294775373
31
0
0
LINE
8
layer0
10
639.477624716284
20
179.820294775373
30
0
11
629.477624716284
21
171.160040737529
31
0
0
LINE
8
layer0
10
629.477624716284
20
171.160040737529
30
0
11
628.209359875841
21
174.588019439525
31
0
0
LINE
8
layer0
10
628.209359875841
20
174.588019439525
30
0
11
638.209359875841
21
183.248273477369
31
0
0
LINE
8
layer0
10
639.477624716284
20
185.944019132331
30
0
11
638.209359875841
21
183.248273477369
31
0
0
LINE
8
layer0
10
638.209359875841
20
183.248273477369
30
0
11
628.209359875841
21
174.588019439525
31
0
0
LINE
8
layer0
10
628.209359875841
20
174.588019439525
30
0
11
629.477624716284
21
177.283765094487
31
0
0
LINE
8
layer0
10
629.477624716284
20
177.283765094487
30
0
11
639.477624716284
21
185.944019132331
31
0
0
LINE
8
layer0
10
642.539486894763
20
186.328400496291
30
0
11
639.477624716284
21
185.944019132331
31
0
0
LINE
8
layer0
10
639.477624716284
20
185.944019132331
30
0
11
629.477624716284
21
177.283765094487
31
0
0
LINE
8
layer0
10
629.477624716284
20
177.283765094487
30
0
11
632.539486894763
21
177.668146458447
31
0
0
LINE
8
layer0
10
632.539486894763
20
177.668146458447
30
0
11
642.539486894763
21
186.328400496291
31
0
0
LINE
8
layer0
10
632.539486894763
20
177.668146458447
30
0
11
629.477624716284
21
177.283765094487
31
0
0
LINE
8
layer0
10
629.477624716284
20
177.283765094487
30
0
11
628.209359875841
21
174.588019439525
31
0
0
LINE
8
layer0
10
628.209359875841
20
174.588019439525
30
0
11
629.477624716284
21
171.160040737529
31
0
0
LINE
8
layer0
10
629.477624716284
20
171.160040737529
30
0
11
632.539486894763
21
169.007892420603
31
0
0
LINE
8
layer0
10
632.539486894763
20
169.007892420603
30
0
11
635.601349073242
21
169.392273784563
31
0
0
LINE
8
layer0
10
635.601349073242
20
169.392273784563
30
0
11
636.869613913685
21
172.088019439525
31
0
0
LINE
8
layer0
10
636.869613913685
20
172.088019439525
30
0
11
635.601349073242
21
175.515998141521
31
0
0
LINE
8
layer0
10
635.601349073242
20
175.515998141521
30
0
11
632.539486894763
21
177.668146458447
31
0
0
LINE
8
layer0
10
639.477624716284
20
185.944019132331
30
0
11
642.539486894763
21
186.328400496291
31
0
0
LINE
8
layer0
10
642.539486894763
20
186.328400496291
30
0
11
645.601349073242
21
184.176252179365
31
0
0
LINE
8
layer0
10
645.601349073242
20
184.176252179365
30
0
11
646.869613913685
21
180.748273477369
31
0
0
LINE
8
layer0
10
646.869613913685
20
180.748273477369
30
0
11
645.601349073242
21
178.052527822407
31
0
0
LINE
8
layer0
10
645.601349073242
20
178.052527822407
30
0
11
642.539486894763
21
177.668146458447
31
0
0
LINE
8
layer0
10
642.539486894763
20
177.668146458447
30
0
11
639.477624716284
21
179.820294775373
31
0
0
LINE
8
layer0
10
639.477624716284
20
179.820294775373
30
0
11
638.209359875841
21
183.248273477369
31
0
0
LINE
8
layer0
10
638.209359875841
20
183.248273477369
30
0
11
639.477624716284
21
185.944019132331
31
0
0
ENDBLK
0
BLOCK
8
layer0
2
PF_OBJECT8
70
0
10
0
20
0
30
0
0
LINE
8
layer0
10
756.45260075765
20
152.176252179365
30
0
11
753.390738579171
21
154.328400496291
31
0
0
LINE
8
layer0
10
753.390738579171
20
154.328400496291
30
0
11
743.390738579171
21
145.668146458447
31
0
0
LINE
8
layer0
10
743.390738579171
20
145.668146458447
30
0
11
746.45260075765
21
143.515998141521
31
0
0
LINE
8
layer0
10
746.45260075765
20
143.515998141521
30
0
11
756.45260075765
21
152.176252179365
31
0
0
LINE
8
layer0
10
757.720865598093
20
148.748273477369
30
0
11
756.45260075765
21
152.176252179365
31
0
0
LINE
8
layer0
10
756.45260075765
20
152.176252179365
30
0
11
746.45260075765
21
143.515998141521
31
0
0
LINE
8
layer0
10
746.45260075765
20
143.515998141521
30
0
11
747.720865598093
21
140.088019439525
31
0
0
LINE
8
layer0
10
747.720865598093
20
140.088019439525
30
0
11
757.720865598093
21
148.748273477369
31
0
0
LINE
8
layer0
10
756.45260075765
20
146.052527822407
30
0
11
757.720865598093
21
148.748273477369
31
0
0
LINE
8
layer0
10
757.720865598093
20
148.748273477369
30
0
11
747.720865598093
21
140.088019439525
31
0
0
LINE
8
layer0
10
747.720865598093
20
140.088019439525
30
0
11
746.45260075765
21
137.392273784563
31
0
0
LINE
8
layer0
10
746.45260075765
20
137.392273784563
30
0
11
756.45260075765
21
146.052527822407
31
0
0
LINE
8
layer0
10
753.390738579171
20
145.668146458447
30
0
11
756.45260075765
21
146.052527822407
31
0
0
LINE
8
layer0
10
756.45260075765
20
146.052527822407
30
0
11
746.45260075765
21
137.392273784563
31
0
0
LINE
8
layer0
10
746.45260075765
20
137.392273784563
30
0
11
743.390738579171
21
137.007892420603
31
0
0
LINE
8
layer0
10
743.390738579171
20
137.007892420603
30
0
11
753.390738579171
21
145.668146458447
31
0
0
LINE
8
layer0
10
750.328876400692
20
147.820294775373
30
0
11
753.390738579171
21
145.668146458447
31
0
0
LINE
8
layer0
10
753.390738579171
20
145.668146458447
30
0
11
743.390738579171
21
137.007892420603
31
0
0
LINE
8
layer0
10
743.390738579171
20
137.007892420603
30
0
11
740.328876400692
21
139.160040737529
31
0
0
LINE
8
layer0
10
740.328876400692
20
139.160040737529
30
0
11
750.328876400692
21
147.820294775373
31
0
0
LINE
8
layer0
10
749.060611560249
20
151.248273477369
30
0
11
750.328876400692
21
147.820294775373
31
0
0
LINE
8
layer0
10
750.328876400692
20
147.820294775373
30
0
11
740.328876400692
21
139.160040737529
31
0
0
LINE
8
layer0
10
740.328876400692
20
139.160040737529
30
0
11
739.060611560249
21
142.588019439525
31
0
0
LINE
8
layer0
10
739.060611560249
20
142.588019439525
30
0
11
749.060611560249
21
151.248273477369
31
0
0
LINE
8
layer0
10
750.328876400692
20
153.944019132331
30
0
11
749.060611560249
21
151.248273477369
31
0
0
LINE
8
layer0
10
749.060611560249
20
151.248273477369
30
0
11
739.060611560249
21
142.588019439525
31
0
0
LINE
8
layer0
10
739.060611560249
20
142.588019439525
30
0
11
740.328876400692
21
145.283765094487
31
0
0
LINE
8
layer0
10
740.328876400692
20
145.283765094487
30
0
11
750.328876400692
21
153.944019132331
31
0
0
LINE
8
layer0
10
753.390738579171
20
154.328400496291
30
0
11
750.328876400692
21
153.944019132331
31
0
0
LINE
8
layer0
10
750.328876400692
20
153.944019132331
30
0
11
740.328876400692
21
145.283765094487
31
0
0
LINE
8
layer0
10
740.328876400692
20
145.283765094487
30
0
11
743.390738579171
21
145.668146458447
31
0
0
LINE
8
layer0
10
743.390738579171
20
145.668146458447
30
0
11
753.390738579171
21
154.328400496291
31
0
0
LINE
8
layer0
10
743.390738579171
20
145.668146458447
30
0
11
740.328876400692
21
145.283765094487
31
0
0
LINE
8
layer0
10
740.328876400692
20
145.283765094487
30
0
11
739.060611560249
21
142.588019439525
31
0
0
LINE
8
layer0
10
739.060611560249
20
142.588019439525
30
0
11
740.328876400692
21
139.160040737529
31
0
0
LINE
8
layer0
10
740.328876400692
20
139.160040737529
30
0
11
743.390738579171
21
137.007892420603
31
0
0
LINE
8
layer0
10
743.390738579171
20
137.007892420603
30
0
11
746.45260075765
21
137.392273784563
31
0
0
LINE
8
layer0
10
746.45260075765
20
137.392273784563
30
0
11
747.720865598093
21
140.088019439525
31
0
0
LINE
8
layer0
10
747.720865598093
20
140.088019439525
30
0
11
746.45260075765
21
143.515998141521
31
0
0
LINE
8
layer0
10
746.45260075765
20
143.515998141521
30
0
11
743.390738579171
21
145.668146458447
31
0
0
LINE
8
layer0
10
750.328876400692
20
153.944019132331
30
0
11
753.390738579171
21
154.328400496291
31
0
0
LINE
8
layer0
10
753.390738579171
20
154.328400496291
30
0
11
756.45260075765
21
152.176252179365
31
0
0
LINE
8
layer0
10
756.45260075765
20
152.176252179365
30
0
11
757.720865598093
21
148.748273477369
31
0
0
LINE
8
layer0
10
757.720865598093
20
148.748273477369
30
0
11
756.45260075765
21
146.052527822407
31
0
0
LINE
8
layer0
10
756.45260075765
20
146.052527822407
30
0
11
753.390738579171
21
145.668146458447
31
0
0
LINE
8
layer0
10
753.390738579171
20
145.668146458447
30
0
11
750.328876400692
21
147.820294775373
31
0
0
LINE
8
layer0
10
750.328876400692
20
147.820294775373
30
0
11
749.060611560249
21
151.248273477369
31
0
0
LINE
8
layer0
10
749.060611560249
20
151.248273477369
30
0
11
750.328876400692
21
153.944019132331
31
0
0
ENDBLK
0
BLOCK
8
layer0
2
PF_OBJECT9
70
0
10
0
20
0
30
0
0
LINE
8
layer0
10
616.98674577204
20
182.930812707243
30
0
11
615.218978819074
21
182.668146458447
31
0
0
LINE
8
layer0
10
615.218978819074
20
182.668146458447
30
0
11
760.71124665486
21
140.668146458447
31
0
0
LINE
8
layer0
10
760.71124665486
20
140.668146458447
30
0
11
762.479013607826
21
140.930812707243
31
0
0
LINE
8
layer0
10
762.479013607826
20
140.930812707243
30
0
11
616.98674577204
21
182.930812707243
31
0
0
LINE
8
layer0
10
617.718978819074
20
180.503082948986
30
0
11
616.98674577204
21
182.930812707243
31
0
0
LINE
8
layer0
10
616.98674577204
20
182.930812707243
30
0
11
762.479013607826
21
140.930812707243
31
0
0
LINE
8
layer0
10
762.479013607826
20
140.930812707243
30
0
11
763.21124665486
21
138.503082948986
31
0
0
LINE
8
layer0
10
763.21124665486
20
138.503082948986
30
0
11
617.718978819074
21
180.503082948986
31
0
0
LINE
8
layer0
10
616.98674577204
20
176.807088350285
30
0
11
617.718978819074
21
180.503082948986
31
0
0
LINE
8
layer0
10
617.718978819074
20
180.503082948986
30
0
11
763.21124665486
21
138.503082948986
31
0
0
LINE
8
layer0
10
763.21124665486
20
138.503082948986
30
0
11
762.479013607826
21
134.807088350285
31
0
0
LINE
8
layer0
10
762.479013607826
20
134.807088350285
30
0
11
616.98674577204
21
176.807088350285
31
0
0
LINE
8
layer0
10
615.218978819074
20
174.007892420603
30
0
11
616.98674577204
21
176.807088350285
31
0
0
LINE
8
layer0
10
616.98674577204
20
176.807088350285
30
0
11
762.479013607826
21
134.807088350285
31
0
0
LINE
8
layer0
10
762.479013607826
20
134.807088350285
30
0
11
760.71124665486
21
132.007892420603
31
0
0
LINE
8
layer0
10
760.71124665486
20
132.007892420603
30
0
11
615.218978819074
21
174.007892420603
31
0
0
LINE
8
layer0
10
613.451211866108
20
173.745226171806
30
0
11
615.218978819074
21
174.007892420603
31
0
0
LINE
8
layer0
10
615.218978819074
20
174.007892420603
30
0
11
760.71124665486
21
132.007892420603
31
0
0
LINE
8
layer0
10
760.71124665486
20
132.007892420603
30
0
11
758.943479701893
21
131.745226171806
31
0
0
LINE
8
layer0
10
758.943479701893
20
131.745226171806
30
0
11
613.451211866108
21
173.745226171806
31
0
0
LINE
8
layer0
10
612.718978819074
20
176.172955930064
30
0
11
613.451211866108
21
173.745226171806
31
0
0
LINE
8
layer0
10
613.451211866108
20
173.745226171806
30
0
11
758.943479701893
21
131.745226171806
31
0
0
LINE
8
layer0
10
758.943479701893
20
131.745226171806
30
0
11
758.21124665486
21
134.172955930064
31
0
0
LINE
8
layer0
10
758.21124665486
20
134.172955930064
30
0
11
612.718978819074
21
176.172955930064
31
0
0
LINE
8
layer0
10
613.451211866108
20
179.868950528764
30
0
11
612.718978819074
21
176.172955930064
31
0
0
LINE
8
layer0
10
612.718978819074
20
176.172955930064
30
0
11
758.21124665486
21
134.172955930064
31
0
0
LINE
8
layer0
10
758.21124665486
20
134.172955930064
30
0
11
758.943479701893
21
137.868950528764
31
0
0
LINE
8
layer0
10
758.943479701893
20
137.868950528764
30
0
11
613.451211866108
21
179.868950528764
31
0
0
LINE
8
layer0
10
615.218978819074
20
182.668146458447
30
0
11
613.451211866108
21
179.868950528764
31
0
0
LINE
8
layer0
10
613.451211866108
20
179.868950528764
30
0
11
758.943479701893
21
137.868950528764
31
0
0
LINE
8
layer0
10
758.943479701893
20
137.868950528764
30
0
11
760.71124665486
21
140.668146458447
31
0
0
LINE
8
layer0
10
760.71124665486
20
140.668146458447
30
0
11
615.218978819074
21
182.668146458447
31
0
0
LINE
8
layer0
10
760.71124665486
20
140.668146458447
30
0
11
758.943479701893
21
137.868950528764
31
0
0
LINE
8
layer0
10
758.943479701893
20
137.868950528764
30
0
11
758.21124665486
21
134.172955930064
31
0
0
LINE
8
layer0
10
758.21124665486
20
134.172955930064
30
0
11
758.943479701893
21
131.745226171806
31
0
0
LINE
8
layer0
10
758.943479701893
20
131.745226171806
30
0
11
760.71124665486
21
132.007892420603
31
0
0
LINE
8
layer0
10
760.71124665486
20
132.007892420603
30
0
11
762.479013607826
21
134.807088350285
31
0
0
LINE
8
layer0
10
762.479013607826
20
134.807088350285
30
0
11
763.21124665486
21
138.503082948986
31
0
0
LINE
8
layer0
10
763.21124665486
20
138.503082948986
30
0
11
762.479013607826
21
140.930812707243
31
0
0
LINE
8
layer0
10
762.479013607826
20
140.930812707243
30
0
11
760.71124665486
21
140.668146458447
31
0
0
LINE
8
layer0
10
613.451211866108
20
179.868950528764
30
0
11
615.218978819074
21
182.668146458447
31
0
0
LINE
8
layer0
10
615.218978819074
20
182.668146458447
30
0
11
616.98674577204
21
182.930812707243
31
0
0
LINE
8
layer0
10
616.98674577204
20
182.930812707243
30
0
11
617.718978819074
21
180.503082948986
31
0
0
LINE
8
layer0
10
617.718978819074
20
180.503082948986
30
0
11
616.98674577204
21
176.807088350285
31
0
0
LINE
8
layer0
10
616.98674577204
20
176.807088350285
30
0
11
615.218978819074
21
174.007892420603
31
0
0
LINE
8
layer0
10
615.218978819074
20
174.007892420603
30
0
11
613.451211866108
21
173.745226171806
31
0
0
LINE
8
layer0
10
613.451211866108
20
173.745226171806
30
0
11
612.718978819074
21
176.172955930064
31
0
0
LINE
8
layer0
10
612.718978819074
20
176.172955930064
30
0
11
613.451211866108
21
179.868950528764
31
0
0
ENDBLK
0
BLOCK
8
layer0
2
PF_OBJECT10
70
0
10
0
20
0
30
0
0
LINE
8
layer0
10
795.433678519195
20
-425.632340597654
30
0
11
281.014588671239
21
-277.132340597654
31
0
0
LINE
8
layer0
10
281.014588671239
20
-277.132340597654
30
0
11
281.014588671239
21
335.147619877945
31
0
0
LINE
8
layer0
10
281.014588671239
20
335.147619877945
30
0
11
795.433678519195
21
186.647619877945
31
0
0
LINE
8
layer0
10
795.433678519195
20
186.647619877945
30
0
11
795.433678519195
21
-425.632340597654
31
0
0
LINE
8
layer0
10
271.014588671239
20
-285.792594635498
30
0
11
785.433678519195
21
-434.292594635498
31
0
0
LINE
8
layer0
10
785.433678519195
20
-434.292594635498
30
0
11
785.433678519195
21
177.9873658401
31
0
0
LINE
8
layer0
10
785.433678519195
20
177.9873658401
30
0
11
271.014588671239
21
326.4873658401
31
0
0
LINE
8
layer0
10
271.014588671239
20
326.4873658401
30
0
11
271.014588671239
21
-285.792594635498
31
0
0
LINE
8
layer0
10
281.014588671239
20
-277.132340597654
30
0
11
271.014588671239
21
-285.792594635498
31
0
0
LINE
8
layer0
10
271.014588671239
20
-285.792594635498
30
0
11
271.014588671239
21
326.4873658401
31
0
0
LINE
8
layer0
10
271.014588671239
20
326.4873658401
30
0
11
281.014588671239
21
335.147619877945
31
0
0
LINE
8
layer0
10
281.014588671239
20
335.147619877945
30
0
11
281.014588671239
21
-277.132340597654
31
0
0
LINE
8
layer0
10
785.433678519195
20
-434.292594635498
30
0
11
795.433678519195
21
-425.632340597654
31
0
0
LINE
8
layer0
10
795.433678519195
20
-425.632340597654
30
0
11
795.433678519195
21
186.647619877945
31
0
0
LINE
8
layer0
10
795.433678519195
20
186.647619877945
30
0
11
785.433678519195
21
177.9873658401
31
0
0
LINE
8
layer0
10
785.433678519195
20
177.9873658401
30
0
11
785.433678519195
21
-434.292594635498
31
0
0
LINE
8
layer0
10
795.433678519195
20
186.647619877945
30
0
11
281.014588671239
21
335.147619877945
31
0
0
LINE
8
layer0
10
281.014588671239
20
335.147619877945
30
0
11
271.014588671239
21
326.4873658401
31
0
0
LINE
8
layer0
10
271.014588671239
20
326.4873658401
30
0
11
785.433678519195
21
177.9873658401
31
0
0
LINE
8
layer0
10
785.433678519195
20
177.9873658401
30
0
11
795.433678519195
21
186.647619877945
31
0
0
LINE
8
layer0
10
281.014588671239
20
-277.132340597654
30
0
11
795.433678519195
21
-425.632340597654
31
0
0
LINE
8
layer0
10
795.433678519195
20
-425.632340597654
30
0
11
785.433678519195
21
-434.292594635498
31
0
0
LINE
8
layer0
10
785.433678519195
20
-434.292594635498
30
0
11
271.014588671239
21
-285.792594635498
31
0
0
LINE
8
layer0
10
271.014588671239
20
-285.792594635498
30
0
11
281.014588671239
21
-277.132340597654
31
0
0
ENDBLK
0
BLOCK
8
layer0
2
PF_OBJECT11
70
0
10
0
20
0
30
0
0
LINE
8
layer0
10
590.858798800485
20
-228.301270189222
30
0
11
556.217782649107
21
-218.301270189222
31
0
0
LINE
8
layer0
10
556.217782649107
20
-218.301270189222
30
0
11
556.217782649107
21
-88.3974596215561
31
0
0
LINE
8
layer0
10
556.217782649107
20
-88.3974596215561
30
0
11
590.858798800485
21
-98.3974596215561
31
0
0
LINE
8
layer0
10
590.858798800485
20
-98.3974596215561
30
0
11
590.858798800485
21
-228.301270189222
31
0
0
LINE
8
layer0
10
536.217782649107
20
-235.621778264911
30
0
11
570.858798800485
21
-245.621778264911
31
0
0
LINE
8
layer0
10
570.858798800485
20
-245.621778264911
30
0
11
570.858798800485
21
-115.717967697245
31
0
0
LINE
8
layer0
10
570.858798800485
20
-115.717967697245
30
0
11
536.217782649107
21
-105.717967697245
31
0
0
LINE
8
layer0
10
536.217782649107
20
-105.717967697245
30
0
11
536.217782649107
21
-235.621778264911
31
0
0
LINE
8
layer0
10
556.217782649107
20
-218.301270189222
30
0
11
536.217782649107
21
-235.621778264911
31
0
0
LINE
8
layer0
10
536.217782649107
20
-235.621778264911
30
0
11
536.217782649107
21
-105.717967697245
31
0
0
LINE
8
layer0
10
536.217782649107
20
-105.717967697245
30
0
11
556.217782649107
21
-88.3974596215561
31
0
0
LINE
8
layer0
10
556.217782649107
20
-88.3974596215561
30
0
11
556.217782649107
21
-218.301270189222
31
0
0
LINE
8
layer0
10
570.858798800485
20
-245.621778264911
30
0
11
590.858798800485
21
-228.301270189222
31
0
0
LINE
8
layer0
10
590.858798800485
20
-228.301270189222
30
0
11
590.858798800485
21
-98.3974596215561
31
0
0
LINE
8
layer0
10
590.858798800485
20
-98.3974596215561
30
0
11
570.858798800485
21
-115.717967697245
31
0
0
LINE
8
layer0
10
570.858798800485
20
-115.717967697245
30
0
11
570.858798800485
21
-245.621778264911
31
0
0
LINE
8
layer0
10
590.858798800485
20
-98.3974596215561
30
0
11
556.217782649107
21
-88.3974596215561
31
0
0
LINE
8
layer0
10
556.217782649107
20
-88.3974596215561
30
0
11
536.217782649107
21
-105.717967697245
31
0
0
LINE
8
layer0
10
536.217782649107
20
-105.717967697245
30
0
11
570.858798800485
21
-115.717967697245
31
0
0
LINE
8
layer0
10
570.858798800485
20
-115.717967697245
30
0
11
590.858798800485
21
-98.3974596215561
31
0
0
LINE
8
layer0
10
556.217782649107
20
-218.301270189222
30
0
11
590.858798800485
21
-228.301270189222
31
0
0
LINE
8
layer0
10
590.858798800485
20
-228.301270189222
30
0
11
570.858798800485
21
-245.621778264911
31
0
0
LINE
8
layer0
10
570.858798800485
20
-245.621778264911
30
0
11
536.217782649107
21
-235.621778264911
31
0
0
LINE
8
layer0
10
536.217782649107
20
-235.621778264911
30
0
11
556.217782649107
21
-218.301270189222
31
0
0
ENDBLK
0
BLOCK
8
layer0
2
PF_OBJECT12
70
0
10
0
20
0
30
0
0
LINE
8
layer0
10
432.858798800485
20
-365.133283987163
30
0
11
398.217782649107
21
-355.133283987163
31
0
0
LINE
8
layer0
10
398.217782649107
20
-355.133283987163
30
0
11
398.217782649107
21
-225.229473419497
31
0
0
LINE
8
layer0
10
398.217782649107
20
-225.229473419497
30
0
11
432.858798800485
21
-235.229473419497
31
0
0
LINE
8
layer0
10
432.858798800485
20
-235.229473419497
30
0
11
432.858798800485
21
-365.133283987163
31
0
0
LINE
8
layer0
10
378.217782649107
20
-372.453792062852
30
0
11
412.858798800485
21
-382.453792062852
31
0
0
LINE
8
layer0
10
412.858798800485
20
-382.453792062852
30
0
11
412.858798800485
21
-252.549981495186
31
0
0
LINE
8
layer0
10
412.858798800485
20
-252.549981495186
30
0
11
378.217782649107
21
-242.549981495186
31
0
0
LINE
8
layer0
10
378.217782649107
20
-242.549981495186
30
0
11
378.217782649107
21
-372.453792062852
31
0
0
LINE
8
layer0
10
398.217782649107
20
-355.133283987163
30
0
11
378.217782649107
21
-372.453792062852
31
0
0
LINE
8
layer0
10
378.217782649107
20
-372.453792062852
30
0
11
378.217782649107
21
-242.549981495186
31
0
0
LINE
8
layer0
10
378.217782649107
20
-242.549981495186
30
0
11
398.217782649107
21
-225.229473419497
31
0
0
LINE
8
layer0
10
398.217782649107
20
-225.229473419497
30
0
11
398.217782649107
21
-355.133283987163
31
0
0
LINE
8
layer0
10
412.858798800485
20
-382.453792062852
30
0
11
432.858798800485
21
-365.133283987163
31
0
0
LINE
8
layer0
10
432.858798800485
20
-365.133283987163
30
0
11
432.858798800485
21
-235.229473419497
31
0
0
LINE
8
layer0
10
432.858798800485
20
-235.229473419497
30
0
11
412.858798800485
21
-252.549981495186
31
0
0
LINE
8
layer0
10
412.858798800485
20
-252.549981495186
30
0
11
412.858798800485
21
-382.453792062852
31
0
0
LINE
8
layer0
10
432.858798800485
20
-235.229473419497
30
0
11
398.217782649107
21
-225.229473419497
31
0
0
LINE
8
layer0
10
398.217782649107
20
-225.229473419497
30
0
11
378.217782649107
21
-242.549981495186
31
0
0
LINE
8
layer0
10
378.217782649107
20
-242.549981495186
30
0
11
412.858798800485
21
-252.549981495186
31
0
0
LINE
8
layer0
10
412.858798800485
20
-252.549981495186
30
0
11
432.858798800485
21
-235.229473419497
31
0
0
LINE
8
layer0
10
398.217782649107
20
-355.133283987163
30
0
11
432.858798800485
21
-365.133283987163
31
0
0
LINE
8
layer0
10
432.858798800485
20
-365.133283987163
30
0
11
412.858798800485
21
-382.453792062852
31
0
0
LINE
8
layer0
10
412.858798800485
20
-382.453792062852
30
0
11
378.217782649107
21
-372.453792062852
31
0
0
LINE
8
layer0
10
378.217782649107
20
-372.453792062852
30
0
11
398.217782649107
21
-355.133283987163
31
0
0
ENDBLK
0
BLOCK
8
layer0
2
PF_OBJECT13
70
0
10
0
20
0
30
0
0
LINE
8
layer0
10
989.230484541327
20
-343.301270189222
30
0
11
954.589468389949
21
-333.301270189222
31
0
0
LINE
8
layer0
10
954.589468389949
20
-333.301270189222
30
0
11
954.589468389949
21
-203.397459621556
31
0
0
LINE
8
layer0
10
954.589468389949
20
-203.397459621556
30
0
11
989.230484541327
21
-213.397459621556
31
0
0
LINE
8
layer0
10
989.230484541327
20
-213.397459621556
30
0
11
989.230484541327
21
-343.301270189222
31
0
0
LINE
8
layer0
10
934.589468389949
20
-350.621778264911
30
0
11
969.230484541327
21
-360.621778264911
31
0
0
LINE
8
layer0
10
969.230484541327
20
-360.621778264911
30
0
11
969.230484541327
21
-230.717967697245
31
0
0
LINE
8
layer0
10
969.230484541327
20
-230.717967697245
30
0
11
934.589468389949
21
-220.717967697245
31
0
0
LINE
8
layer0
10
934.589468389949
20
-220.717967697245
30
0
11
934.589468389949
21
-350.621778264911
31
0
0
LINE
8
layer0
10
954.589468389949
20
-333.301270189222
30
0
11
934.589468389949
21
-350.621778264911
31
0
0
LINE
8
layer0
10
934.589468389949
20
-350.621778264911
30
0
11
934.589468389949
21
-220.717967697245
31
0
0
LINE
8
layer0
10
934.589468389949
20
-220.717967697245
30
0
11
954.589468389949
21
-203.397459621556
31
0
0
LINE
8
layer0
10
954.589468389949
20
-203.397459621556
30
0
11
954.589468389949
21
-333.301270189222
31
0
0
LINE
8
layer0
10
969.230484541327
20
-360.621778264911
30
0
11
989.230484541327
21
-343.301270189222
31
0
0
LINE
8
layer0
10
989.230484541327
20
-343.301270189222
30
0
11
989.230484541327
21
-213.397459621556
31
0
0
LINE
8
layer0
10
989.230484541327
20
-213.397459621556
30
0
11
969.230484541327
21
-230.717967697245
31
0
0
LINE
8
layer0
10
969.230484541327
20
-230.717967697245
30
0
11
969.230484541327
21
-360.621778264911
31
0
0
LINE
8
layer0
10
989.230484541327
20
-213.397459621556
30
0
11
954.589468389949
21
-203.397459621556
31
0
0
LINE
8
layer0
10
954.589468389949
20
-203.397459621556
30
0
11
934.589468389949
21
-220.717967697245
31
0
0
LINE
8
layer0
10
934.589468389949
20
-220.717967697245
30
0
11
969.230484541327
21
-230.717967697245
31
0
0
LINE
8
layer0
10
969.230484541327
20
-230.717967697245
30
0
11
989.230484541327
21
-213.397459621556
31
0
0
LINE
8
layer0
10
954.589468389949
20
-333.301270189222
30
0
11
989.230484541327
21
-343.301270189222
31
0
0
LINE
8
layer0
10
989.230484541327
20
-343.301270189222
30
0
11
969.230484541327
21
-360.621778264911
31
0
0
LINE
8
layer0
10
969.230484541327
20
-360.621778264911
30
0
11
934.589468389949
21
-350.621778264911
31
0
0
LINE
8
layer0
10
934.589468389949
20
-350.621778264911
30
0
11
954.589468389949
21
-333.301270189222
31
0
0
ENDBLK
0
BLOCK
8
layer0
2
PF_OBJECT14
70
0
10
0
20
0
30
0
0
LINE
8
layer0
10
831.230484541327
20
-480.133283987163
30
0
11
796.589468389949
21
-470.133283987163
31
0
0
LINE
8
layer0
10
796.589468389949
20
-470.133283987163
30
0
11
796.589468389949
21
-340.229473419497
31
0
0
LINE
8
layer0
10
796.589468389949
20
-340.229473419497
30
0
11
831.230484541327
21
-350.229473419497
31
0
0
LINE
8
layer0
10
831.230484541327
20
-350.229473419497
30
0
11
831.230484541327
21
-480.133283987163
31
0
0
LINE
8
layer0
10
776.589468389949
20
-487.453792062852
30
0
11
811.230484541327
21
-497.453792062852
31
0
0
LINE
8
layer0
10
811.230484541327
20
-497.453792062852
30
0
11
811.230484541327
21
-367.549981495186
31
0
0
LINE
8
layer0
10
811.230484541327
20
-367.549981495186
30
0
11
776.589468389949
21
-357.549981495186
31
0
0
LINE
8
layer0
10
776.589468389949
20
-357.549981495186
30
0
11
776.589468389949
21
-487.453792062852
31
0
0
LINE
8
layer0
10
796.589468389949
20
-470.133283987163
30
0
11
776.589468389949
21
-487.453792062852
31
0
0
LINE
8
layer0
10
776.589468389949
20
-487.453792062852
30
0
11
776.589468389949
21
-357.549981495186
31
0
0
LINE
8
layer0
10
776.589468389949
20
-357.549981495186
30
0
11
796.589468389949
21
-340.229473419497
31
0
0
LINE
8
layer0
10
796.589468389949
20
-340.229473419497
30
0
11
796.589468389949
21
-470.133283987163
31
0
0
LINE
8
layer0
10
811.230484541327
20
-497.453792062852
30
0
11
831.230484541327
21
-480.133283987163
31
0
0
LINE
8
layer0
10
831.230484541327
20
-480.133283987163
30
0
11
831.230484541327
21
-350.229473419497
31
0
0
LINE
8
layer0
10
831.230484541327
20
-350.229473419497
30
0
11
811.230484541327
21
-367.549981495186
31
0
0
LINE
8
layer0
10
811.230484541327
20
-367.549981495186
30
0
11
811.230484541327
21
-497.453792062852
31
0
0
LINE
8
layer0
10
831.230484541327
20
-350.229473419497
30
0
11
796.589468389949
21
-340.229473419497
31
0
0
LINE
8
layer0
10
796.589468389949
20
-340.229473419497
30
0
11
776.589468389949
21
-357.549981495186
31
0
0
LINE
8
layer0
10
776.589468389949
20
-357.549981495186
30
0
11
811.230484541327
21
-367.549981495186
31
0
0
LINE
8
layer0
10
811.230484541327
20
-367.549981495186
30
0
11
831.230484541327
21
-350.229473419497
31
0
0
LINE
8
layer0
10
796.589468389949
20
-470.133283987163
30
0
11
831.230484541327
21
-480.133283987163
31
0
0
LINE
8
layer0
10
831.230484541327
20
-480.133283987163
30
0
11
811.230484541327
21
-497.453792062852
31
0
0
LINE
8
layer0
10
811.230484541327
20
-497.453792062852
30
0
11
776.589468389949
21
-487.453792062852
31
0
0
LINE
8
layer0
10
776.589468389949
20
-487.453792062852
30
0
11
796.589468389949
21
-470.133283987163
31
0
0
ENDBLK
0
BLOCK
8
layer0
70
0
10
0
20
0
30
0
2
PF_SKETCH15
0
LINE
8
layer0
10
515.749845793219
20
550.094569747296
30
0
11
468.583179126552
21
509.24703820213
31
0
0
ENDBLK
0
BLOCK
8
layer0
70
0
10
0
20
0
30
0
2
PF_SKETCH16
0
LINE
8
layer0
10
1035.36508806388
20
400.094569747296
30
0
11
988.198421397215
21
359.24703820213
31
0
0
ENDBLK
0
BLOCK
8
layer0
70
0
10
0
20
0
30
0
2
PF_SKETCH17
0
LINE
8
layer0
10
421.416512459885
20
468.399506656964
30
0
11
374.249845793219
21
427.551975111798
31
0
0
ENDBLK
0
BLOCK
8
layer0
70
0
10
0
20
0
30
0
2
PF_SKETCH18
0
LINE
8
layer0
10
941.031754730548
20
318.399506656964
30
0
11
893.865088063882
21
277.551975111798
31
0
0
ENDBLK
0
BLOCK
8
layer0
70
0
10
0
20
0
30
0
2
PF_SKETCH19
0
LINE
8
layer0
10
327.083179126552
20
386.704443566632
30
0
11
279.916512459885
21
345.856912021466
31
0
0
ENDBLK
0
BLOCK
8
layer0
70
0
10
0
20
0
30
0
2
PF_SKETCH20
0
LINE
8
layer0
10
846.698421397215
20
236.704443566632
30
0
11
799.531754730549
21
195.856912021466
31
0
0
ENDBLK
0
BLOCK
8
layer0
2
PF_OBJECT21
70
0
10
0
20
0
30
0
0
LINE
8
layer0
10
1561.29059054066
20
-351.978875334514
30
0
11
1069.3881611911
21
-209.978875334514
31
0
0
LINE
8
layer0
10
1069.3881611911
20
-209.978875334514
30
0
11
1069.3881611911
21
-196.122468873963
31
0
0
LINE
8
layer0
10
1069.3881611911
20
-196.122468873963
30
0
11
1561.29059054066
21
-338.122468873963
31
0
0
LINE
8
layer0
10
1561.29059054066
20
-338.122468873963
30
0
11
1561.29059054066
21
-351.978875334514
31
0
0
LINE
8
layer0
10
813.888161191099
20
-431.248366001438
30
0
11
1305.79059054066
21
-573.248366001438
31
0
0
LINE
8
layer0
10
1305.79059054066
20
-573.248366001438
30
0
11
1305.79059054066
21
-559.391959540887
31
0
0
LINE
8
layer0
10
1305.79059054066
20
-559.391959540887
30
0
11
813.888161191099
21
-417.391959540887
31
0
0
LINE
8
layer0
10
813.888161191099
20
-417.391959540887
30
0
11
813.888161191099
21
-431.248366001438
31
0
0
LINE
8
layer0
10
1069.3881611911
20
-209.978875334514
30
0
11
813.888161191099
21
-431.248366001438
31
0
0
LINE
8
layer0
10
813.888161191099
20
-431.248366001438
30
0
11
813.888161191099
21
-417.391959540887
31
0
0
LINE
8
layer0
10
813.888161191099
20
-417.391959540887
30
0
11
1069.3881611911
21
-196.122468873963
31
0
0
LINE
8
layer0
10
1069.3881611911
20
-196.122468873963
30
0
11
1069.3881611911
21
-209.978875334514
31
0
0
LINE
8
layer0
10
1305.79059054066
20
-573.248366001438
30
0
11
1561.29059054066
21
-351.978875334514
31
0
0
LINE
8
layer0
10
1561.29059054066
20
-351.978875334514
30
0
11
1561.29059054066
21
-338.122468873963
31
0
0
LINE
8
layer0
10
1561.29059054066
20
-338.122468873963
30
0
11
1305.79059054066
21
-559.391959540887
31
0
0
LINE
8
layer0
10
1305.79059054066
20
-559.391959540887
30
0
11
1305.79059054066
21
-573.248366001438
31
0
0
LINE
8
layer0
10
1561.29059054066
20
-338.122468873963
30
0
11
1069.3881611911
21
-196.122468873963
31
0
0
LINE
8
layer0
10
1069.3881611911
20
-196.122468873963
30
0
11
813.888161191099
21
-417.391959540887
31
0
0
LINE
8
layer0
10
813.888161191099
20
-417.391959540887
30
0
11
1305.79059054066
21
-559.391959540887
31
0
0
LINE
8
layer0
10
1305.79059054066
20
-559.391959540887
30
0
11
1561.29059054066
21
-338.122468873963
31
0
0
LINE
8
layer0
10
1069.3881611911
20
-209.978875334514
30
0
11
1561.29059054066
21
-351.978875334514
31
0
0
LINE
8
layer0
10
1561.29059054066
20
-351.978875334514
30
0
11
1305.79059054066
21
-573.248366001438
31
0
0
LINE
8
layer0
10
1305.79059054066
20
-573.248366001438
30
0
11
813.888161191099
21
-431.248366001438
31
0
0
LINE
8
layer0
10
813.888161191099
20
-431.248366001438
30
0
11
1069.3881611911
21
-209.978875334514
31
0
0
ENDBLK
0
BLOCK
8
layer0
2
PF_OBJECT22
70
0
10
0
20
0
30
0
0
LINE
8
layer0
10
1563.29059054066
20
-350.246824526945
30
0
11
1071.3881611911
21
-208.246824526945
31
0
0
LINE
8
layer0
10
1071.3881611911
20
-208.246824526945
30
0
11
1071.3881611911
21
415.291466197851
31
0
0
LINE
8
layer0
10
1071.3881611911
20
415.291466197851
30
0
11
1563.29059054066
21
273.291466197851
31
0
0
LINE
8
layer0
10
1563.29059054066
20
273.291466197851
30
0
11
1563.29059054066
21
-350.246824526945
31
0
0
LINE
8
layer0
10
1069.3881611911
20
-209.978875334514
30
0
11
1561.29059054066
21
-351.978875334514
31
0
0
LINE
8
layer0
10
1561.29059054066
20
-351.978875334514
30
0
11
1561.29059054066
21
271.559415390282
31
0
0
LINE
8
layer0
10
1561.29059054066
20
271.559415390282
30
0
11
1069.3881611911
21
413.559415390282
31
0
0
LINE
8
layer0
10
1069.3881611911
20
413.559415390282
30
0
11
1069.3881611911
21
-209.978875334514
31
0
0
LINE
8
layer0
10
1071.3881611911
20
-208.246824526945
30
0
11
1069.3881611911
21
-209.978875334514
31
0
0
LINE
8
layer0
10
1069.3881611911
20
-209.978875334514
30
0
11
1069.3881611911
21
413.559415390282
31
0
0
LINE
8
layer0
10
1069.3881611911
20
413.559415390282
30
0
11
1071.3881611911
21
415.291466197851
31
0
0
LINE
8
layer0
10
1071.3881611911
20
415.291466197851
30
0
11
1071.3881611911
21
-208.246824526945
31
0
0
LINE
8
layer0
10
1561.29059054066
20
-351.978875334514
30
0
11
1563.29059054066
21
-350.246824526945
31
0
0
LINE
8
layer0
10
1563.29059054066
20
-350.246824526945
30
0
11
1563.29059054066
21
273.291466197851
31
0
0
LINE
8
layer0
10
1563.29059054066
20
273.291466197851
30
0
11
1561.29059054066
21
271.559415390282
31
0
0
LINE
8
layer0
10
1561.29059054066
20
271.559415390282
30
0
11
1561.29059054066
21
-351.978875334514
31
0
0
LINE
8
layer0
10
1563.29059054066
20
273.291466197851
30
0
11
1071.3881611911
21
415.291466197851
31
0
0
LINE
8
layer0
10
1071.3881611911
20
415.291466197851
30
0
11
1069.3881611911
21
413.559415390282
31
0
0
LINE
8
layer0
10
1069.3881611911
20
413.559415390282
30
0
11
1561.29059054066
21
271.559415390282
31
0
0
LINE
8
layer0
10
1561.29059054066
20
271.559415390282
30
0
11
1563.29059054066
21
273.291466197851
31
0
0
LINE
8
layer0
10
1071.3881611911
20
-208.246824526945
30
0
11
1563.29059054066
21
-350.246824526945
31
0
0
LINE
8
layer0
10
1563.29059054066
20
-350.246824526945
30
0
11
1561.29059054066
21
-351.978875334514
31
0
0
LINE
8
layer0
10
1561.29059054066
20
-351.978875334514
30
0
11
1069.3881611911
21
-209.978875334514
31
0
0
LINE
8
layer0
10
1069.3881611911
20
-209.978875334514
30
0
11
1071.3881611911
21
-208.246824526945
31
0
0
ENDBLK
0
BLOCK
8
layer0
2
PF_OBJECT23
70
0
10
0
20
0
30
0
0
LINE
8
layer0
10
1536.29059054066
20
249.908780295671
30
0
11
1044.3881611911
21
391.908780295671
31
0
0
LINE
8
layer0
10
1044.3881611911
20
391.908780295671
30
0
11
1044.3881611911
21
378.05237383512
31
0
0
LINE
8
layer0
10
1044.3881611911
20
378.05237383512
30
0
11
1536.29059054066
21
236.05237383512
31
0
0
LINE
8
layer0
10
1536.29059054066
20
236.05237383512
30
0
11
1536.29059054066
21
249.908780295671
31
0
0
LINE
8
layer0
10
1069.3881611911
20
413.559415390282
30
0
11
1561.29059054066
21
271.559415390282
31
0
0
LINE
8
layer0
10
1561.29059054066
20
271.559415390282
30
0
11
1561.29059054066
21
257.703008929731
31
0
0
LINE
8
layer0
10
1561.29059054066
20
257.703008929731
30
0
11
1069.3881611911
21
399.703008929731
31
0
0
LINE
8
layer0
10
1069.3881611911
20
399.703008929731
30
0
11
1069.3881611911
21
413.559415390282
31
0
0
LINE
8
layer0
10
1044.3881611911
20
391.908780295671
30
0
11
1069.3881611911
21
413.559415390282
31
0
0
LINE
8
layer0
10
1069.3881611911
20
413.559415390282
30
0
11
1069.3881611911
21
399.703008929731
31
0
0
LINE
8
layer0
10
1069.3881611911
20
399.703008929731
30
0
11
1044.3881611911
21
378.05237383512
31
0
0
LINE
8
layer0
10
1044.3881611911
20
378.05237383512
30
0
11
1044.3881611911
21
391.908780295671
31
0
0
LINE
8
layer0
10
1561.29059054066
20
271.559415390282
30
0
11
1536.29059054066
21
249.908780295671
31
0
0
LINE
8
layer0
10
1536.29059054066
20
249.908780295671
30
0
11
1536.29059054066
21
236.05237383512
31
0
0
LINE
8
layer0
10
1536.29059054066
20
236.05237383512
30
0
11
1561.29059054066
21
257.703008929731
31
0
0
LINE
8
layer0
10
1561.29059054066
20
257.703008929731
30
0
11
1561.29059054066
21
271.559415390282
31
0
0
LINE
8
layer0
10
1536.29059054066
20
236.05237383512
30
0
11
1044.3881611911
21
378.05237383512
31
0
0
LINE
8
layer0
10
1044.3881611911
20
378.05237383512
30
0
11
1069.3881611911
21
399.703008929731
31
0
0
LINE
8
layer0
10
1069.3881611911
20
399.703008929731
30
0
11
1561.29059054066
21
257.703008929731
31
0
0
LINE
8
layer0
10
1561.29059054066
20
257.703008929731
30
0
11
1536.29059054066
21
236.05237383512
31
0
0
LINE
8
layer0
10
1044.3881611911
20
391.908780295671
30
0
11
1536.29059054066
21
249.908780295671
31
0
0
LINE
8
layer0
10
1536.29059054066
20
249.908780295671
30
0
11
1561.29059054066
21
271.559415390282
31
0
0
LINE
8
layer0
10
1561.29059054066
20
271.559415390282
30
0
11
1069.3881611911
21
413.559415390282
31
0
0
LINE
8
layer0
10
1069.3881611911
20
413.559415390282
30
0
11
1044.3881611911
21
391.908780295671
31
0
0
ENDBLK
0
BLOCK
8
layer0
2
PF_OBJECT24
70
0
10
0
20
0
30
0
0
LINE
8
layer0
10
838.888161191099
20
200.084153357418
30
0
11
1330.79059054066
21
58.0841533574178
31
0
0
LINE
8
layer0
10
1330.79059054066
20
58.0841533574178
30
0
11
1305.79059054066
21
36.4335182628068
31
0
0
LINE
8
layer0
10
1305.79059054066
20
36.4335182628068
30
0
11
813.888161191099
21
178.433518262807
31
0
0
LINE
8
layer0
10
813.888161191099
20
178.433518262807
30
0
11
838.888161191099
21
200.084153357418
31
0
0
LINE
8
layer0
10
1330.79059054066
20
71.9405598179687
30
0
11
838.888161191099
21
213.940559817969
31
0
0
LINE
8
layer0
10
838.888161191099
20
213.940559817969
30
0
11
813.888161191099
21
192.289924723358
31
0
0
LINE
8
layer0
10
813.888161191099
20
192.289924723358
30
0
11
1305.79059054066
21
50.2899247233577
31
0
0
LINE
8
layer0
10
1305.79059054066
20
50.2899247233577
30
0
11
1330.79059054066
21
71.9405598179687
31
0
0
LINE
8
layer0
10
1305.79059054066
20
36.4335182628068
30
0
11
1330.79059054066
21
58.0841533574178
31
0
0
LINE
8
layer0
10
1330.79059054066
20
58.0841533574178
30
0
11
1330.79059054066
21
71.9405598179687
31
0
0
LINE
8
layer0
10
1330.79059054066
20
71.9405598179687
30
0
11
1305.79059054066
21
50.2899247233577
31
0
0
LINE
8
layer0
10
1305.79059054066
20
50.2899247233577
30
0
11
1305.79059054066
21
36.4335182628068
31
0
0
LINE
8
layer0
10
838.888161191099
20
200.084153357418
30
0
11
813.888161191099
21
178.433518262807
31
0
0
LINE
8
layer0
10
813.888161191099
20
178.433518262807
30
0
11
813.888161191099
21
192.289924723358
31
0
0
LINE
8
layer0
10
813.888161191099
20
192.289924723358
30
0
11
838.888161191099
21
213.940559817969
31
0
0
LINE
8
layer0
10
838.888161191099
20
213.940559817969
30
0
11
838.888161191099
21
200.084153357418
31
0
0
LINE
8
layer0
10
813.888161191099
20
178.433518262807
30
0
11
1305.79059054066
21
36.4335182628068
31
0
0
LINE
8
layer0
10
1305.79059054066
20
36.4335182628068
30
0
11
1305.79059054066
21
50.2899247233577
31
0
0
LINE
8
layer0
10
1305.79059054066
20
50.2899247233577
30
0
11
813.888161191099
21
192.289924723358
31
0
0
LINE
8
layer0
10
813.888161191099
20
192.289924723358
30
0
11
813.888161191099
21
178.433518262807
31
0
0
LINE
8
layer0
10
1330.79059054066
20
58.0841533574178
30
0
11
838.888161191099
21
200.084153357418
31
0
0
LINE
8
layer0
10
838.888161191099
20
200.084153357418
30
0
11
838.888161191099
21
213.940559817969
31
0
0
LINE
8
layer0
10
838.888161191099
20
213.940559817969
30
0
11
1330.79059054066
21
71.9405598179687
31
0
0
LINE
8
layer0
10
1330.79059054066
20
71.9405598179687
30
0
11
1330.79059054066
21
58.0841533574178
31
0
0
LINE
8
layer0
10
1588.29059054066
20
-328.596189432334
30
0
11
1602.14699700121
21
-332.596189432334
31
0
0
LINE
8
layer0
10
1602.14699700121
20
-332.596189432334
30
0
11
1319.14699700121
21
-577.68137870333
31
0
0
LINE
8
layer0
10
1319.14699700121
20
-577.68137870333
30
0
11
1305.29059054066
21
-573.68137870333
31
0
0
LINE
8
layer0
10
1305.29059054066
20
-573.68137870333
30
0
11
1588.29059054066
21
-328.596189432334
31
0
0
LINE
8
layer0
10
1602.14699700121
20
290.942101292462
30
0
11
1588.29059054066
21
294.942101292462
31
0
0
LINE
8
layer0
10
1588.29059054066
20
294.942101292462
30
0
11
1305.29059054066
21
49.8569120214656
31
0
0
LINE
8
layer0
10
1305.29059054066
20
49.8569120214656
30
0
11
1319.14699700121
21
45.8569120214656
31
0
0
LINE
8
layer0
10
1319.14699700121
20
45.8569120214656
30
0
11
1602.14699700121
21
290.942101292462
31
0
0
LINE
8
layer0
10
1319.14699700121
20
-577.68137870333
30
0
11
1602.14699700121
21
-332.596189432334
31
0
0
LINE
8
layer0
10
1602.14699700121
20
-332.596189432334
30
0
11
1602.14699700121
21
290.942101292462
31
0
0
LINE
8
layer0
10
1602.14699700121
20
290.942101292462
30
0
11
1319.14699700121
21
45.8569120214656
31
0
0
LINE
8
layer0
10
1319.14699700121
20
45.8569120214656
30
0
11
1319.14699700121
21
-577.68137870333
31
0
0
LINE
8
layer0
10
1588.29059054066
20
-328.596189432334
30
0
11
1305.29059054066
21
-573.68137870333
31
0
0
LINE
8
layer0
10
1305.29059054066
20
-573.68137870333
30
0
11
1305.29059054066
21
49.8569120214656
31
0
0
LINE
8
layer0
10
1305.29059054066
20
49.8569120214656
30
0
11
1588.29059054066
21
294.942101292462
31
0
0
LINE
8
layer0
10
1588.29059054066
20
294.942101292462
30
0
11
1588.29059054066
21
-328.596189432334
31
0
0
LINE
8
layer0
10
1305.29059054066
20
-573.68137870333
30
0
11
1319.14699700121
21
-577.68137870333
31
0
0
LINE
8
layer0
10
1319.14699700121
20
-577.68137870333
30
0
11
1319.14699700121
21
45.8569120214656
31
0
0
LINE
8
layer0
10
1319.14699700121
20
45.8569120214656
30
0
11
1305.29059054066
21
49.8569120214656
31
0
0
LINE
8
layer0
10
1305.29059054066
20
49.8569120214656
30
0
11
1305.29059054066
21
-573.68137870333
31
0
0
LINE
8
layer0
10
1602.14699700121
20
-332.596189432334
30
0
11
1588.29059054066
21
-328.596189432334
31
0
0
LINE
8
layer0
10
1588.29059054066
20
-328.596189432334
30
0
11
1588.29059054066
21
294.942101292462
31
0
0
LINE
8
layer0
10
1588.29059054066
20
294.942101292462
30
0
11
1602.14699700121
21
290.942101292462
31
0
0
LINE
8
layer0
10
1602.14699700121
20
290.942101292462
30
0
11
1602.14699700121
21
-332.596189432334
31
0
0
LINE
8
layer0
10
1082.53175473055
20
-182.596189432334
30
0
11
1096.3881611911
21
-186.596189432334
31
0
0
LINE
8
layer0
10
1096.3881611911
20
-186.596189432334
30
0
11
813.388161191099
21
-431.68137870333
31
0
0
LINE
8
layer0
10
813.388161191099
20
-431.68137870333
30
0
11
799.531754730548
21
-427.68137870333
31
0
0
LINE
8
layer0
10
799.531754730548
20
-427.68137870333
30
0
11
1082.53175473055
21
-182.596189432334
31
0
0
LINE
8
layer0
10
1096.3881611911
20
436.942101292462
30
0
11
1082.53175473055
21
440.942101292462
31
0
0
LINE
8
layer0
10
1082.53175473055
20
440.942101292462
30
0
11
799.531754730548
21
195.856912021466
31
0
0
LINE
8
layer0
10
799.531754730548
20
195.856912021466
30
0
11
813.388161191099
21
191.856912021466
31
0
0
LINE
8
layer0
10
813.388161191099
20
191.856912021466
30
0
11
1096.3881611911
21
436.942101292462
31
0
0
LINE
8
layer0
10
813.388161191099
20
-431.68137870333
30
0
11
1096.3881611911
21
-186.596189432334
31
0
0
LINE
8
layer0
10
1096.3881611911
20
-186.596189432334
30
0
11
1096.3881611911
21
436.942101292462
31
0
0
LINE
8
layer0
10
1096.3881611911
20
436.942101292462
30
0
11
813.388161191099
21
191.856912021466
31
0
0
LINE
8
layer0
10
813.388161191099
20
191.856912021466
30
0
11
813.388161191099
21
-431.68137870333
31
0
0
LINE
8
layer0
10
1082.53175473055
20
-182.596189432334
30
0
11
799.531754730548
21
-427.68137870333
31
0
0
LINE
8
layer0
10
799.531754730548
20
-427.68137870333
30
0
11
799.531754730548
21
195.856912021466
31
0
0
LINE
8
layer0
10
799.531754730548
20
195.856912021466
30
0
11
1082.53175473055
21
440.942101292462
31
0
0
LINE
8
layer0
10
1082.53175473055
20
440.942101292462
30
0
11
1082.53175473055
21
-182.596189432334
31
0
0
LINE
8
layer0
10
799.531754730548
20
-427.68137870333
30
0
11
813.388161191099
21
-431.68137870333
31
0
0
LINE
8
layer0
10
813.388161191099
20
-431.68137870333
30
0
11
813.388161191099
21
191.856912021466
31
0
0
LINE
8
layer0
10
813.388161191099
20
191.856912021466
30
0
11
799.531754730548
21
195.856912021466
31
0
0
LINE
8
layer0
10
799.531754730548
20
195.856912021466
30
0
11
799.531754730548
21
-427.68137870333
31
0
0
LINE
8
layer0
10
1096.3881611911
20
-186.596189432334
30
0
11
1082.53175473055
21
-182.596189432334
31
0
0
LINE
8
layer0
10
1082.53175473055
20
-182.596189432334
30
0
11
1082.53175473055
21
440.942101292462
31
0
0
LINE
8
layer0
10
1082.53175473055
20
440.942101292462
30
0
11
1096.3881611911
21
436.942101292462
31
0
0
LINE
8
layer0
10
1096.3881611911
20
436.942101292462
30
0
11
1096.3881611911
21
-186.596189432334
31
0
0
ENDBLK
0
BLOCK
8
layer0
2
PF_OBJECT25
70
0
10
0
20
0
30
0
0
LINE
8
layer0
10
1165.2165913439
20
34.176252179365
30
0
11
1162.15472916543
21
36.3284004962914
31
0
0
LINE
8
layer0
10
1162.15472916543
20
36.3284004962914
30
0
11
1152.15472916543
21
27.668146458447
31
0
0
LINE
8
layer0
10
1152.15472916543
20
27.668146458447
30
0
11
1155.2165913439
21
25.5159981415206
31
0
0
LINE
8
layer0
10
1155.2165913439
20
25.5159981415206
30
0
11
1165.2165913439
21
34.176252179365
31
0
0
LINE
8
layer0
10
1166.48485618435
20
30.7482734773692
30
0
11
1165.2165913439
21
34.176252179365
31
0
0
LINE
8
layer0
10
1165.2165913439
20
34.176252179365
30
0
11
1155.2165913439
21
25.5159981415206
31
0
0
LINE
8
layer0
10
1155.2165913439
20
25.5159981415206
30
0
11
1156.48485618435
21
22.0880194395248
31
0
0
LINE
8
layer0
10
1156.48485618435
20
22.0880194395248
30
0
11
1166.48485618435
21
30.7482734773692
31
0
0
LINE
8
layer0
10
1165.2165913439
20
28.0525278224071
30
0
11
1166.48485618435
21
30.7482734773692
31
0
0
LINE
8
layer0
10
1166.48485618435
20
30.7482734773692
30
0
11
1156.48485618435
21
22.0880194395248
31
0
0
LINE
8
layer0
10
1156.48485618435
20
22.0880194395248
30
0
11
1155.2165913439
21
19.3922737845627
31
0
0
LINE
8
layer0
10
1155.2165913439
20
19.3922737845627
30
0
11
1165.2165913439
21
28.0525278224071
31
0
0
LINE
8
layer0
10
1162.15472916543
20
27.6681464584471
30
0
11
1165.2165913439
21
28.0525278224071
31
0
0
LINE
8
layer0
10
1165.2165913439
20
28.0525278224071
30
0
11
1155.2165913439
21
19.3922737845627
31
0
0
LINE
8
layer0
10
1155.2165913439
20
19.3922737845627
30
0
11
1152.15472916543
21
19.0078924206027
31
0
0
LINE
8
layer0
10
1152.15472916543
20
19.0078924206027
30
0
11
1162.15472916543
21
27.6681464584471
31
0
0
LINE
8
layer0
10
1159.09286698695
20
29.8202947753735
30
0
11
1162.15472916543
21
27.6681464584471
31
0
0
LINE
8
layer0
10
1162.15472916543
20
27.6681464584471
30
0
11
1152.15472916543
21
19.0078924206027
31
0
0
LINE
8
layer0
10
1152.15472916543
20
19.0078924206027
30
0
11
1149.09286698695
21
21.1600407375291
31
0
0
LINE
8
layer0
10
1149.09286698695
20
21.1600407375291
30
0
11
1159.09286698695
21
29.8202947753735
31
0
0
LINE
8
layer0
10
1157.8246021465
20
33.2482734773692
30
0
11
1159.09286698695
21
29.8202947753735
31
0
0
LINE
8
layer0
10
1159.09286698695
20
29.8202947753735
30
0
11
1149.09286698695
21
21.1600407375291
31
0
0
LINE
8
layer0
10
1149.09286698695
20
21.1600407375291
30
0
11
1147.8246021465
21
24.5880194395248
31
0
0
LINE
8
layer0
10
1147.8246021465
20
24.5880194395248
30
0
11
1157.8246021465
21
33.2482734773692
31
0
0
LINE
8
layer0
10
1159.09286698695
20
35.9440191323314
30
0
11
1157.8246021465
21
33.2482734773692
31
0
0
LINE
8
layer0
10
1157.8246021465
20
33.2482734773692
30
0
11
1147.8246021465
21
24.5880194395248
31
0
0
LINE
8
layer0
10
1147.8246021465
20
24.5880194395248
30
0
11
1149.09286698695
21
27.2837650944871
31
0
0
LINE
8
layer0
10
1149.09286698695
20
27.2837650944871
30
0
11
1159.09286698695
21
35.9440191323314
31
0
0
LINE
8
layer0
10
1162.15472916543
20
36.3284004962914
30
0
11
1159.09286698695
21
35.9440191323314
31
0
0
LINE
8
layer0
10
1159.09286698695
20
35.9440191323314
30
0
11
1149.09286698695
21
27.2837650944871
31
0
0
LINE
8
layer0
10
1149.09286698695
20
27.2837650944871
30
0
11
1152.15472916543
21
27.668146458447
31
0
0
LINE
8
layer0
10
1152.15472916543
20
27.668146458447
30
0
11
1162.15472916543
21
36.3284004962914
31
0
0
LINE
8
layer0
10
1152.15472916543
20
27.668146458447
30
0
11
1149.09286698695
21
27.2837650944871
31
0
0
LINE
8
layer0
10
1149.09286698695
20
27.2837650944871
30
0
11
1147.8246021465
21
24.5880194395248
31
0
0
LINE
8
layer0
10
1147.8246021465
20
24.5880194395248
30
0
11
1149.09286698695
21
21.1600407375291
31
0
0
LINE
8
layer0
10
1149.09286698695
20
21.1600407375291
30
0
11
1152.15472916543
21
19.0078924206027
31
0
0
LINE
8
layer0
10
1152.15472916543
20
19.0078924206027
30
0
11
1155.2165913439
21
19.3922737845627
31
0
0
LINE
8
layer0
10
1155.2165913439
20
19.3922737845627
30
0
11
1156.48485618435
21
22.0880194395248
31
0
0
LINE
8
layer0
10
1156.48485618435
20
22.0880194395248
30
0
11
1155.2165913439
21
25.5159981415206
31
0
0
LINE
8
layer0
10
1155.2165913439
20
25.5159981415206
30
0
11
1152.15472916543
21
27.668146458447
31
0
0
LINE
8
layer0
10
1159.09286698695
20
35.9440191323314
30
0
11
1162.15472916543
21
36.3284004962914
31
0
0
LINE
8
layer0
10
1162.15472916543
20
36.3284004962914
30
0
11
1165.2165913439
21
34.176252179365
31
0
0
LINE
8
layer0
10
1165.2165913439
20
34.176252179365
30
0
11
1166.48485618435
21
30.7482734773692
31
0
0
LINE
8
layer0
10
1166.48485618435
20
30.7482734773692
30
0
11
1165.2165913439
21
28.0525278224071
31
0
0
LINE
8
layer0
10
1165.2165913439
20
28.0525278224071
30
0
11
1162.15472916543
21
27.6681464584471
31
0
0
LINE
8
layer0
10
1162.15472916543
20
27.6681464584471
30
0
11
1159.09286698695
21
29.8202947753735
31
0
0
LINE
8
layer0
10
1159.09286698695
20
29.8202947753735
30
0
11
1157.8246021465
21
33.2482734773692
31
0
0
LINE
8
layer0
10
1157.8246021465
20
33.2482734773692
30
0
11
1159.09286698695
21
35.9440191323314
31
0
0
ENDBLK
0
BLOCK
8
layer0
2
PF_OBJECT26
70
0
10
0
20
0
30
0
0
LINE
8
layer0
10
1276.06784302831
20
2.17625217936501
30
0
11
1273.00598084983
21
4.32840049629141
31
0
0
LINE
8
layer0
10
1273.00598084983
20
4.32840049629141
30
0
11
1263.00598084983
21
-4.33185354155296
31
0
0
LINE
8
layer0
10
1263.00598084983
20
-4.33185354155296
30
0
11
1266.06784302831
21
-6.48400185847936
31
0
0
LINE
8
layer0
10
1266.06784302831
20
-6.48400185847936
30
0
11
1276.06784302831
21
2.17625217936501
31
0
0
LINE
8
layer0
10
1277.33610786876
20
-1.2517265226308
30
0
11
1276.06784302831
21
2.17625217936501
31
0
0
LINE
8
layer0
10
1276.06784302831
20
2.17625217936501
30
0
11
1266.06784302831
21
-6.48400185847936
31
0
0
LINE
8
layer0
10
1266.06784302831
20
-6.48400185847936
30
0
11
1267.33610786876
21
-9.91198056047517
31
0
0
LINE
8
layer0
10
1267.33610786876
20
-9.91198056047517
30
0
11
1277.33610786876
21
-1.2517265226308
31
0
0
LINE
8
layer0
10
1276.06784302831
20
-3.94747217759283
30
0
11
1277.33610786876
21
-1.2517265226308
31
0
0
LINE
8
layer0
10
1277.33610786876
20
-1.2517265226308
30
0
11
1267.33610786876
21
-9.91198056047517
31
0
0
LINE
8
layer0
10
1267.33610786876
20
-9.91198056047517
30
0
11
1266.06784302831
21
-12.6077262154372
31
0
0
LINE
8
layer0
10
1266.06784302831
20
-12.6077262154372
30
0
11
1276.06784302831
21
-3.94747217759283
31
0
0
LINE
8
layer0
10
1273.00598084983
20
-4.3318535415529
30
0
11
1276.06784302831
21
-3.94747217759283
31
0
0
LINE
8
layer0
10
1276.06784302831
20
-3.94747217759283
30
0
11
1266.06784302831
21
-12.6077262154372
31
0
0
LINE
8
layer0
10
1266.06784302831
20
-12.6077262154372
30
0
11
1263.00598084983
21
-12.9921075793973
31
0
0
LINE
8
layer0
10
1263.00598084983
20
-12.9921075793973
30
0
11
1273.00598084983
21
-4.3318535415529
31
0
0
LINE
8
layer0
10
1269.94411867136
20
-2.1797052246265
30
0
11
1273.00598084983
21
-4.3318535415529
31
0
0
LINE
8
layer0
10
1273.00598084983
20
-4.3318535415529
30
0
11
1263.00598084983
21
-12.9921075793973
31
0
0
LINE
8
layer0
10
1263.00598084983
20
-12.9921075793973
30
0
11
1259.94411867136
21
-10.8399592624709
31
0
0
LINE
8
layer0
10
1259.94411867136
20
-10.8399592624709
30
0
11
1269.94411867136
21
-2.1797052246265
31
0
0
LINE
8
layer0
10
1268.67585383091
20
1.2482734773692
30
0
11
1269.94411867136
21
-2.1797052246265
31
0
0
LINE
8
layer0
10
1269.94411867136
20
-2.1797052246265
30
0
11
1259.94411867136
21
-10.8399592624709
31
0
0
LINE
8
layer0
10
1259.94411867136
20
-10.8399592624709
30
0
11
1258.67585383091
21
-7.41198056047517
31
0
0
LINE
8
layer0
10
1258.67585383091
20
-7.41198056047517
30
0
11
1268.67585383091
21
1.2482734773692
31
0
0
LINE
8
layer0
10
1269.94411867136
20
3.94401913233145
30
0
11
1268.67585383091
21
1.2482734773692
31
0
0
LINE
8
layer0
10
1268.67585383091
20
1.2482734773692
30
0
11
1258.67585383091
21
-7.41198056047517
31
0
0
LINE
8
layer0
10
1258.67585383091
20
-7.41198056047517
30
0
11
1259.94411867136
21
-4.71623490551292
31
0
0
LINE
8
layer0
10
1259.94411867136
20
-4.71623490551292
30
0
11
1269.94411867136
21
3.94401913233145
31
0
0
LINE
8
layer0
10
1273.00598084983
20
4.32840049629141
30
0
11
1269.94411867136
21
3.94401913233145
31
0
0
LINE
8
layer0
10
1269.94411867136
20
3.94401913233145
30
0
11
1259.94411867136
21
-4.71623490551292
31
0
0
LINE
8
layer0
10
1259.94411867136
20
-4.71623490551292
30
0
11
1263.00598084983
21
-4.33185354155296
31
0
0
LINE
8
layer0
10
1263.00598084983
20
-4.33185354155296
30
0
11
1273.00598084983
21
4.32840049629141
31
0
0
LINE
8
layer0
10
1263.00598084983
20
-4.33185354155296
30
0
11
1259.94411867136
21
-4.71623490551292
31
0
0
LINE
8
layer0
10
1259.94411867136
20
-4.71623490551292
30
0
11
1258.67585383091
21
-7.41198056047517
31
0
0
LINE
8
layer0
10
1258.67585383091
20
-7.41198056047517
30
0
11
1259.94411867136
21
-10.8399592624709
31
0
0
LINE
8
layer0
10
1259.94411867136
20
-10.8399592624709
30
0
11
1263.00598084983
21
-12.9921075793973
31
0
0
LINE
8
layer0
10
1263.00598084983
20
-12.9921075793973
30
0
11
1266.06784302831
21
-12.6077262154372
31
0
0
LINE
8
layer0
10
1266.06784302831
20
-12.6077262154372
30
0
11
1267.33610786876
21
-9.91198056047517
31
0
0
LINE
8
layer0
10
1267.33610786876
20
-9.91198056047517
30
0
11
1266.06784302831
21
-6.48400185847936
31
0
0
LINE
8
layer0
10
1266.06784302831
20
-6.48400185847936
30
0
11
1263.00598084983
21
-4.33185354155296
31
0
0
LINE
8
layer0
10
1269.94411867136
20
3.94401913233145
30
0
11
1273.00598084983
21
4.32840049629141
31
0
0
LINE
8
layer0
10
1273.00598084983
20
4.32840049629141
30
0
11
1276.06784302831
21
2.17625217936501
31
0
0
LINE
8
layer0
10
1276.06784302831
20
2.17625217936501
30
0
11
1277.33610786876
21
-1.2517265226308
31
0
0
LINE
8
layer0
10
1277.33610786876
20
-1.2517265226308
30
0
11
1276.06784302831
21
-3.94747217759283
31
0
0
LINE
8
layer0
10
1276.06784302831
20
-3.94747217759283
30
0
11
1273.00598084983
21
-4.3318535415529
31
0
0
LINE
8
layer0
10
1273.00598084983
20
-4.3318535415529
30
0
11
1269.94411867136
21
-2.1797052246265
31
0
0
LINE
8
layer0
10
1269.94411867136
20
-2.1797052246265
30
0
11
1268.67585383091
21
1.2482734773692
31
0
0
LINE
8
layer0
10
1268.67585383091
20
1.2482734773692
30
0
11
1269.94411867136
21
3.94401913233145
31
0
0
ENDBLK
0
BLOCK
8
layer0
2
PF_OBJECT27
70
0
10
0
20
0
30
0
0
LINE
8
layer0
10
1136.6019880427
20
32.9308127072434
30
0
11
1134.83422108974
21
32.668146458447
31
0
0
LINE
8
layer0
10
1134.83422108974
20
32.668146458447
30
0
11
1280.32648892552
21
-9.33185354155296
31
0
0
LINE
8
layer0
10
1280.32648892552
20
-9.33185354155296
30
0
11
1282.09425587849
21
-9.06918729275662
31
0
0
LINE
8
layer0
10
1282.09425587849
20
-9.06918729275662
30
0
11
1136.6019880427
21
32.9308127072434
31
0
0
LINE
8
layer0
10
1137.33422108974
20
30.5030829489859
30
0
11
1136.6019880427
21
32.9308127072434
31
0
0
LINE
8
layer0
10
1136.6019880427
20
32.9308127072434
30
0
11
1282.09425587849
21
-9.06918729275662
31
0
0
LINE
8
layer0
10
1282.09425587849
20
-9.06918729275662
30
0
11
1282.82648892552
21
-11.4969170510141
31
0
0
LINE
8
layer0
10
1282.82648892552
20
-11.4969170510141
30
0
11
1137.33422108974
21
30.5030829489859
31
0
0
LINE
8
layer0
10
1136.6019880427
20
26.8070883502854
30
0
11
1137.33422108974
21
30.5030829489859
31
0
0
LINE
8
layer0
10
1137.33422108974
20
30.5030829489859
30
0
11
1282.82648892552
21
-11.4969170510141
31
0
0
LINE
8
layer0
10
1282.82648892552
20
-11.4969170510141
30
0
11
1282.09425587849
21
-15.1929116497146
31
0
0
LINE
8
layer0
10
1282.09425587849
20
-15.1929116497146
30
0
11
1136.6019880427
21
26.8070883502854
31
0
0
LINE
8
layer0
10
1134.83422108974
20
24.0078924206027
30
0
11
1136.6019880427
21
26.8070883502854
31
0
0
LINE
8
layer0
10
1136.6019880427
20
26.8070883502854
30
0
11
1282.09425587849
21
-15.1929116497146
31
0
0
LINE
8
layer0
10
1282.09425587849
20
-15.1929116497146
30
0
11
1280.32648892552
21
-17.9921075793973
31
0
0
LINE
8
layer0
10
1280.32648892552
20
-17.9921075793973
30
0
11
1134.83422108974
21
24.0078924206027
31
0
0
LINE
8
layer0
10
1133.06645413677
20
23.7452261718065
30
0
11
1134.83422108974
21
24.0078924206027
31
0
0
LINE
8
layer0
10
1134.83422108974
20
24.0078924206027
30
0
11
1280.32648892552
21
-17.9921075793973
31
0
0
LINE
8
layer0
10
1280.32648892552
20
-17.9921075793973
30
0
11
1278.55872197256
21
-18.2547738281935
31
0
0
LINE
8
layer0
10
1278.55872197256
20
-18.2547738281935
30
0
11
1133.06645413677
21
23.7452261718065
31
0
0
LINE
8
layer0
10
1132.33422108974
20
26.1729559300637
30
0
11
1133.06645413677
21
23.7452261718065
31
0
0
LINE
8
layer0
10
1133.06645413677
20
23.7452261718065
30
0
11
1278.55872197256
21
-18.2547738281935
31
0
0
LINE
8
layer0
10
1278.55872197256
20
-18.2547738281935
30
0
11
1277.82648892552
21
-15.8270440699363
31
0
0
LINE
8
layer0
10
1277.82648892552
20
-15.8270440699363
30
0
11
1132.33422108974
21
26.1729559300637
31
0
0
LINE
8
layer0
10
1133.06645413677
20
29.8689505287644
30
0
11
1132.33422108974
21
26.1729559300637
31
0
0
LINE
8
layer0
10
1132.33422108974
20
26.1729559300637
30
0
11
1277.82648892552
21
-15.8270440699363
31
0
0
LINE
8
layer0
10
1277.82648892552
20
-15.8270440699363
30
0
11
1278.55872197256
21
-12.1310494712356
31
0
0
LINE
8
layer0
10
1278.55872197256
20
-12.1310494712356
30
0
11
1133.06645413677
21
29.8689505287644
31
0
0
LINE
8
layer0
10
1134.83422108974
20
32.668146458447
30
0
11
1133.06645413677
21
29.8689505287644
31
0
0
LINE
8
layer0
10
1133.06645413677
20
29.8689505287644
30
0
11
1278.55872197256
21
-12.1310494712356
31
0
0
LINE
8
layer0
10
1278.55872197256
20
-12.1310494712356
30
0
11
1280.32648892552
21
-9.33185354155296
31
0
0
LINE
8
layer0
10
1280.32648892552
20
-9.33185354155296
30
0
11
1134.83422108974
21
32.668146458447
31
0
0
LINE
8
layer0
10
1280.32648892552
20
-9.33185354155296
30
0
11
1278.55872197256
21
-12.1310494712356
31
0
0
LINE
8
layer0
10
1278.55872197256
20
-12.1310494712356
30
0
11
1277.82648892552
21
-15.8270440699363
31
0
0
LINE
8
layer0
10
1277.82648892552
20
-15.8270440699363
30
0
11
1278.55872197256
21
-18.2547738281935
31
0
0
LINE
8
layer0
10
1278.55872197256
20
-18.2547738281935
30
0
11
1280.32648892552
21
-17.9921075793973
31
0
0
LINE
8
layer0
10
1280.32648892552
20
-17.9921075793973
30
0
11
1282.09425587849
21
-15.1929116497146
31
0
0
LINE
8
layer0
10
1282.09425587849
20
-15.1929116497146
30
0
11
1282.82648892552
21
-11.4969170510141
31
0
0
LINE
8
layer0
10
1282.82648892552
20
-11.4969170510141
30
0
11
1282.09425587849
21
-9.06918729275662
31
0
0
LINE
8
layer0
10
1282.09425587849
20
-9.06918729275662
30
0
11
1280.32648892552
21
-9.33185354155296
31
0
0
LINE
8
layer0
10
1133.06645413677
20
29.8689505287644
30
0
11
1134.83422108974
21
32.668146458447
31
0
0
LINE
8
layer0
10
1134.83422108974
20
32.668146458447
30
0
11
1136.6019880427
21
32.9308127072434
31
0
0
LINE
8
layer0
10
1136.6019880427
20
32.9308127072434
30
0
11
1137.33422108974
21
30.5030829489859
31
0
0
LINE
8
layer0
10
1137.33422108974
20
30.5030829489859
30
0
11
1136.6019880427
21
26.8070883502854
31
0
0
LINE
8
layer0
10
1136.6019880427
20
26.8070883502854
30
0
11
1134.83422108974
21
24.0078924206027
31
0
0
LINE
8
layer0
10
1134.83422108974
20
24.0078924206027
30
0
11
1133.06645413677
21
23.7452261718065
31
0
0
LINE
8
layer0
10
1133.06645413677
20
23.7452261718065
30
0
11
1132.33422108974
21
26.1729559300637
31
0
0
LINE
8
layer0
10
1132.33422108974
20
26.1729559300637
30
0
11
1133.06645413677
21
29.8689505287644
31
0
0
ENDBLK
0
BLOCK
8
layer0
2
PF_OBJECT28
70
0
10
0
20
0
30
0
0
LINE
8
layer0
10
1315.04892078986
20
-575.632340597654
30
0
11
800.629830941902
21
-427.132340597654
31
0
0
LINE
8
layer0
10
800.629830941902
20
-427.132340597654
30
0
11
800.629830941902
21
185.147619877945
31
0
0
LINE
8
layer0
10
800.629830941902
20
185.147619877945
30
0
11
1315.04892078986
21
36.6476198779446
31
0
0
LINE
8
layer0
10
1315.04892078986
20
36.6476198779446
30
0
11
1315.04892078986
21
-575.632340597654
31
0
0
LINE
8
layer0
10
790.629830941902
20
-435.792594635498
30
0
11
1305.04892078986
21
-584.292594635498
31
0
0
LINE
8
layer0
10
1305.04892078986
20
-584.292594635498
30
0
11
1305.04892078986
21
27.9873658401002
31
0
0
LINE
8
layer0
10
1305.04892078986
20
27.9873658401002
30
0
11
790.629830941902
21
176.4873658401
31
0
0
LINE
8
layer0
10
790.629830941902
20
176.4873658401
30
0
11
790.629830941902
21
-435.792594635498
31
0
0
LINE
8
layer0
10
800.629830941902
20
-427.132340597654
30
0
11
790.629830941902
21
-435.792594635498
31
0
0
LINE
8
layer0
10
790.629830941902
20
-435.792594635498
30
0
11
790.629830941902
21
176.4873658401
31
0
0
LINE
8
layer0
10
790.629830941902
20
176.4873658401
30
0
11
800.629830941902
21
185.147619877945
31
0
0
LINE
8
layer0
10
800.629830941902
20
185.147619877945
30
0
11
800.629830941902
21
-427.132340597654
31
0
0
LINE
8
layer0
10
1305.04892078986
20
-584.292594635498
30
0
11
1315.04892078986
21
-575.632340597654
31
0
0
LINE
8
layer0
10
1315.04892078986
20
-575.632340597654
30
0
11
1315.04892078986
21
36.6476198779446
31
0
0
LINE
8
layer0
10
1315.04892078986
20
36.6476198779446
30
0
11
1305.04892078986
21
27.9873658401002
31
0
0
LINE
8
layer0
10
1305.04892078986
20
27.9873658401002
30
0
11
1305.04892078986
21
-584.292594635498
31
0
0
LINE
8
layer0
10
1315.04892078986
20
36.6476198779446
30
0
11
800.629830941902
21
185.147619877945
31
0
0
LINE
8
layer0
10
800.629830941902
20
185.147619877945
30
0
11
790.629830941902
21
176.4873658401
31
0
0
LINE
8
layer0
10
790.629830941902
20
176.4873658401
30
0
11
1305.04892078986
21
27.9873658401002
31
0
0
LINE
8
layer0
10
1305.04892078986
20
27.9873658401002
30
0
11
1315.04892078986
21
36.6476198779446
31
0
0
LINE
8
layer0
10
800.629830941902
20
-427.132340597654
30
0
11
1315.04892078986
21
-575.632340597654
31
0
0
LINE
8
layer0
10
1315.04892078986
20
-575.632340597654
30
0
11
1305.04892078986
21
-584.292594635498
31
0
0
LINE
8
layer0
10
1305.04892078986
20
-584.292594635498
30
0
11
790.629830941902
21
-435.792594635498
31
0
0
LINE
8
layer0
10
790.629830941902
20
-435.792594635498
30
0
11
800.629830941902
21
-427.132340597654
31
0
0
ENDBLK
0
BLOCK
8
layer0
2
PF_OBJECT29
70
0
10
0
20
0
30
0
0
LINE
8
layer0
10
1110.47404107115
20
-378.301270189222
30
0
11
1075.83302491977
21
-368.301270189222
31
0
0
LINE
8
layer0
10
1075.83302491977
20
-368.301270189222
30
0
11
1075.83302491977
21
-238.397459621556
31
0
0
LINE
8
layer0
10
1075.83302491977
20
-238.397459621556
30
0
11
1110.47404107115
21
-248.397459621556
31
0
0
LINE
8
layer0
10
1110.47404107115
20
-248.397459621556
30
0
11
1110.47404107115
21
-378.301270189222
31
0
0
LINE
8
layer0
10
1055.83302491977
20
-385.621778264911
30
0
11
1090.47404107115
21
-395.621778264911
31
0
0
LINE
8
layer0
10
1090.47404107115
20
-395.621778264911
30
0
11
1090.47404107115
21
-265.717967697245
31
0
0
LINE
8
layer0
10
1090.47404107115
20
-265.717967697245
30
0
11
1055.83302491977
21
-255.717967697245
31
0
0
LINE
8
layer0
10
1055.83302491977
20
-255.717967697245
30
0
11
1055.83302491977
21
-385.621778264911
31
0
0
LINE
8
layer0
10
1075.83302491977
20
-368.301270189222
30
0
11
1055.83302491977
21
-385.621778264911
31
0
0
LINE
8
layer0
10
1055.83302491977
20
-385.621778264911
30
0
11
1055.83302491977
21
-255.717967697245
31
0
0
LINE
8
layer0
10
1055.83302491977
20
-255.717967697245
30
0
11
1075.83302491977
21
-238.397459621556
31
0
0
LINE
8
layer0
10
1075.83302491977
20
-238.397459621556
30
0
11
1075.83302491977
21
-368.301270189222
31
0
0
LINE
8
layer0
10
1090.47404107115
20
-395.621778264911
30
0
11
1110.47404107115
21
-378.301270189222
31
0
0
LINE
8
layer0
10
1110.47404107115
20
-378.301270189222
30
0
11
1110.47404107115
21
-248.397459621556
31
0
0
LINE
8
layer0
10
1110.47404107115
20
-248.397459621556
30
0
11
1090.47404107115
21
-265.717967697245
31
0
0
LINE
8
layer0
10
1090.47404107115
20
-265.717967697245
30
0
11
1090.47404107115
21
-395.621778264911
31
0
0
LINE
8
layer0
10
1110.47404107115
20
-248.397459621556
30
0
11
1075.83302491977
21
-238.397459621556
31
0
0
LINE
8
layer0
10
1075.83302491977
20
-238.397459621556
30
0
11
1055.83302491977
21
-255.717967697245
31
0
0
LINE
8
layer0
10
1055.83302491977
20
-255.717967697245
30
0
11
1090.47404107115
21
-265.717967697245
31
0
0
LINE
8
layer0
10
1090.47404107115
20
-265.717967697245
30
0
11
1110.47404107115
21
-248.397459621556
31
0
0
LINE
8
layer0
10
1075.83302491977
20
-368.301270189222
30
0
11
1110.47404107115
21
-378.301270189222
31
0
0
LINE
8
layer0
10
1110.47404107115
20
-378.301270189222
30
0
11
1090.47404107115
21
-395.621778264911
31
0
0
LINE
8
layer0
10
1090.47404107115
20
-395.621778264911
30
0
11
1055.83302491977
21
-385.621778264911
31
0
0
LINE
8
layer0
10
1055.83302491977
20
-385.621778264911
30
0
11
1075.83302491977
21
-368.301270189222
31
0
0
ENDBLK
0
BLOCK
8
layer0
2
PF_OBJECT30
70
0
10
0
20
0
30
0
0
LINE
8
layer0
10
952.474041071148
20
-515.133283987163
30
0
11
917.83302491977
21
-505.133283987163
31
0
0
LINE
8
layer0
10
917.83302491977
20
-505.133283987163
30
0
11
917.83302491977
21
-375.229473419497
31
0
0
LINE
8
layer0
10
917.83302491977
20
-375.229473419497
30
0
11
952.474041071148
21
-385.229473419497
31
0
0
LINE
8
layer0
10
952.474041071148
20
-385.229473419497
30
0
11
952.474041071148
21
-515.133283987163
31
0
0
LINE
8
layer0
10
897.83302491977
20
-522.453792062852
30
0
11
932.474041071148
21
-532.453792062852
31
0
0
LINE
8
layer0
10
932.474041071148
20
-532.453792062852
30
0
11
932.474041071148
21
-402.549981495186
31
0
0
LINE
8
layer0
10
932.474041071148
20
-402.549981495186
30
0
11
897.83302491977
21
-392.549981495186
31
0
0
LINE
8
layer0
10
897.83302491977
20
-392.549981495186
30
0
11
897.83302491977
21
-522.453792062852
31
0
0
LINE
8
layer0
10
917.83302491977
20
-505.133283987163
30
0
11
897.83302491977
21
-522.453792062852
31
0
0
LINE
8
layer0
10
897.83302491977
20
-522.453792062852
30
0
11
897.83302491977
21
-392.549981495186
31
0
0
LINE
8
layer0
10
897.83302491977
20
-392.549981495186
30
0
11
917.83302491977
21
-375.229473419497
31
0
0
LINE
8
layer0
10
917.83302491977
20
-375.229473419497
30
0
11
917.83302491977
21
-505.133283987163
31
0
0
LINE
8
layer0
10
932.474041071148
20
-532.453792062852
30
0
11
952.474041071148
21
-515.133283987163
31
0
0
LINE
8
layer0
10
952.474041071148
20
-515.133283987163
30
0
11
952.474041071148
21
-385.229473419497
31
0
0
LINE
8
layer0
10
952.474041071148
20
-385.229473419497
30
0
11
932.474041071148
21
-402.549981495186
31
0
0
LINE
8
layer0
10
932.474041071148
20
-402.549981495186
30
0
11
932.474041071148
21
-532.453792062852
31
0
0
LINE
8
layer0
10
952.474041071148
20
-385.229473419497
30
0
11
917.83302491977
21
-375.229473419497
31
0
0
LINE
8
layer0
10
917.83302491977
20
-375.229473419497
30
0
11
897.83302491977
21
-392.549981495186
31
0
0
LINE
8
layer0
10
897.83302491977
20
-392.549981495186
30
0
11
932.474041071148
21
-402.549981495186
31
0
0
LINE
8
layer0
10
932.474041071148
20
-402.549981495186
30
0
11
952.474041071148
21
-385.229473419497
31
0
0
LINE
8
layer0
10
917.83302491977
20
-505.133283987163
30
0
11
952.474041071148
21
-515.133283987163
31
0
0
LINE
8
layer0
10
952.474041071148
20
-515.133283987163
30
0
11
932.474041071148
21
-532.453792062852
31
0
0
LINE
8
layer0
10
932.474041071148
20
-532.453792062852
30
0
11
897.83302491977
21
-522.453792062852
31
0
0
LINE
8
layer0
10
897.83302491977
20
-522.453792062852
30
0
11
917.83302491977
21
-505.133283987163
31
0
0
ENDBLK
0
BLOCK
8
layer0
2
PF_OBJECT31
70
0
10
0
20
0
30
0
0
LINE
8
layer0
10
1508.84572681199
20
-493.301270189222
30
0
11
1474.20471066061
21
-483.301270189222
31
0
0
LINE
8
layer0
10
1474.20471066061
20
-483.301270189222
30
0
11
1474.20471066061
21
-353.397459621556
31
0
0
LINE
8
layer0
10
1474.20471066061
20
-353.397459621556
30
0
11
1508.84572681199
21
-363.397459621556
31
0
0
LINE
8
layer0
10
1508.84572681199
20
-363.397459621556
30
0
11
1508.84572681199
21
-493.301270189222
31
0
0
LINE
8
layer0
10
1454.20471066061
20
-500.621778264911
30
0
11
1488.84572681199
21
-510.621778264911
31
0
0
LINE
8
layer0
10
1488.84572681199
20
-510.621778264911
30
0
11
1488.84572681199
21
-380.717967697245
31
0
0
LINE
8
layer0
10
1488.84572681199
20
-380.717967697245
30
0
11
1454.20471066061
21
-370.717967697245
31
0
0
LINE
8
layer0
10
1454.20471066061
20
-370.717967697245
30
0
11
1454.20471066061
21
-500.621778264911
31
0
0
LINE
8
layer0
10
1474.20471066061
20
-483.301270189222
30
0
11
1454.20471066061
21
-500.621778264911
31
0
0
LINE
8
layer0
10
1454.20471066061
20
-500.621778264911
30
0
11
1454.20471066061
21
-370.717967697245
31
0
0
LINE
8
layer0
10
1454.20471066061
20
-370.717967697245
30
0
11
1474.20471066061
21
-353.397459621556
31
0
0
LINE
8
layer0
10
1474.20471066061
20
-353.397459621556
30
0
11
1474.20471066061
21
-483.301270189222
31
0
0
LINE
8
layer0
10
1488.84572681199
20
-510.621778264911
30
0
11
1508.84572681199
21
-493.301270189222
31
0
0
LINE
8
layer0
10
1508.84572681199
20
-493.301270189222
30
0
11
1508.84572681199
21
-363.397459621556
31
0
0
LINE
8
layer0
10
1508.84572681199
20
-363.397459621556
30
0
11
1488.84572681199
21
-380.717967697245
31
0
0
LINE
8
layer0
10
1488.84572681199
20
-380.717967697245
30
0
11
1488.84572681199
21
-510.621778264911
31
0
0
LINE
8
layer0
10
1508.84572681199
20
-363.397459621556
30
0
11
1474.20471066061
21
-353.397459621556
31
0
0
LINE
8
layer0
10
1474.20471066061
20
-353.397459621556
30
0
11
1454.20471066061
21
-370.717967697245
31
0
0
LINE
8
layer0
10
1454.20471066061
20
-370.717967697245
30
0
11
1488.84572681199
21
-380.717967697245
31
0
0
LINE
8
layer0
10
1488.84572681199
20
-380.717967697245
30
0
11
1508.84572681199
21
-363.397459621556
31
0
0
LINE
8
layer0
10
1474.20471066061
20
-483.301270189222
30
0
11
1508.84572681199
21
-493.301270189222
31
0
0
LINE
8
layer0
10
1508.84572681199
20
-493.301270189222
30
0
11
1488.84572681199
21
-510.621778264911
31
0
0
LINE
8
layer0
10
1488.84572681199
20
-510.621778264911
30
0
11
1454.20471066061
21
-500.621778264911
31
0
0
LINE
8
layer0
10
1454.20471066061
20
-500.621778264911
30
0
11
1474.20471066061
21
-483.301270189222
31
0
0
ENDBLK
0
BLOCK
8
layer0
2
PF_OBJECT32
70
0
10
0
20
0
30
0
0
LINE
8
layer0
10
1350.84572681199
20
-630.133283987163
30
0
11
1316.20471066061
21
-620.133283987163
31
0
0
LINE
8
layer0
10
1316.20471066061
20
-620.133283987163
30
0
11
1316.20471066061
21
-490.229473419497
31
0
0
LINE
8
layer0
10
1316.20471066061
20
-490.229473419497
30
0
11
1350.84572681199
21
-500.229473419497
31
0
0
LINE
8
layer0
10
1350.84572681199
20
-500.229473419497
30
0
11
1350.84572681199
21
-630.133283987163
31
0
0
LINE
8
layer0
10
1296.20471066061
20
-637.453792062852
30
0
11
1330.84572681199
21
-647.453792062852
31
0
0
LINE
8
layer0
10
1330.84572681199
20
-647.453792062852
30
0
11
1330.84572681199
21
-517.549981495186
31
0
0
LINE
8
layer0
10
1330.84572681199
20
-517.549981495186
30
0
11
1296.20471066061
21
-507.549981495186
31
0
0
LINE
8
layer0
10
1296.20471066061
20
-507.549981495186
30
0
11
1296.20471066061
21
-637.453792062852
31
0
0
LINE
8
layer0
10
1316.20471066061
20
-620.133283987163
30
0
11
1296.20471066061
21
-637.453792062852
31
0
0
LINE
8
layer0
10
1296.20471066061
20
-637.453792062852
30
0
11
1296.20471066061
21
-507.549981495186
31
0
0
LINE
8
layer0
10
1296.20471066061
20
-507.549981495186
30
0
11
1316.20471066061
21
-490.229473419497
31
0
0
LINE
8
layer0
10
1316.20471066061
20
-490.229473419497
30
0
11
1316.20471066061
21
-620.133283987163
31
0
0
LINE
8
layer0
10
1330.84572681199
20
-647.453792062852
30
0
11
1350.84572681199
21
-630.133283987163
31
0
0
LINE
8
layer0
10
1350.84572681199
20
-630.133283987163
30
0
11
1350.84572681199
21
-500.229473419497
31
0
0
LINE
8
layer0
10
1350.84572681199
20
-500.229473419497
30
0
11
1330.84572681199
21
-517.549981495186
31
0
0
LINE
8
layer0
10
1330.84572681199
20
-517.549981495186
30
0
11
1330.84572681199
21
-647.453792062852
31
0
0
LINE
8
layer0
10
1350.84572681199
20
-500.229473419497
30
0
11
1316.20471066061
21
-490.229473419497
31
0
0
LINE
8
layer0
10
1316.20471066061
20
-490.229473419497
30
0
11
1296.20471066061
21
-507.549981495186
31
0
0
LINE
8
layer0
10
1296.20471066061
20
-507.549981495186
30
0
11
1330.84572681199
21
-517.549981495186
31
0
0
LINE
8
layer0
10
1330.84572681199
20
-517.549981495186
30
0
11
1350.84572681199
21
-500.229473419497
31
0
0
LINE
8
layer0
10
1316.20471066061
20
-620.133283987163
30
0
11
1350.84572681199
21
-630.133283987163
31
0
0
LINE
8
layer0
10
1350.84572681199
20
-630.133283987163
30
0
11
1330.84572681199
21
-647.453792062852
31
0
0
LINE
8
layer0
10
1330.84572681199
20
-647.453792062852
30
0
11
1296.20471066061
21
-637.453792062852
31
0
0
LINE
8
layer0
10
1296.20471066061
20
-637.453792062852
30
0
11
1316.20471066061
21
-620.133283987163
31
0
0
ENDBLK
0
BLOCK
8
layer0
70
0
10
0
20
0
30
0
2
PF_SKETCH33
0
LINE
8
layer0
10
1035.36508806388
20
400.094569747296
30
0
11
988.198421397215
21
359.24703820213
31
0
0
ENDBLK
0
BLOCK
8
layer0
70
0
10
0
20
0
30
0
2
PF_SKETCH34
0
LINE
8
layer0
10
1554.98033033454
20
250.094569747296
30
0
11
1507.81366366788
21
209.24703820213
31
0
0
ENDBLK
0
BLOCK
8
layer0
70
0
10
0
20
0
30
0
2
PF_SKETCH35
0
LINE
8
layer0
10
941.031754730548
20
318.399506656964
30
0
11
893.865088063882
21
277.551975111798
31
0
0
ENDBLK
0
BLOCK
8
layer0
70
0
10
0
20
0
30
0
2
PF_SKETCH36
0
LINE
8
layer0
10
1460.64699700121
20
168.399506656964
30
0
11
1413.48033033454
21
127.551975111798
31
0
0
ENDBLK
0
BLOCK
8
layer0
70
0
10
0
20
0
30
0
2
PF_SKETCH37
0
LINE
8
layer0
10
846.698421397215
20
236.704443566632
30
0
11
799.531754730548
21
195.856912021466
31
0
0
ENDBLK
0
BLOCK
8
layer0
70
0
10
0
20
0
30
0
2
PF_SKETCH38
0
LINE
8
layer0
10
1366.31366366788
20
86.7044435666316
30
0
11
1319.14699700121
21
45.8569120214656
31
0
0
ENDBLK
0
BLOCK
8
layer0
2
PF_OBJECT39
70
0
10
0
20
0
30
0
0
LINE
8
layer0
10
2123.92206815095
20
-611.391438084799
30
0
11
1830.92206815095
21
-865.13688139364
31
0
0
LINE
8
layer0
10
1830.92206815095
20
-865.13688139364
30
0
11
1830.92206815095
21
-111.694780101178
31
0
0
LINE
8
layer0
10
1830.92206815095
20
-111.694780101178
30
0
11
2123.92206815095
21
142.050663207662
31
0
0
LINE
8
layer0
10
2123.92206815095
20
142.050663207662
30
0
11
2123.92206815095
21
-611.391438084799
31
0
0
LINE
8
layer0
10
1844.11864573243
20
-868.946405203164
30
0
11
2137.11864573243
21
-615.200961894323
31
0
0
LINE
8
layer0
10
2137.11864573243
20
-615.200961894323
30
0
11
2137.11864573243
21
138.241139398138
31
0
0
LINE
8
layer0
10
2137.11864573243
20
138.241139398138
30
0
11
1844.11864573243
21
-115.504303910702
31
0
0
LINE
8
layer0
10
1844.11864573243
20
-115.504303910702
30
0
11
1844.11864573243
21
-868.946405203164
31
0
0
LINE
8
layer0
10
1830.92206815095
20
-865.13688139364
30
0
11
1844.11864573243
21
-868.946405203164
31
0
0
LINE
8
layer0
10
1844.11864573243
20
-868.946405203164
30
0
11
1844.11864573243
21
-115.504303910702
31
0
0
LINE
8
layer0
10
1844.11864573243
20
-115.504303910702
30
0
11
1830.92206815095
21
-111.694780101178
31
0
0
LINE
8
layer0
10
1830.92206815095
20
-111.694780101178
30
0
11
1830.92206815095
21
-865.13688139364
31
0
0
LINE
8
layer0
10
2137.11864573243
20
-615.200961894323
30
0
11
2123.92206815095
21
-611.391438084799
31
0
0
LINE
8
layer0
10
2123.92206815095
20
-611.391438084799
30
0
11
2123.92206815095
21
142.050663207662
31
0
0
LINE
8
layer0
10
2123.92206815095
20
142.050663207662
30
0
11
2137.11864573243
21
138.241139398138
31
0
0
LINE
8
layer0
10
2137.11864573243
20
138.241139398138
30
0
11
2137.11864573243
21
-615.200961894323
31
0
0
LINE
8
layer0
10
2123.92206815095
20
142.050663207662
30
0
11
1830.92206815095
21
-111.694780101178
31
0
0
LINE
8
layer0
10
1830.92206815095
20
-111.694780101178
30
0
11
1844.11864573243
21
-115.504303910702
31
0
0
LINE
8
layer0
10
1844.11864573243
20
-115.504303910702
30
0
11
2137.11864573243
21
138.241139398138
31
0
0
LINE
8
layer0
10
2137.11864573243
20
138.241139398138
30
0
11
2123.92206815095
21
142.050663207662
31
0
0
LINE
8
layer0
10
1830.92206815095
20
-865.13688139364
30
0
11
2123.92206815095
21
-611.391438084799
31
0
0
LINE
8
layer0
10
2123.92206815095
20
-611.391438084799
30
0
11
2137.11864573243
21
-615.200961894323
31
0
0
LINE
8
layer0
10
2137.11864573243
20
-615.200961894323
30
0
11
1844.11864573243
21
-868.946405203164
31
0
0
LINE
8
layer0
10
1844.11864573243
20
-868.946405203164
30
0
11
1830.92206815095
21
-865.13688139364
31
0
0
ENDBLK
0
BLOCK
8
layer0
2
PF_OBJECT40
70
0
10
0
20
0
30
0
0
LINE
8
layer0
10
576.772918920436
20
1071.91632741175
30
0
11
562.916512459885
21
1075.91632741175
31
0
0
LINE
8
layer0
10
562.916512459885
20
1075.91632741175
30
0
11
562.916512459885
21
1693.39244031005
31
0
0
LINE
8
layer0
10
562.916512459885
20
1693.39244031005
30
0
11
576.772918920436
21
1689.39244031005
31
0
0
LINE
8
layer0
10
576.772918920436
20
1689.39244031005
30
0
11
576.772918920436
21
1071.91632741175
31
0
0
LINE
8
layer0
10
402.416512459885
20
936.919250104345
30
0
11
416.272918920436
21
932.919250104345
31
0
0
LINE
8
layer0
10
416.272918920436
20
932.919250104345
30
0
11
416.272918920436
21
1550.39536300265
31
0
0
LINE
8
layer0
10
416.272918920436
20
1550.39536300265
30
0
11
402.416512459885
21
1554.39536300265
31
0
0
LINE
8
layer0
10
402.416512459885
20
1554.39536300265
30
0
11
402.416512459885
21
936.919250104345
31
0
0
LINE
8
layer0
10
562.916512459885
20
1075.91632741175
30
0
11
402.416512459885
21
936.919250104345
31
0
0
LINE
8
layer0
10
402.416512459885
20
936.919250104345
30
0
11
402.416512459885
21
1554.39536300265
31
0
0
LINE
8
layer0
10
402.416512459885
20
1554.39536300265
30
0
11
562.916512459885
21
1693.39244031005
31
0
0
LINE
8
layer0
10
562.916512459885
20
1693.39244031005
30
0
11
562.916512459885
21
1075.91632741175
31
0
0
LINE
8
layer0
10
416.272918920436
20
932.919250104345
30
0
11
576.772918920436
21
1071.91632741175
31
0
0
LINE
8
layer0
10
576.772918920436
20
1071.91632741175
30
0
11
576.772918920436
21
1689.39244031005
31
0
0
LINE
8
layer0
10
576.772918920436
20
1689.39244031005
30
0
11
416.272918920436
21
1550.39536300265
31
0
0
LINE
8
layer0
10
416.272918920436
20
1550.39536300265
30
0
11
416.272918920436
21
932.919250104345
31
0
0
LINE
8
layer0
10
576.772918920436
20
1689.39244031005
30
0
11
562.916512459885
21
1693.39244031005
31
0
0
LINE
8
layer0
10
562.916512459885
20
1693.39244031005
30
0
11
402.416512459885
21
1554.39536300265
31
0
0
LINE
8
layer0
10
402.416512459885
20
1554.39536300265
30
0
11
416.272918920436
21
1550.39536300265
31
0
0
LINE
8
layer0
10
416.272918920436
20
1550.39536300265
30
0
11
576.772918920436
21
1689.39244031005
31
0
0
LINE
8
layer0
10
562.916512459885
20
1075.91632741175
30
0
11
576.772918920436
21
1071.91632741175
31
0
0
LINE
8
layer0
10
576.772918920436
20
1071.91632741175
30
0
11
416.272918920436
21
932.919250104345
31
0
0
LINE
8
layer0
10
416.272918920436
20
932.919250104345
30
0
11
402.416512459885
21
936.919250104345
31
0
0
LINE
8
layer0
10
402.416512459885
20
936.919250104345
30
0
11
562.916512459885
21
1075.91632741175
31
0
0
ENDBLK
0
BLOCK
8
layer0
2
PF_OBJECT41
70
0
10
0
20
0
30
0
0
LINE
8
layer0
10
1082.53175473055
20
925.916327411747
30
0
11
1068.67534827
21
929.916327411747
31
0
0
LINE
8
layer0
10
1068.67534827
20
929.916327411747
30
0
11
1068.67534827
21
1547.39244031005
31
0
0
LINE
8
layer0
10
1068.67534827
20
1547.39244031005
30
0
11
1082.53175473055
21
1543.39244031005
31
0
0
LINE
8
layer0
10
1082.53175473055
20
1543.39244031005
30
0
11
1082.53175473055
21
925.916327411747
31
0
0
LINE
8
layer0
10
908.175348269997
20
790.919250104345
30
0
11
922.031754730548
21
786.919250104345
31
0
0
LINE
8
layer0
10
922.031754730548
20
786.919250104345
30
0
11
922.031754730548
21
1404.39536300265
31
0
0
LINE
8
layer0
10
922.031754730548
20
1404.39536300265
30
0
11
908.175348269997
21
1408.39536300265
31
0
0
LINE
8
layer0
10
908.175348269997
20
1408.39536300265
30
0
11
908.175348269997
21
790.919250104345
31
0
0
LINE
8
layer0
10
1068.67534827
20
929.916327411747
30
0
11
908.175348269997
21
790.919250104345
31
0
0
LINE
8
layer0
10
908.175348269997
20
790.919250104345
30
0
11
908.175348269997
21
1408.39536300265
31
0
0
LINE
8
layer0
10
908.175348269997
20
1408.39536300265
30
0
11
1068.67534827
21
1547.39244031005
31
0
0
LINE
8
layer0
10
1068.67534827
20
1547.39244031005
30
0
11
1068.67534827
21
929.916327411747
31
0
0
LINE
8
layer0
10
922.031754730548
20
786.919250104345
30
0
11
1082.53175473055
21
925.916327411747
31
0
0
LINE
8
layer0
10
1082.53175473055
20
925.916327411747
30
0
11
1082.53175473055
21
1543.39244031005
31
0
0
LINE
8
layer0
10
1082.53175473055
20
1543.39244031005
30
0
11
922.031754730548
21
1404.39536300265
31
0
0
LINE
8
layer0
10
922.031754730548
20
1404.39536300265
30
0
11
922.031754730548
21
786.919250104345
31
0
0
LINE
8
layer0
10
1082.53175473055
20
1543.39244031005
30
0
11
1068.67534827
21
1547.39244031005
31
0
0
LINE
8
layer0
10
1068.67534827
20
1547.39244031005
30
0
11
908.175348269997
21
1408.39536300265
31
0
0
LINE
8
layer0
10
908.175348269997
20
1408.39536300265
30
0
11
922.031754730548
21
1404.39536300265
31
0
0
LINE
8
layer0
10
922.031754730548
20
1404.39536300265
30
0
11
1082.53175473055
21
1543.39244031005
31
0
0
LINE
8
layer0
10
1068.67534827
20
929.916327411747
30
0
11
1082.53175473055
21
925.916327411747
31
0
0
LINE
8
layer0
10
1082.53175473055
20
925.916327411747
30
0
11
922.031754730548
21
786.919250104345
31
0
0
LINE
8
layer0
10
922.031754730548
20
786.919250104345
30
0
11
908.175348269997
21
790.919250104345
31
0
0
LINE
8
layer0
10
908.175348269997
20
790.919250104345
30
0
11
1068.67534827
21
929.916327411747
31
0
0
ENDBLK
0
BLOCK
8
layer0
2
PF_OBJECT42
70
0
10
0
20
0
30
0
0
LINE
8
layer0
10
1056.67534827
20
919.524022566334
30
0
11
564.772918920436
21
1061.52402256633
31
0
0
LINE
8
layer0
10
564.772918920436
20
1061.52402256633
30
0
11
564.772918920436
21
1075.38042902688
31
0
0
LINE
8
layer0
10
564.772918920436
20
1075.38042902688
30
0
11
1056.67534827
21
933.380429026885
31
0
0
LINE
8
layer0
10
1056.67534827
20
933.380429026885
30
0
11
1056.67534827
21
919.524022566334
31
0
0
LINE
8
layer0
10
416.772918920436
20
933.352262806237
30
0
11
908.675348269997
21
791.352262806237
31
0
0
LINE
8
layer0
10
908.675348269997
20
791.352262806237
30
0
11
908.675348269997
21
805.208669266788
31
0
0
LINE
8
layer0
10
908.675348269997
20
805.208669266788
30
0
11
416.772918920436
21
947.208669266788
31
0
0
LINE
8
layer0
10
416.772918920436
20
947.208669266788
30
0
11
416.772918920436
21
933.352262806237
31
0
0
LINE
8
layer0
10
564.772918920436
20
1061.52402256633
30
0
11
416.772918920436
21
933.352262806237
31
0
0
LINE
8
layer0
10
416.772918920436
20
933.352262806237
30
0
11
416.772918920436
21
947.208669266788
31
0
0
LINE
8
layer0
10
416.772918920436
20
947.208669266788
30
0
11
564.772918920436
21
1075.38042902688
31
0
0
LINE
8
layer0
10
564.772918920436
20
1075.38042902688
30
0
11
564.772918920436
21
1061.52402256633
31
0
0
LINE
8
layer0
10
908.675348269997
20
791.352262806237
30
0
11
1056.67534827
21
919.524022566334
31
0
0
LINE
8
layer0
10
1056.67534827
20
919.524022566334
30
0
11
1056.67534827
21
933.380429026885
31
0
0
LINE
8
layer0
10
1056.67534827
20
933.380429026885
30
0
11
908.675348269997
21
805.208669266788
31
0
0
LINE
8
layer0
10
908.675348269997
20
805.208669266788
30
0
11
908.675348269997
21
791.352262806237
31
0
0
LINE
8
layer0
10
1056.67534827
20
933.380429026885
30
0
11
564.772918920436
21
1075.38042902688
31
0
0
LINE
8
layer0
10
564.772918920436
20
1075.38042902688
30
0
11
416.772918920436
21
947.208669266788
31
0
0
LINE
8
layer0
10
416.772918920436
20
947.208669266788
30
0
11
908.675348269997
21
805.208669266788
31
0
0
LINE
8
layer0
10
908.675348269997
20
805.208669266788
30
0
11
1056.67534827
21
933.380429026885
31
0
0
LINE
8
layer0
10
564.772918920436
20
1061.52402256633
30
0
11
1056.67534827
21
919.524022566334
31
0
0
LINE
8
layer0
10
1056.67534827
20
919.524022566334
30
0
11
908.675348269997
21
791.352262806237
31
0
0
LINE
8
layer0
10
908.675348269997
20
791.352262806237
30
0
11
416.772918920436
21
933.352262806237
31
0
0
LINE
8
layer0
10
416.772918920436
20
933.352262806237
30
0
11
564.772918920436
21
1061.52402256633
31
0
0
ENDBLK
0
BLOCK
8
layer0
2
PF_OBJECT43
70
0
10
0
20
0
30
0
0
LINE
8
layer0
10
1058.67534827
20
921.256073373903
30
0
11
566.772918920436
21
1063.2560733739
31
0
0
LINE
8
layer0
10
566.772918920436
20
1063.2560733739
30
0
11
566.772918920436
21
1680.73218627221
31
0
0
LINE
8
layer0
10
566.772918920436
20
1680.73218627221
30
0
11
1058.67534827
21
1538.73218627221
31
0
0
LINE
8
layer0
10
1058.67534827
20
1538.73218627221
30
0
11
1058.67534827
21
921.256073373903
31
0
0
LINE
8
layer0
10
564.772918920436
20
1061.52402256633
30
0
11
1056.67534827
21
919.524022566334
31
0
0
LINE
8
layer0
10
1056.67534827
20
919.524022566334
30
0
11
1056.67534827
21
1537.00013546464
31
0
0
LINE
8
layer0
10
1056.67534827
20
1537.00013546464
30
0
11
564.772918920436
21
1679.00013546464
31
0
0
LINE
8
layer0
10
564.772918920436
20
1679.00013546464
30
0
11
564.772918920436
21
1061.52402256633
31
0
0
LINE
8
layer0
10
566.772918920436
20
1063.2560733739
30
0
11
564.772918920436
21
1061.52402256633
31
0
0
LINE
8
layer0
10
564.772918920436
20
1061.52402256633
30
0
11
564.772918920436
21
1679.00013546464
31
0
0
LINE
8
layer0
10
564.772918920436
20
1679.00013546464
30
0
11
566.772918920436
21
1680.73218627221
31
0
0
LINE
8
layer0
10
566.772918920436
20
1680.73218627221
30
0
11
566.772918920436
21
1063.2560733739
31
0
0
LINE
8
layer0
10
1056.67534827
20
919.524022566334
30
0
11
1058.67534827
21
921.256073373903
31
0
0
LINE
8
layer0
10
1058.67534827
20
921.256073373903
30
0
11
1058.67534827
21
1538.73218627221
31
0
0
LINE
8
layer0
10
1058.67534827
20
1538.73218627221
30
0
11
1056.67534827
21
1537.00013546464
31
0
0
LINE
8
layer0
10
1056.67534827
20
1537.00013546464
30
0
11
1056.67534827
21
919.524022566334
31
0
0
LINE
8
layer0
10
1058.67534827
20
1538.73218627221
30
0
11
566.772918920436
21
1680.73218627221
31
0
0
LINE
8
layer0
10
566.772918920436
20
1680.73218627221
30
0
11
564.772918920436
21
1679.00013546464
31
0
0
LINE
8
layer0
10
564.772918920436
20
1679.00013546464
30
0
11
1056.67534827
21
1537.00013546464
31
0
0
LINE
8
layer0
10
1056.67534827
20
1537.00013546464
30
0
11
1058.67534827
21
1538.73218627221
31
0
0
LINE
8
layer0
10
566.772918920436
20
1063.2560733739
30
0
11
1058.67534827
21
921.256073373903
31
0
0
LINE
8
layer0
10
1058.67534827
20
921.256073373903
30
0
11
1056.67534827
21
919.524022566334
31
0
0
LINE
8
layer0
10
1056.67534827
20
919.524022566334
30
0
11
564.772918920436
21
1061.52402256633
31
0
0
LINE
8
layer0
10
564.772918920436
20
1061.52402256633
30
0
11
566.772918920436
21
1063.2560733739
31
0
0
ENDBLK
0
BLOCK
8
layer0
2
PF_OBJECT44
70
0
10
0
20
0
30
0
0
LINE
8
layer0
10
1056.67534827
20
1523.14372900409
30
0
11
564.772918920436
21
1665.14372900409
31
0
0
LINE
8
layer0
10
564.772918920436
20
1665.14372900409
30
0
11
564.772918920436
21
1679.00013546464
31
0
0
LINE
8
layer0
10
564.772918920436
20
1679.00013546464
30
0
11
1056.67534827
21
1537.00013546464
31
0
0
LINE
8
layer0
10
1056.67534827
20
1537.00013546464
30
0
11
1056.67534827
21
1523.14372900409
31
0
0
LINE
8
layer0
10
416.772918920436
20
1536.97196924399
30
0
11
908.675348269997
21
1394.97196924399
31
0
0
LINE
8
layer0
10
908.675348269997
20
1394.97196924399
30
0
11
908.675348269997
21
1408.82837570454
31
0
0
LINE
8
layer0
10
908.675348269997
20
1408.82837570454
30
0
11
416.772918920436
21
1550.82837570454
31
0
0
LINE
8
layer0
10
416.772918920436
20
1550.82837570454
30
0
11
416.772918920436
21
1536.97196924399
31
0
0
LINE
8
layer0
10
564.772918920436
20
1665.14372900409
30
0
11
416.772918920436
21
1536.97196924399
31
0
0
LINE
8
layer0
10
416.772918920436
20
1536.97196924399
30
0
11
416.772918920436
21
1550.82837570454
31
0
0
LINE
8
layer0
10
416.772918920436
20
1550.82837570454
30
0
11
564.772918920436
21
1679.00013546464
31
0
0
LINE
8
layer0
10
564.772918920436
20
1679.00013546464
30
0
11
564.772918920436
21
1665.14372900409
31
0
0
LINE
8
layer0
10
908.675348269997
20
1394.97196924399
30
0
11
1056.67534827
21
1523.14372900409
31
0
0
LINE
8
layer0
10
1056.67534827
20
1523.14372900409
30
0
11
1056.67534827
21
1537.00013546464
31
0
0
LINE
8
layer0
10
1056.67534827
20
1537.00013546464
30
0
11
908.675348269997
21
1408.82837570454
31
0
0
LINE
8
layer0
10
908.675348269997
20
1408.82837570454
30
0
11
908.675348269997
21
1394.97196924399
31
0
0
LINE
8
layer0
10
1056.67534827
20
1537.00013546464
30
0
11
564.772918920436
21
1679.00013546464
31
0
0
LINE
8
layer0
10
564.772918920436
20
1679.00013546464
30
0
11
416.772918920436
21
1550.82837570454
31
0
0
LINE
8
layer0
10
416.772918920436
20
1550.82837570454
30
0
11
908.675348269997
21
1408.82837570454
31
0
0
LINE
8
layer0
10
908.675348269997
20
1408.82837570454
30
0
11
1056.67534827
21
1537.00013546464
31
0
0
LINE
8
layer0
10
564.772918920436
20
1665.14372900409
30
0
11
1056.67534827
21
1523.14372900409
31
0
0
LINE
8
layer0
10
1056.67534827
20
1523.14372900409
30
0
11
908.675348269997
21
1394.97196924399
31
0
0
LINE
8
layer0
10
908.675348269997
20
1394.97196924399
30
0
11
416.772918920436
21
1536.97196924399
31
0
0
LINE
8
layer0
10
416.772918920436
20
1536.97196924399
30
0
11
564.772918920436
21
1665.14372900409
31
0
0
ENDBLK
0
BLOCK
8
layer0
2
PF_OBJECT45
70
0
10
0
20
0
30
0
0
LINE
8
layer0
10
768.101349073242
20
860.975105236904
30
0
11
765.039486894763
21
863.12725355383
31
0
0
LINE
8
layer0
10
765.039486894763
20
863.12725355383
30
0
11
755.039486894763
21
854.466999515986
31
0
0
LINE
8
layer0
10
755.039486894763
20
854.466999515986
30
0
11
758.101349073242
21
852.314851199059
31
0
0
LINE
8
layer0
10
758.101349073242
20
852.314851199059
30
0
11
768.101349073242
21
860.975105236904
31
0
0
LINE
8
layer0
10
769.369613913685
20
857.547126534908
30
0
11
768.101349073242
21
860.975105236904
31
0
0
LINE
8
layer0
10
768.101349073242
20
860.975105236904
30
0
11
758.101349073242
21
852.314851199059
31
0
0
LINE
8
layer0
10
758.101349073242
20
852.314851199059
30
0
11
759.369613913685
21
848.886872497064
31
0
0
LINE
8
layer0
10
759.369613913685
20
848.886872497064
30
0
11
769.369613913685
21
857.547126534908
31
0
0
LINE
8
layer0
10
768.101349073242
20
854.851380879946
30
0
11
769.369613913685
21
857.547126534908
31
0
0
LINE
8
layer0
10
769.369613913685
20
857.547126534908
30
0
11
759.369613913685
21
848.886872497064
31
0
0
LINE
8
layer0
10
759.369613913685
20
848.886872497064
30
0
11
758.101349073242
21
846.191126842101
31
0
0
LINE
8
layer0
10
758.101349073242
20
846.191126842101
30
0
11
768.101349073242
21
854.851380879946
31
0
0
LINE
8
layer0
10
765.039486894763
20
854.466999515986
30
0
11
768.101349073242
21
854.851380879946
31
0
0
LINE
8
layer0
10
768.101349073242
20
854.851380879946
30
0
11
758.101349073242
21
846.191126842101
31
0
0
LINE
8
layer0
10
758.101349073242
20
846.191126842101
30
0
11
755.039486894763
21
845.806745478141
31
0
0
LINE
8
layer0
10
755.039486894763
20
845.806745478141
30
0
11
765.039486894763
21
854.466999515986
31
0
0
LINE
8
layer0
10
761.977624716284
20
856.619147832912
30
0
11
765.039486894763
21
854.466999515986
31
0
0
LINE
8
layer0
10
765.039486894763
20
854.466999515986
30
0
11
755.039486894763
21
845.806745478141
31
0
0
LINE
8
layer0
10
755.039486894763
20
845.806745478141
30
0
11
751.977624716284
21
847.958893795068
31
0
0
LINE
8
layer0
10
751.977624716284
20
847.958893795068
30
0
11
761.977624716284
21
856.619147832912
31
0
0
LINE
8
layer0
10
760.709359875841
20
860.047126534908
30
0
11
761.977624716284
21
856.619147832912
31
0
0
LINE
8
layer0
10
761.977624716284
20
856.619147832912
30
0
11
751.977624716284
21
847.958893795068
31
0
0
LINE
8
layer0
10
751.977624716284
20
847.958893795068
30
0
11
750.709359875841
21
851.386872497064
31
0
0
LINE
8
layer0
10
750.709359875841
20
851.386872497064
30
0
11
760.709359875841
21
860.047126534908
31
0
0
LINE
8
layer0
10
761.977624716284
20
862.74287218987
30
0
11
760.709359875841
21
860.047126534908
31
0
0
LINE
8
layer0
10
760.709359875841
20
860.047126534908
30
0
11
750.709359875841
21
851.386872497064
31
0
0
LINE
8
layer0
10
750.709359875841
20
851.386872497064
30
0
11
751.977624716284
21
854.082618152026
31
0
0
LINE
8
layer0
10
751.977624716284
20
854.082618152026
30
0
11
761.977624716284
21
862.74287218987
31
0
0
LINE
8
layer0
10
765.039486894763
20
863.12725355383
30
0
11
761.977624716284
21
862.74287218987
31
0
0
LINE
8
layer0
10
761.977624716284
20
862.74287218987
30
0
11
751.977624716284
21
854.082618152026
31
0
0
LINE
8
layer0
10
751.977624716284
20
854.082618152026
30
0
11
755.039486894763
21
854.466999515986
31
0
0
LINE
8
layer0
10
755.039486894763
20
854.466999515986
30
0
11
765.039486894763
21
863.12725355383
31
0
0
LINE
8
layer0
10
755.039486894763
20
854.466999515986
30
0
11
751.977624716284
21
854.082618152026
31
0
0
LINE
8
layer0
10
751.977624716284
20
854.082618152026
30
0
11
750.709359875841
21
851.386872497064
31
0
0
LINE
8
layer0
10
750.709359875841
20
851.386872497064
30
0
11
751.977624716284
21
847.958893795068
31
0
0
LINE
8
layer0
10
751.977624716284
20
847.958893795068
30
0
11
755.039486894763
21
845.806745478141
31
0
0
LINE
8
layer0
10
755.039486894763
20
845.806745478141
30
0
11
758.101349073242
21
846.191126842101
31
0
0
LINE
8
layer0
10
758.101349073242
20
846.191126842101
30
0
11
759.369613913685
21
848.886872497064
31
0
0
LINE
8
layer0
10
759.369613913685
20
848.886872497064
30
0
11
758.101349073242
21
852.314851199059
31
0
0
LINE
8
layer0
10
758.101349073242
20
852.314851199059
30
0
11
755.039486894763
21
854.466999515986
31
0
0
LINE
8
layer0
10
761.977624716284
20
862.74287218987
30
0
11
765.039486894763
21
863.12725355383
31
0
0
LINE
8
layer0
10
765.039486894763
20
863.12725355383
30
0
11
768.101349073242
21
860.975105236904
31
0
0
LINE
8
layer0
10
768.101349073242
20
860.975105236904
30
0
11
769.369613913685
21
857.547126534908
31
0
0
LINE
8
layer0
10
769.369613913685
20
857.547126534908
30
0
11
768.101349073242
21
854.851380879946
31
0
0
LINE
8
layer0
10
768.101349073242
20
854.851380879946
30
0
11
765.039486894763
21
854.466999515986
31
0
0
LINE
8
layer0
10
765.039486894763
20
854.466999515986
30
0
11
761.977624716284
21
856.619147832912
31
0
0
LINE
8
layer0
10
761.977624716284
20
856.619147832912
30
0
11
760.709359875841
21
860.047126534908
31
0
0
LINE
8
layer0
10
760.709359875841
20
860.047126534908
30
0
11
761.977624716284
21
862.74287218987
31
0
0
ENDBLK
0
BLOCK
8
layer0
2
PF_OBJECT46
70
0
10
0
20
0
30
0
0
LINE
8
layer0
10
878.95260075765
20
828.975105236904
30
0
11
875.890738579171
21
831.12725355383
31
0
0
LINE
8
layer0
10
875.890738579171
20
831.12725355383
30
0
11
865.890738579171
21
822.466999515986
31
0
0
LINE
8
layer0
10
865.890738579171
20
822.466999515986
30
0
11
868.95260075765
21
820.314851199059
31
0
0
LINE
8
layer0
10
868.95260075765
20
820.314851199059
30
0
11
878.95260075765
21
828.975105236904
31
0
0
LINE
8
layer0
10
880.220865598093
20
825.547126534908
30
0
11
878.95260075765
21
828.975105236904
31
0
0
LINE
8
layer0
10
878.95260075765
20
828.975105236904
30
0
11
868.95260075765
21
820.314851199059
31
0
0
LINE
8
layer0
10
868.95260075765
20
820.314851199059
30
0
11
870.220865598093
21
816.886872497064
31
0
0
LINE
8
layer0
10
870.220865598093
20
816.886872497064
30
0
11
880.220865598093
21
825.547126534908
31
0
0
LINE
8
layer0
10
878.95260075765
20
822.851380879946
30
0
11
880.220865598093
21
825.547126534908
31
0
0
LINE
8
layer0
10
880.220865598093
20
825.547126534908
30
0
11
870.220865598093
21
816.886872497064
31
0
0
LINE
8
layer0
10
870.220865598093
20
816.886872497064
30
0
11
868.95260075765
21
814.191126842101
31
0
0
LINE
8
layer0
10
868.95260075765
20
814.191126842101
30
0
11
878.95260075765
21
822.851380879946
31
0
0
LINE
8
layer0
10
875.890738579171
20
822.466999515986
30
0
11
878.95260075765
21
822.851380879946
31
0
0
LINE
8
layer0
10
878.95260075765
20
822.851380879946
30
0
11
868.95260075765
21
814.191126842101
31
0
0
LINE
8
layer0
10
868.95260075765
20
814.191126842101
30
0
11
865.890738579171
21
813.806745478141
31
0
0
LINE
8
layer0
10
865.890738579171
20
813.806745478141
30
0
11
875.890738579171
21
822.466999515986
31
0
0
LINE
8
layer0
10
872.828876400692
20
824.619147832912
30
0
11
875.890738579171
21
822.466999515986
31
0
0
LINE
8
layer0
10
875.890738579171
20
822.466999515986
30
0
11
865.890738579171
21
813.806745478141
31
0
0
LINE
8
layer0
10
865.890738579171
20
813.806745478141
30
0
11
862.828876400692
21
815.958893795068
31
0
0
LINE
8
layer0
10
862.828876400692
20
815.958893795068
30
0
11
872.828876400692
21
824.619147832912
31
0
0
LINE
8
layer0
10
871.560611560249
20
828.047126534908
30
0
11
872.828876400692
21
824.619147832912
31
0
0
LINE
8
layer0
10
872.828876400692
20
824.619147832912
30
0
11
862.828876400692
21
815.958893795068
31
0
0
LINE
8
layer0
10
862.828876400692
20
815.958893795068
30
0
11
861.560611560249
21
819.386872497064
31
0
0
LINE
8
layer0
10
861.560611560249
20
819.386872497064
30
0
11
871.560611560249
21
828.047126534908
31
0
0
LINE
8
layer0
10
872.828876400692
20
830.74287218987
30
0
11
871.560611560249
21
828.047126534908
31
0
0
LINE
8
layer0
10
871.560611560249
20
828.047126534908
30
0
11
861.560611560249
21
819.386872497064
31
0
0
LINE
8
layer0
10
861.560611560249
20
819.386872497064
30
0
11
862.828876400692
21
822.082618152026
31
0
0
LINE
8
layer0
10
862.828876400692
20
822.082618152026
30
0
11
872.828876400692
21
830.74287218987
31
0
0
LINE
8
layer0
10
875.890738579171
20
831.12725355383
30
0
11
872.828876400692
21
830.74287218987
31
0
0
LINE
8
layer0
10
872.828876400692
20
830.74287218987
30
0
11
862.828876400692
21
822.082618152026
31
0
0
LINE
8
layer0
10
862.828876400692
20
822.082618152026
30
0
11
865.890738579171
21
822.466999515986
31
0
0
LINE
8
layer0
10
865.890738579171
20
822.466999515986
30
0
11
875.890738579171
21
831.12725355383
31
0
0
LINE
8
layer0
10
865.890738579171
20
822.466999515986
30
0
11
862.828876400692
21
822.082618152026
31
0
0
LINE
8
layer0
10
862.828876400692
20
822.082618152026
30
0
11
861.560611560249
21
819.386872497064
31
0
0
LINE
8
layer0
10
861.560611560249
20
819.386872497064
30
0
11
862.828876400692
21
815.958893795068
31
0
0
LINE
8
layer0
10
862.828876400692
20
815.958893795068
30
0
11
865.890738579171
21
813.806745478141
31
0
0
LINE
8
layer0
10
865.890738579171
20
813.806745478141
30
0
11
868.95260075765
21
814.191126842101
31
0
0
LINE
8
layer0
10
868.95260075765
20
814.191126842101
30
0
11
870.220865598093
21
816.886872497064
31
0
0
LINE
8
layer0
10
870.220865598093
20
816.886872497064
30
0
11
868.95260075765
21
820.314851199059
31
0
0
LINE
8
layer0
10
868.95260075765
20
820.314851199059
30
0
11
865.890738579171
21
822.466999515986
31
0
0
LINE
8
layer0
10
872.828876400692
20
830.74287218987
30
0
11
875.890738579171
21
831.12725355383
31
0
0
LINE
8
layer0
10
875.890738579171
20
831.12725355383
30
0
11
878.95260075765
21
828.975105236904
31
0
0
LINE
8
layer0
10
878.95260075765
20
828.975105236904
30
0
11
880.220865598093
21
825.547126534908
31
0
0
LINE
8
layer0
10
880.220865598093
20
825.547126534908
30
0
11
878.95260075765
21
822.851380879946
31
0
0
LINE
8
layer0
10
878.95260075765
20
822.851380879946
30
0
11
875.890738579171
21
822.466999515986
31
0
0
LINE
8
layer0
10
875.890738579171
20
822.466999515986
30
0
11
872.828876400692
21
824.619147832912
31
0
0
LINE
8
layer0
10
872.828876400692
20
824.619147832912
30
0
11
871.560611560249
21
828.047126534908
31
0
0
LINE
8
layer0
10
871.560611560249
20
828.047126534908
30
0
11
872.828876400692
21
830.74287218987
31
0
0
ENDBLK
0
BLOCK
8
layer0
2
PF_OBJECT47
70
0
10
0
20
0
30
0
0
LINE
8
layer0
10
739.48674577204
20
859.729665764782
30
0
11
737.718978819074
21
859.466999515986
31
0
0
LINE
8
layer0
10
737.718978819074
20
859.466999515986
30
0
11
883.21124665486
21
817.466999515986
31
0
0
LINE
8
layer0
10
883.21124665486
20
817.466999515986
30
0
11
884.979013607826
21
817.729665764782
31
0
0
LINE
8
layer0
10
884.979013607826
20
817.729665764782
30
0
11
739.48674577204
21
859.729665764782
31
0
0
LINE
8
layer0
10
740.218978819074
20
857.301936006525
30
0
11
739.48674577204
21
859.729665764782
31
0
0
LINE
8
layer0
10
739.48674577204
20
859.729665764782
30
0
11
884.979013607826
21
817.729665764782
31
0
0
LINE
8
layer0
10
884.979013607826
20
817.729665764782
30
0
11
885.71124665486
21
815.301936006525
31
0
0
LINE
8
layer0
10
885.71124665486
20
815.301936006525
30
0
11
740.218978819074
21
857.301936006525
31
0
0
LINE
8
layer0
10
739.48674577204
20
853.605941407824
30
0
11
740.218978819074
21
857.301936006525
31
0
0
LINE
8
layer0
10
740.218978819074
20
857.301936006525
30
0
11
885.71124665486
21
815.301936006525
31
0
0
LINE
8
layer0
10
885.71124665486
20
815.301936006525
30
0
11
884.979013607826
21
811.605941407824
31
0
0
LINE
8
layer0
10
884.979013607826
20
811.605941407824
30
0
11
739.48674577204
21
853.605941407824
31
0
0
LINE
8
layer0
10
737.718978819074
20
850.806745478141
30
0
11
739.48674577204
21
853.605941407824
31
0
0
LINE
8
layer0
10
739.48674577204
20
853.605941407824
30
0
11
884.979013607826
21
811.605941407824
31
0
0
LINE
8
layer0
10
884.979013607826
20
811.605941407824
30
0
11
883.21124665486
21
808.806745478141
31
0
0
LINE
8
layer0
10
883.21124665486
20
808.806745478141
30
0
11
737.718978819074
21
850.806745478141
31
0
0
LINE
8
layer0
10
735.951211866108
20
850.544079229345
30
0
11
737.718978819074
21
850.806745478141
31
0
0
LINE
8
layer0
10
737.718978819074
20
850.806745478141
30
0
11
883.21124665486
21
808.806745478141
31
0
0
LINE
8
layer0
10
883.21124665486
20
808.806745478141
30
0
11
881.443479701893
21
808.544079229345
31
0
0
LINE
8
layer0
10
881.443479701893
20
808.544079229345
30
0
11
735.951211866108
21
850.544079229345
31
0
0
LINE
8
layer0
10
735.218978819074
20
852.971808987603
30
0
11
735.951211866108
21
850.544079229345
31
0
0
LINE
8
layer0
10
735.951211866108
20
850.544079229345
30
0
11
881.443479701893
21
808.544079229345
31
0
0
LINE
8
layer0
10
881.443479701893
20
808.544079229345
30
0
11
880.71124665486
21
810.971808987603
31
0
0
LINE
8
layer0
10
880.71124665486
20
810.971808987603
30
0
11
735.218978819074
21
852.971808987603
31
0
0
LINE
8
layer0
10
735.951211866108
20
856.667803586303
30
0
11
735.218978819074
21
852.971808987603
31
0
0
LINE
8
layer0
10
735.218978819074
20
852.971808987603
30
0
11
880.71124665486
21
810.971808987603
31
0
0
LINE
8
layer0
10
880.71124665486
20
810.971808987603
30
0
11
881.443479701893
21
814.667803586303
31
0
0
LINE
8
layer0
10
881.443479701893
20
814.667803586303
30
0
11
735.951211866108
21
856.667803586303
31
0
0
LINE
8
layer0
10
737.718978819074
20
859.466999515986
30
0
11
735.951211866108
21
856.667803586303
31
0
0
LINE
8
layer0
10
735.951211866108
20
856.667803586303
30
0
11
881.443479701893
21
814.667803586303
31
0
0
LINE
8
layer0
10
881.443479701893
20
814.667803586303
30
0
11
883.21124665486
21
817.466999515986
31
0
0
LINE
8
layer0
10
883.21124665486
20
817.466999515986
30
0
11
737.718978819074
21
859.466999515986
31
0
0
LINE
8
layer0
10
883.21124665486
20
817.466999515986
30
0
11
881.443479701893
21
814.667803586303
31
0
0
LINE
8
layer0
10
881.443479701893
20
814.667803586303
30
0
11
880.71124665486
21
810.971808987603
31
0
0
LINE
8
layer0
10
880.71124665486
20
810.971808987603
30
0
11
881.443479701893
21
808.544079229345
31
0
0
LINE
8
layer0
10
881.443479701893
20
808.544079229345
30
0
11
883.21124665486
21
808.806745478141
31
0
0
LINE
8
layer0
10
883.21124665486
20
808.806745478141
30
0
11
884.979013607826
21
811.605941407824
31
0
0
LINE
8
layer0
10
884.979013607826
20
811.605941407824
30
0
11
885.71124665486
21
815.301936006525
31
0
0
LINE
8
layer0
10
885.71124665486
20
815.301936006525
30
0
11
884.979013607826
21
817.729665764782
31
0
0
LINE
8
layer0
10
884.979013607826
20
817.729665764782
30
0
11
883.21124665486
21
817.466999515986
31
0
0
LINE
8
layer0
10
735.951211866108
20
856.667803586303
30
0
11
737.718978819074
21
859.466999515986
31
0
0
LINE
8
layer0
10
737.718978819074
20
859.466999515986
30
0
11
739.48674577204
21
859.729665764782
31
0
0
LINE
8
layer0
10
739.48674577204
20
859.729665764782
30
0
11
740.218978819074
21
857.301936006525
31
0
0
LINE
8
layer0
10
740.218978819074
20
857.301936006525
30
0
11
739.48674577204
21
853.605941407824
31
0
0
LINE
8
layer0
10
739.48674577204
20
853.605941407824
30
0
11
737.718978819074
21
850.806745478141
31
0
0
LINE
8
layer0
10
737.718978819074
20
850.806745478141
30
0
11
735.951211866108
21
850.544079229345
31
0
0
LINE
8
layer0
10
735.951211866108
20
850.544079229345
30
0
11
735.218978819074
21
852.971808987603
31
0
0
LINE
8
layer0
10
735.218978819074
20
852.971808987603
30
0
11
735.951211866108
21
856.667803586303
31
0
0
ENDBLK
0
BLOCK
8
layer0
2
PF_OBJECT48
70
0
10
0
20
0
30
0
0
LINE
8
layer0
10
917.933678519195
20
788.968288210022
30
0
11
403.514588671239
21
937.468288210021
31
0
0
LINE
8
layer0
10
403.514588671239
20
937.468288210021
30
0
11
403.514588671239
21
1549.74824868562
31
0
0
LINE
8
layer0
10
403.514588671239
20
1549.74824868562
30
0
11
917.933678519195
21
1401.24824868562
31
0
0
LINE
8
layer0
10
917.933678519195
20
1401.24824868562
30
0
11
917.933678519195
21
788.968288210022
31
0
0
LINE
8
layer0
10
393.514588671239
20
928.808034172177
30
0
11
907.933678519195
21
780.308034172177
31
0
0
LINE
8
layer0
10
907.933678519195
20
780.308034172177
30
0
11
907.933678519195
21
1392.58799464778
31
0
0
LINE
8
layer0
10
907.933678519195
20
1392.58799464778
30
0
11
393.514588671239
21
1541.08799464778
31
0
0
LINE
8
layer0
10
393.514588671239
20
1541.08799464778
30
0
11
393.514588671239
21
928.808034172177
31
0
0
LINE
8
layer0
10
403.514588671239
20
937.468288210021
30
0
11
393.514588671239
21
928.808034172177
31
0
0
LINE
8
layer0
10
393.514588671239
20
928.808034172177
30
0
11
393.514588671239
21
1541.08799464778
31
0
0
LINE
8
layer0
10
393.514588671239
20
1541.08799464778
30
0
11
403.514588671239
21
1549.74824868562
31
0
0
LINE
8
layer0
10
403.514588671239
20
1549.74824868562
30
0
11
403.514588671239
21
937.468288210021
31
0
0
LINE
8
layer0
10
907.933678519195
20
780.308034172177
30
0
11
917.933678519195
21
788.968288210022
31
0
0
LINE
8
layer0
10
917.933678519195
20
788.968288210022
30
0
11
917.933678519195
21
1401.24824868562
31
0
0
LINE
8
layer0
10
917.933678519195
20
1401.24824868562
30
0
11
907.933678519195
21
1392.58799464778
31
0
0
LINE
8
layer0
10
907.933678519195
20
1392.58799464778
30
0
11
907.933678519195
21
780.308034172177
31
0
0
LINE
8
layer0
10
917.933678519195
20
1401.24824868562
30
0
11
403.514588671239
21
1549.74824868562
31
0
0
LINE
8
layer0
10
403.514588671239
20
1549.74824868562
30
0
11
393.514588671239
21
1541.08799464778
31
0
0
LINE
8
layer0
10
393.514588671239
20
1541.08799464778
30
0
11
907.933678519195
21
1392.58799464778
31
0
0
LINE
8
layer0
10
907.933678519195
20
1392.58799464778
30
0
11
917.933678519195
21
1401.24824868562
31
0
0
LINE
8
layer0
10
403.514588671239
20
937.468288210021
30
0
11
917.933678519195
21
788.968288210022
31
0
0
LINE
8
layer0
10
917.933678519195
20
788.968288210022
30
0
11
907.933678519195
21
780.308034172177
31
0
0
LINE
8
layer0
10
907.933678519195
20
780.308034172177
30
0
11
393.514588671239
21
928.808034172177
31
0
0
LINE
8
layer0
10
393.514588671239
20
928.808034172177
30
0
11
403.514588671239
21
937.468288210021
31
0
0
ENDBLK
0
BLOCK
8
layer0
70
0
10
0
20
0
30
0
2
PF_SKETCH49
0
LINE
8
layer0
10
562.916512459885
20
1693.39244031005
30
0
11
922.031754730548
21
1404.39536300265
31
0
0
ENDBLK
0
BLOCK
8
layer0
70
0
10
0
20
0
30
0
2
PF_SKETCH50
0
LINE
8
layer0
10
402.416512459885
20
1554.39536300265
30
0
11
1082.53175473055
21
1543.39244031005
31
0
0
ENDBLK
0
BLOCK
8
layer0
2
PF_OBJECT51
70
0
10
0
20
0
30
0
0
LINE
8
layer0
10
1096.3881611911
20
921.916327411747
30
0
11
1082.53175473055
21
925.916327411747
31
0
0
LINE
8
layer0
10
1082.53175473055
20
925.916327411747
30
0
11
1082.53175473055
21
1543.39244031005
31
0
0
LINE
8
layer0
10
1082.53175473055
20
1543.39244031005
30
0
11
1096.3881611911
21
1539.39244031005
31
0
0
LINE
8
layer0
10
1096.3881611911
20
1539.39244031005
30
0
11
1096.3881611911
21
921.916327411747
31
0
0
LINE
8
layer0
10
922.031754730548
20
786.919250104345
30
0
11
935.888161191099
21
782.919250104345
31
0
0
LINE
8
layer0
10
935.888161191099
20
782.919250104345
30
0
11
935.888161191099
21
1400.39536300265
31
0
0
LINE
8
layer0
10
935.888161191099
20
1400.39536300265
30
0
11
922.031754730548
21
1404.39536300265
31
0
0
LINE
8
layer0
10
922.031754730548
20
1404.39536300265
30
0
11
922.031754730548
21
786.919250104345
31
0
0
LINE
8
layer0
10
1082.53175473055
20
925.916327411747
30
0
11
922.031754730548
21
786.919250104345
31
0
0
LINE
8
layer0
10
922.031754730548
20
786.919250104345
30
0
11
922.031754730548
21
1404.39536300265
31
0
0
LINE
8
layer0
10
922.031754730548
20
1404.39536300265
30
0
11
1082.53175473055
21
1543.39244031005
31
0
0
LINE
8
layer0
10
1082.53175473055
20
1543.39244031005
30
0
11
1082.53175473055
21
925.916327411747
31
0
0
LINE
8
layer0
10
935.888161191099
20
782.919250104345
30
0
11
1096.3881611911
21
921.916327411747
31
0
0
LINE
8
layer0
10
1096.3881611911
20
921.916327411747
30
0
11
1096.3881611911
21
1539.39244031005
31
0
0
LINE
8
layer0
10
1096.3881611911
20
1539.39244031005
30
0
11
935.888161191099
21
1400.39536300265
31
0
0
LINE
8
layer0
10
935.888161191099
20
1400.39536300265
30
0
11
935.888161191099
21
782.919250104345
31
0
0
LINE
8
layer0
10
1096.3881611911
20
1539.39244031005
30
0
11
1082.53175473055
21
1543.39244031005
31
0
0
LINE
8
layer0
10
1082.53175473055
20
1543.39244031005
30
0
11
922.031754730548
21
1404.39536300265
31
0
0
LINE
8
layer0
10
922.031754730548
20
1404.39536300265
30
0
11
935.888161191099
21
1400.39536300265
31
0
0
LINE
8
layer0
10
935.888161191099
20
1400.39536300265
30
0
11
1096.3881611911
21
1539.39244031005
31
0
0
LINE
8
layer0
10
1082.53175473055
20
925.916327411747
30
0
11
1096.3881611911
21
921.916327411747
31
0
0
LINE
8
layer0
10
1096.3881611911
20
921.916327411747
30
0
11
935.888161191099
21
782.919250104345
31
0
0
LINE
8
layer0
10
935.888161191099
20
782.919250104345
30
0
11
922.031754730548
21
786.919250104345
31
0
0
LINE
8
layer0
10
922.031754730548
20
786.919250104345
30
0
11
1082.53175473055
21
925.916327411747
31
0
0
ENDBLK
0
BLOCK
8
layer0
2
PF_OBJECT52
70
0
10
0
20
0
30
0
0
LINE
8
layer0
10
1602.14699700121
20
775.916327411747
30
0
11
1588.29059054066
21
779.916327411747
31
0
0
LINE
8
layer0
10
1588.29059054066
20
779.916327411747
30
0
11
1588.29059054066
21
1397.39244031005
31
0
0
LINE
8
layer0
10
1588.29059054066
20
1397.39244031005
30
0
11
1602.14699700121
21
1393.39244031005
31
0
0
LINE
8
layer0
10
1602.14699700121
20
1393.39244031005
30
0
11
1602.14699700121
21
775.916327411747
31
0
0
LINE
8
layer0
10
1427.79059054066
20
640.919250104345
30
0
11
1441.64699700121
21
636.919250104345
31
0
0
LINE
8
layer0
10
1441.64699700121
20
636.919250104345
30
0
11
1441.64699700121
21
1254.39536300265
31
0
0
LINE
8
layer0
10
1441.64699700121
20
1254.39536300265
30
0
11
1427.79059054066
21
1258.39536300265
31
0
0
LINE
8
layer0
10
1427.79059054066
20
1258.39536300265
30
0
11
1427.79059054066
21
640.919250104345
31
0
0
LINE
8
layer0
10
1588.29059054066
20
779.916327411747
30
0
11
1427.79059054066
21
640.919250104345
31
0
0
LINE
8
layer0
10
1427.79059054066
20
640.919250104345
30
0
11
1427.79059054066
21
1258.39536300265
31
0
0
LINE
8
layer0
10
1427.79059054066
20
1258.39536300265
30
0
11
1588.29059054066
21
1397.39244031005
31
0
0
LINE
8
layer0
10
1588.29059054066
20
1397.39244031005
30
0
11
1588.29059054066
21
779.916327411747
31
0
0
LINE
8
layer0
10
1441.64699700121
20
636.919250104345
30
0
11
1602.14699700121
21
775.916327411747
31
0
0
LINE
8
layer0
10
1602.14699700121
20
775.916327411747
30
0
11
1602.14699700121
21
1393.39244031005
31
0
0
LINE
8
layer0
10
1602.14699700121
20
1393.39244031005
30
0
11
1441.64699700121
21
1254.39536300265
31
0
0
LINE
8
layer0
10
1441.64699700121
20
1254.39536300265
30
0
11
1441.64699700121
21
636.919250104345
31
0
0
LINE
8
layer0
10
1602.14699700121
20
1393.39244031005
30
0
11
1588.29059054066
21
1397.39244031005
31
0
0
LINE
8
layer0
10
1588.29059054066
20
1397.39244031005
30
0
11
1427.79059054066
21
1258.39536300265
31
0
0
LINE
8
layer0
10
1427.79059054066
20
1258.39536300265
30
0
11
1441.64699700121
21
1254.39536300265
31
0
0
LINE
8
layer0
10
1441.64699700121
20
1254.39536300265
30
0
11
1602.14699700121
21
1393.39244031005
31
0
0
LINE
8
layer0
10
1588.29059054066
20
779.916327411747
30
0
11
1602.14699700121
21
775.916327411747
31
0
0
LINE
8
layer0
10
1602.14699700121
20
775.916327411747
30
0
11
1441.64699700121
21
636.919250104345
31
0
0
LINE
8
layer0
10
1441.64699700121
20
636.919250104345
30
0
11
1427.79059054066
21
640.919250104345
31
0
0
LINE
8
layer0
10
1427.79059054066
20
640.919250104345
30
0
11
1588.29059054066
21
779.916327411747
31
0
0
ENDBLK
0
BLOCK
8
layer0
2
PF_OBJECT53
70
0
10
0
20
0
30
0
0
LINE
8
layer0
10
1576.29059054066
20
769.524022566334
30
0
11
1084.3881611911
21
911.524022566334
31
0
0
LINE
8
layer0
10
1084.3881611911
20
911.524022566334
30
0
11
1084.3881611911
21
925.380429026885
31
0
0
LINE
8
layer0
10
1084.3881611911
20
925.380429026885
30
0
11
1576.29059054066
21
783.380429026885
31
0
0
LINE
8
layer0
10
1576.29059054066
20
783.380429026885
30
0
11
1576.29059054066
21
769.524022566334
31
0
0
LINE
8
layer0
10
936.388161191099
20
783.352262806237
30
0
11
1428.29059054066
21
641.352262806237
31
0
0
LINE
8
layer0
10
1428.29059054066
20
641.352262806237
30
0
11
1428.29059054066
21
655.208669266788
31
0
0
LINE
8
layer0
10
1428.29059054066
20
655.208669266788
30
0
11
936.388161191099
21
797.208669266788
31
0
0
LINE
8
layer0
10
936.388161191099
20
797.208669266788
30
0
11
936.388161191099
21
783.352262806237
31
0
0
LINE
8
layer0
10
1084.3881611911
20
911.524022566334
30
0
11
936.388161191099
21
783.352262806237
31
0
0
LINE
8
layer0
10
936.388161191099
20
783.352262806237
30
0
11
936.388161191099
21
797.208669266788
31
0
0
LINE
8
layer0
10
936.388161191099
20
797.208669266788
30
0
11
1084.3881611911
21
925.380429026885
31
0
0
LINE
8
layer0
10
1084.3881611911
20
925.380429026885
30
0
11
1084.3881611911
21
911.524022566334
31
0
0
LINE
8
layer0
10
1428.29059054066
20
641.352262806237
30
0
11
1576.29059054066
21
769.524022566334
31
0
0
LINE
8
layer0
10
1576.29059054066
20
769.524022566334
30
0
11
1576.29059054066
21
783.380429026885
31
0
0
LINE
8
layer0
10
1576.29059054066
20
783.380429026885
30
0
11
1428.29059054066
21
655.208669266788
31
0
0
LINE
8
layer0
10
1428.29059054066
20
655.208669266788
30
0
11
1428.29059054066
21
641.352262806237
31
0
0
LINE
8
layer0
10
1576.29059054066
20
783.380429026885
30
0
11
1084.3881611911
21
925.380429026885
31
0
0
LINE
8
layer0
10
1084.3881611911
20
925.380429026885
30
0
11
936.388161191099
21
797.208669266788
31
0
0
LINE
8
layer0
10
936.388161191099
20
797.208669266788
30
0
11
1428.29059054066
21
655.208669266788
31
0
0
LINE
8
layer0
10
1428.29059054066
20
655.208669266788
30
0
11
1576.29059054066
21
783.380429026885
31
0
0
LINE
8
layer0
10
1084.3881611911
20
911.524022566334
30
0
11
1576.29059054066
21
769.524022566334
31
0
0
LINE
8
layer0
10
1576.29059054066
20
769.524022566334
30
0
11
1428.29059054066
21
641.352262806237
31
0
0
LINE
8
layer0
10
1428.29059054066
20
641.352262806237
30
0
11
936.388161191099
21
783.352262806237
31
0
0
LINE
8
layer0
10
936.388161191099
20
783.352262806237
30
0
11
1084.3881611911
21
911.524022566334
31
0
0
ENDBLK
0
BLOCK
8
layer0
2
PF_OBJECT54
70
0
10
0
20
0
30
0
0
LINE
8
layer0
10
1578.29059054066
20
771.256073373903
30
0
11
1086.3881611911
21
913.256073373903
31
0
0
LINE
8
layer0
10
1086.3881611911
20
913.256073373903
30
0
11
1086.3881611911
21
1530.73218627221
31
0
0
LINE
8
layer0
10
1086.3881611911
20
1530.73218627221
30
0
11
1578.29059054066
21
1388.73218627221
31
0
0
LINE
8
layer0
10
1578.29059054066
20
1388.73218627221
30
0
11
1578.29059054066
21
771.256073373903
31
0
0
LINE
8
layer0
10
1084.3881611911
20
911.524022566334
30
0
11
1576.29059054066
21
769.524022566334
31
0
0
LINE
8
layer0
10
1576.29059054066
20
769.524022566334
30
0
11
1576.29059054066
21
1387.00013546464
31
0
0
LINE
8
layer0
10
1576.29059054066
20
1387.00013546464
30
0
11
1084.3881611911
21
1529.00013546464
31
0
0
LINE
8
layer0
10
1084.3881611911
20
1529.00013546464
30
0
11
1084.3881611911
21
911.524022566334
31
0
0
LINE
8
layer0
10
1086.3881611911
20
913.256073373903
30
0
11
1084.3881611911
21
911.524022566334
31
0
0
LINE
8
layer0
10
1084.3881611911
20
911.524022566334
30
0
11
1084.3881611911
21
1529.00013546464
31
0
0
LINE
8
layer0
10
1084.3881611911
20
1529.00013546464
30
0
11
1086.3881611911
21
1530.73218627221
31
0
0
LINE
8
layer0
10
1086.3881611911
20
1530.73218627221
30
0
11
1086.3881611911
21
913.256073373903
31
0
0
LINE
8
layer0
10
1576.29059054066
20
769.524022566334
30
0
11
1578.29059054066
21
771.256073373903
31
0
0
LINE
8
layer0
10
1578.29059054066
20
771.256073373903
30
0
11
1578.29059054066
21
1388.73218627221
31
0
0
LINE
8
layer0
10
1578.29059054066
20
1388.73218627221
30
0
11
1576.29059054066
21
1387.00013546464
31
0
0
LINE
8
layer0
10
1576.29059054066
20
1387.00013546464
30
0
11
1576.29059054066
21
769.524022566334
31
0
0
LINE
8
layer0
10
1578.29059054066
20
1388.73218627221
30
0
11
1086.3881611911
21
1530.73218627221
31
0
0
LINE
8
layer0
10
1086.3881611911
20
1530.73218627221
30
0
11
1084.3881611911
21
1529.00013546464
31
0
0
LINE
8
layer0
10
1084.3881611911
20
1529.00013546464
30
0
11
1576.29059054066
21
1387.00013546464
31
0
0
LINE
8
layer0
10
1576.29059054066
20
1387.00013546464
30
0
11
1578.29059054066
21
1388.73218627221
31
0
0
LINE
8
layer0
10
1086.3881611911
20
913.256073373903
30
0
11
1578.29059054066
21
771.256073373903
31
0
0
LINE
8
layer0
10
1578.29059054066
20
771.256073373903
30
0
11
1576.29059054066
21
769.524022566334
31
0
0
LINE
8
layer0
10
1576.29059054066
20
769.524022566334
30
0
11
1084.3881611911
21
911.524022566334
31
0
0
LINE
8
layer0
10
1084.3881611911
20
911.524022566334
30
0
11
1086.3881611911
21
913.256073373903
31
0
0
ENDBLK
0
BLOCK
8
layer0
2
PF_OBJECT55
70
0
10
0
20
0
30
0
0
LINE
8
layer0
10
1576.29059054066
20
1373.14372900409
30
0
11
1084.3881611911
21
1515.14372900409
31
0
0
LINE
8
layer0
10
1084.3881611911
20
1515.14372900409
30
0
11
1084.3881611911
21
1529.00013546464
31
0
0
LINE
8
layer0
10
1084.3881611911
20
1529.00013546464
30
0
11
1576.29059054066
21
1387.00013546464
31
0
0
LINE
8
layer0
10
1576.29059054066
20
1387.00013546464
30
0
11
1576.29059054066
21
1373.14372900409
31
0
0
LINE
8
layer0
10
936.388161191099
20
1386.97196924399
30
0
11
1428.29059054066
21
1244.97196924399
31
0
0
LINE
8
layer0
10
1428.29059054066
20
1244.97196924399
30
0
11
1428.29059054066
21
1258.82837570454
31
0
0
LINE
8
layer0
10
1428.29059054066
20
1258.82837570454
30
0
11
936.388161191099
21
1400.82837570454
31
0
0
LINE
8
layer0
10
936.388161191099
20
1400.82837570454
30
0
11
936.388161191099
21
1386.97196924399
31
0
0
LINE
8
layer0
10
1084.3881611911
20
1515.14372900409
30
0
11
936.388161191099
21
1386.97196924399
31
0
0
LINE
8
layer0
10
936.388161191099
20
1386.97196924399
30
0
11
936.388161191099
21
1400.82837570454
31
0
0
LINE
8
layer0
10
936.388161191099
20
1400.82837570454
30
0
11
1084.3881611911
21
1529.00013546464
31
0
0
LINE
8
layer0
10
1084.3881611911
20
1529.00013546464
30
0
11
1084.3881611911
21
1515.14372900409
31
0
0
LINE
8
layer0
10
1428.29059054066
20
1244.97196924399
30
0
11
1576.29059054066
21
1373.14372900409
31
0
0
LINE
8
layer0
10
1576.29059054066
20
1373.14372900409
30
0
11
1576.29059054066
21
1387.00013546464
31
0
0
LINE
8
layer0
10
1576.29059054066
20
1387.00013546464
30
0
11
1428.29059054066
21
1258.82837570454
31
0
0
LINE
8
layer0
10
1428.29059054066
20
1258.82837570454
30
0
11
1428.29059054066
21
1244.97196924399
31
0
0
LINE
8
layer0
10
1576.29059054066
20
1387.00013546464
30
0
11
1084.3881611911
21
1529.00013546464
31
0
0
LINE
8
layer0
10
1084.3881611911
20
1529.00013546464
30
0
11
936.388161191099
21
1400.82837570454
31
0
0
LINE
8
layer0
10
936.388161191099
20
1400.82837570454
30
0
11
1428.29059054066
21
1258.82837570454
31
0
0
LINE
8
layer0
10
1428.29059054066
20
1258.82837570454
30
0
11
1576.29059054066
21
1387.00013546464
31
0
0
LINE
8
layer0
10
1084.3881611911
20
1515.14372900409
30
0
11
1576.29059054066
21
1373.14372900409
31
0
0
LINE
8
layer0
10
1576.29059054066
20
1373.14372900409
30
0
11
1428.29059054066
21
1244.97196924399
31
0
0
LINE
8
layer0
10
1428.29059054066
20
1244.97196924399
30
0
11
936.388161191099
21
1386.97196924399
31
0
0
LINE
8
layer0
10
936.388161191099
20
1386.97196924399
30
0
11
1084.3881611911
21
1515.14372900409
31
0
0
ENDBLK
0
BLOCK
8
layer0
2
PF_OBJECT56
70
0
10
0
20
0
30
0
0
LINE
8
layer0
10
1287.7165913439
20
710.975105236904
30
0
11
1284.65472916543
21
713.12725355383
31
0
0
LINE
8
layer0
10
1284.65472916543
20
713.12725355383
30
0
11
1274.65472916543
21
704.466999515986
31
0
0
LINE
8
layer0
10
1274.65472916543
20
704.466999515986
30
0
11
1277.7165913439
21
702.314851199059
31
0
0
LINE
8
layer0
10
1277.7165913439
20
702.314851199059
30
0
11
1287.7165913439
21
710.975105236904
31
0
0
LINE
8
layer0
10
1288.98485618435
20
707.547126534908
30
0
11
1287.7165913439
21
710.975105236904
31
0
0
LINE
8
layer0
10
1287.7165913439
20
710.975105236904
30
0
11
1277.7165913439
21
702.314851199059
31
0
0
LINE
8
layer0
10
1277.7165913439
20
702.314851199059
30
0
11
1278.98485618435
21
698.886872497064
31
0
0
LINE
8
layer0
10
1278.98485618435
20
698.886872497064
30
0
11
1288.98485618435
21
707.547126534908
31
0
0
LINE
8
layer0
10
1287.7165913439
20
704.851380879946
30
0
11
1288.98485618435
21
707.547126534908
31
0
0
LINE
8
layer0
10
1288.98485618435
20
707.547126534908
30
0
11
1278.98485618435
21
698.886872497064
31
0
0
LINE
8
layer0
10
1278.98485618435
20
698.886872497064
30
0
11
1277.7165913439
21
696.191126842101
31
0
0
LINE
8
layer0
10
1277.7165913439
20
696.191126842101
30
0
11
1287.7165913439
21
704.851380879946
31
0
0
LINE
8
layer0
10
1284.65472916543
20
704.466999515986
30
0
11
1287.7165913439
21
704.851380879946
31
0
0
LINE
8
layer0
10
1287.7165913439
20
704.851380879946
30
0
11
1277.7165913439
21
696.191126842101
31
0
0
LINE
8
layer0
10
1277.7165913439
20
696.191126842101
30
0
11
1274.65472916543
21
695.806745478141
31
0
0
LINE
8
layer0
10
1274.65472916543
20
695.806745478141
30
0
11
1284.65472916543
21
704.466999515986
31
0
0
LINE
8
layer0
10
1281.59286698695
20
706.619147832912
30
0
11
1284.65472916543
21
704.466999515986
31
0
0
LINE
8
layer0
10
1284.65472916543
20
704.466999515986
30
0
11
1274.65472916543
21
695.806745478141
31
0
0
LINE
8
layer0
10
1274.65472916543
20
695.806745478141
30
0
11
1271.59286698695
21
697.958893795068
31
0
0
LINE
8
layer0
10
1271.59286698695
20
697.958893795068
30
0
11
1281.59286698695
21
706.619147832912
31
0
0
LINE
8
layer0
10
1280.3246021465
20
710.047126534908
30
0
11
1281.59286698695
21
706.619147832912
31
0
0
LINE
8
layer0
10
1281.59286698695
20
706.619147832912
30
0
11
1271.59286698695
21
697.958893795068
31
0
0
LINE
8
layer0
10
1271.59286698695
20
697.958893795068
30
0
11
1270.3246021465
21
701.386872497064
31
0
0
LINE
8
layer0
10
1270.3246021465
20
701.386872497064
30
0
11
1280.3246021465
21
710.047126534908
31
0
0
LINE
8
layer0
10
1281.59286698695
20
712.74287218987
30
0
11
1280.3246021465
21
710.047126534908
31
0
0
LINE
8
layer0
10
1280.3246021465
20
710.047126534908
30
0
11
1270.3246021465
21
701.386872497064
31
0
0
LINE
8
layer0
10
1270.3246021465
20
701.386872497064
30
0
11
1271.59286698695
21
704.082618152026
31
0
0
LINE
8
layer0
10
1271.59286698695
20
704.082618152026
30
0
11
1281.59286698695
21
712.74287218987
31
0
0
LINE
8
layer0
10
1284.65472916543
20
713.12725355383
30
0
11
1281.59286698695
21
712.74287218987
31
0
0
LINE
8
layer0
10
1281.59286698695
20
712.74287218987
30
0
11
1271.59286698695
21
704.082618152026
31
0
0
LINE
8
layer0
10
1271.59286698695
20
704.082618152026
30
0
11
1274.65472916543
21
704.466999515986
31
0
0
LINE
8
layer0
10
1274.65472916543
20
704.466999515986
30
0
11
1284.65472916543
21
713.12725355383
31
0
0
LINE
8
layer0
10
1274.65472916543
20
704.466999515986
30
0
11
1271.59286698695
21
704.082618152026
31
0
0
LINE
8
layer0
10
1271.59286698695
20
704.082618152026
30
0
11
1270.3246021465
21
701.386872497064
31
0
0
LINE
8
layer0
10
1270.3246021465
20
701.386872497064
30
0
11
1271.59286698695
21
697.958893795068
31
0
0
LINE
8
layer0
10
1271.59286698695
20
697.958893795068
30
0
11
1274.65472916543
21
695.806745478141
31
0
0
LINE
8
layer0
10
1274.65472916543
20
695.806745478141
30
0
11
1277.7165913439
21
696.191126842101
31
0
0
LINE
8
layer0
10
1277.7165913439
20
696.191126842101
30
0
11
1278.98485618435
21
698.886872497064
31
0
0
LINE
8
layer0
10
1278.98485618435
20
698.886872497064
30
0
11
1277.7165913439
21
702.314851199059
31
0
0
LINE
8
layer0
10
1277.7165913439
20
702.314851199059
30
0
11
1274.65472916543
21
704.466999515986
31
0
0
LINE
8
layer0
10
1281.59286698695
20
712.74287218987
30
0
11
1284.65472916543
21
713.12725355383
31
0
0
LINE
8
layer0
10
1284.65472916543
20
713.12725355383
30
0
11
1287.7165913439
21
710.975105236904
31
0
0
LINE
8
layer0
10
1287.7165913439
20
710.975105236904
30
0
11
1288.98485618435
21
707.547126534908
31
0
0
LINE
8
layer0
10
1288.98485618435
20
707.547126534908
30
0
11
1287.7165913439
21
704.851380879946
31
0
0
LINE
8
layer0
10
1287.7165913439
20
704.851380879946
30
0
11
1284.65472916543
21
704.466999515986
31
0
0
LINE
8
layer0
10
1284.65472916543
20
704.466999515986
30
0
11
1281.59286698695
21
706.619147832912
31
0
0
LINE
8
layer0
10
1281.59286698695
20
706.619147832912
30
0
11
1280.3246021465
21
710.047126534908
31
0
0
LINE
8
layer0
10
1280.3246021465
20
710.047126534908
30
0
11
1281.59286698695
21
712.74287218987
31
0
0
ENDBLK
0
BLOCK
8
layer0
2
PF_OBJECT57
70
0
10
0
20
0
30
0
0
LINE
8
layer0
10
1398.56784302831
20
678.975105236904
30
0
11
1395.50598084983
21
681.12725355383
31
0
0
LINE
8
layer0
10
1395.50598084983
20
681.12725355383
30
0
11
1385.50598084983
21
672.466999515986
31
0
0
LINE
8
layer0
10
1385.50598084983
20
672.466999515986
30
0
11
1388.56784302831
21
670.314851199059
31
0
0
LINE
8
layer0
10
1388.56784302831
20
670.314851199059
30
0
11
1398.56784302831
21
678.975105236904
31
0
0
LINE
8
layer0
10
1399.83610786876
20
675.547126534908
30
0
11
1398.56784302831
21
678.975105236904
31
0
0
LINE
8
layer0
10
1398.56784302831
20
678.975105236904
30
0
11
1388.56784302831
21
670.314851199059
31
0
0
LINE
8
layer0
10
1388.56784302831
20
670.314851199059
30
0
11
1389.83610786876
21
666.886872497064
31
0
0
LINE
8
layer0
10
1389.83610786876
20
666.886872497064
30
0
11
1399.83610786876
21
675.547126534908
31
0
0
LINE
8
layer0
10
1398.56784302831
20
672.851380879946
30
0
11
1399.83610786876
21
675.547126534908
31
0
0
LINE
8
layer0
10
1399.83610786876
20
675.547126534908
30
0
11
1389.83610786876
21
666.886872497064
31
0
0
LINE
8
layer0
10
1389.83610786876
20
666.886872497064
30
0
11
1388.56784302831
21
664.191126842101
31
0
0
LINE
8
layer0
10
1388.56784302831
20
664.191126842101
30
0
11
1398.56784302831
21
672.851380879946
31
0
0
LINE
8
layer0
10
1395.50598084983
20
672.466999515986
30
0
11
1398.56784302831
21
672.851380879946
31
0
0
LINE
8
layer0
10
1398.56784302831
20
672.851380879946
30
0
11
1388.56784302831
21
664.191126842101
31
0
0
LINE
8
layer0
10
1388.56784302831
20
664.191126842101
30
0
11
1385.50598084983
21
663.806745478141
31
0
0
LINE
8
layer0
10
1385.50598084983
20
663.806745478141
30
0
11
1395.50598084983
21
672.466999515986
31
0
0
LINE
8
layer0
10
1392.44411867136
20
674.619147832912
30
0
11
1395.50598084983
21
672.466999515986
31
0
0
LINE
8
layer0
10
1395.50598084983
20
672.466999515986
30
0
11
1385.50598084983
21
663.806745478141
31
0
0
LINE
8
layer0
10
1385.50598084983
20
663.806745478141
30
0
11
1382.44411867136
21
665.958893795068
31
0
0
LINE
8
layer0
10
1382.44411867136
20
665.958893795068
30
0
11
1392.44411867136
21
674.619147832912
31
0
0
LINE
8
layer0
10
1391.17585383091
20
678.047126534908
30
0
11
1392.44411867136
21
674.619147832912
31
0
0
LINE
8
layer0
10
1392.44411867136
20
674.619147832912
30
0
11
1382.44411867136
21
665.958893795068
31
0
0
LINE
8
layer0
10
1382.44411867136
20
665.958893795068
30
0
11
1381.17585383091
21
669.386872497064
31
0
0
LINE
8
layer0
10
1381.17585383091
20
669.386872497064
30
0
11
1391.17585383091
21
678.047126534908
31
0
0
LINE
8
layer0
10
1392.44411867136
20
680.74287218987
30
0
11
1391.17585383091
21
678.047126534908
31
0
0
LINE
8
layer0
10
1391.17585383091
20
678.047126534908
30
0
11
1381.17585383091
21
669.386872497064
31
0
0
LINE
8
layer0
10
1381.17585383091
20
669.386872497064
30
0
11
1382.44411867136
21
672.082618152026
31
0
0
LINE
8
layer0
10
1382.44411867136
20
672.082618152026
30
0
11
1392.44411867136
21
680.74287218987
31
0
0
LINE
8
layer0
10
1395.50598084983
20
681.12725355383
30
0
11
1392.44411867136
21
680.74287218987
31
0
0
LINE
8
layer0
10
1392.44411867136
20
680.74287218987
30
0
11
1382.44411867136
21
672.082618152026
31
0
0
LINE
8
layer0
10
1382.44411867136
20
672.082618152026
30
0
11
1385.50598084983
21
672.466999515986
31
0
0
LINE
8
layer0
10
1385.50598084983
20
672.466999515986
30
0
11
1395.50598084983
21
681.12725355383
31
0
0
LINE
8
layer0
10
1385.50598084983
20
672.466999515986
30
0
11
1382.44411867136
21
672.082618152026
31
0
0
LINE
8
layer0
10
1382.44411867136
20
672.082618152026
30
0
11
1381.17585383091
21
669.386872497064
31
0
0
LINE
8
layer0
10
1381.17585383091
20
669.386872497064
30
0
11
1382.44411867136
21
665.958893795068
31
0
0
LINE
8
layer0
10
1382.44411867136
20
665.958893795068
30
0
11
1385.50598084983
21
663.806745478141
31
0
0
LINE
8
layer0
10
1385.50598084983
20
663.806745478141
30
0
11
1388.56784302831
21
664.191126842101
31
0
0
LINE
8
layer0
10
1388.56784302831
20
664.191126842101
30
0
11
1389.83610786876
21
666.886872497064
31
0
0
LINE
8
layer0
10
1389.83610786876
20
666.886872497064
30
0
11
1388.56784302831
21
670.314851199059
31
0
0
LINE
8
layer0
10
1388.56784302831
20
670.314851199059
30
0
11
1385.50598084983
21
672.466999515986
31
0
0
LINE
8
layer0
10
1392.44411867136
20
680.74287218987
30
0
11
1395.50598084983
21
681.12725355383
31
0
0
LINE
8
layer0
10
1395.50598084983
20
681.12725355383
30
0
11
1398.56784302831
21
678.975105236904
31
0
0
LINE
8
layer0
10
1398.56784302831
20
678.975105236904
30
0
11
1399.83610786876
21
675.547126534908
31
0
0
LINE
8
layer0
10
1399.83610786876
20
675.547126534908
30
0
11
1398.56784302831
21
672.851380879946
31
0
0
LINE
8
layer0
10
1398.56784302831
20
672.851380879946
30
0
11
1395.50598084983
21
672.466999515986
31
0
0
LINE
8
layer0
10
1395.50598084983
20
672.466999515986
30
0
11
1392.44411867136
21
674.619147832912
31
0
0
LINE
8
layer0
10
1392.44411867136
20
674.619147832912
30
0
11
1391.17585383091
21
678.047126534908
31
0
0
LINE
8
layer0
10
1391.17585383091
20
678.047126534908
30
0
11
1392.44411867136
21
680.74287218987
31
0
0
ENDBLK
0
BLOCK
8
layer0
2
PF_OBJECT58
70
0
10
0
20
0
30
0
0
LINE
8
layer0
10
1259.1019880427
20
709.729665764782
30
0
11
1257.33422108974
21
709.466999515986
31
0
0
LINE
8
layer0
10
1257.33422108974
20
709.466999515986
30
0
11
1402.82648892552
21
667.466999515986
31
0
0
LINE
8
layer0
10
1402.82648892552
20
667.466999515986
30
0
11
1404.59425587849
21
667.729665764782
31
0
0
LINE
8
layer0
10
1404.59425587849
20
667.729665764782
30
0
11
1259.1019880427
21
709.729665764782
31
0
0
LINE
8
layer0
10
1259.83422108974
20
707.301936006525
30
0
11
1259.1019880427
21
709.729665764782
31
0
0
LINE
8
layer0
10
1259.1019880427
20
709.729665764782
30
0
11
1404.59425587849
21
667.729665764782
31
0
0
LINE
8
layer0
10
1404.59425587849
20
667.729665764782
30
0
11
1405.32648892552
21
665.301936006525
31
0
0
LINE
8
layer0
10
1405.32648892552
20
665.301936006525
30
0
11
1259.83422108974
21
707.301936006525
31
0
0
LINE
8
layer0
10
1259.1019880427
20
703.605941407824
30
0
11
1259.83422108974
21
707.301936006525
31
0
0
LINE
8
layer0
10
1259.83422108974
20
707.301936006525
30
0
11
1405.32648892552
21
665.301936006525
31
0
0
LINE
8
layer0
10
1405.32648892552
20
665.301936006525
30
0
11
1404.59425587849
21
661.605941407824
31
0
0
LINE
8
layer0
10
1404.59425587849
20
661.605941407824
30
0
11
1259.1019880427
21
703.605941407824
31
0
0
LINE
8
layer0
10
1257.33422108974
20
700.806745478141
30
0
11
1259.1019880427
21
703.605941407824
31
0
0
LINE
8
layer0
10
1259.1019880427
20
703.605941407824
30
0
11
1404.59425587849
21
661.605941407824
31
0
0
LINE
8
layer0
10
1404.59425587849
20
661.605941407824
30
0
11
1402.82648892552
21
658.806745478141
31
0
0
LINE
8
layer0
10
1402.82648892552
20
658.806745478141
30
0
11
1257.33422108974
21
700.806745478141
31
0
0
LINE
8
layer0
10
1255.56645413677
20
700.544079229345
30
0
11
1257.33422108974
21
700.806745478141
31
0
0
LINE
8
layer0
10
1257.33422108974
20
700.806745478141
30
0
11
1402.82648892552
21
658.806745478141
31
0
0
LINE
8
layer0
10
1402.82648892552
20
658.806745478141
30
0
11
1401.05872197256
21
658.544079229345
31
0
0
LINE
8
layer0
10
1401.05872197256
20
658.544079229345
30
0
11
1255.56645413677
21
700.544079229345
31
0
0
LINE
8
layer0
10
1254.83422108974
20
702.971808987603
30
0
11
1255.56645413677
21
700.544079229345
31
0
0
LINE
8
layer0
10
1255.56645413677
20
700.544079229345
30
0
11
1401.05872197256
21
658.544079229345
31
0
0
LINE
8
layer0
10
1401.05872197256
20
658.544079229345
30
0
11
1400.32648892552
21
660.971808987603
31
0
0
LINE
8
layer0
10
1400.32648892552
20
660.971808987603
30
0
11
1254.83422108974
21
702.971808987603
31
0
0
LINE
8
layer0
10
1255.56645413677
20
706.667803586303
30
0
11
1254.83422108974
21
702.971808987603
31
0
0
LINE
8
layer0
10
1254.83422108974
20
702.971808987603
30
0
11
1400.32648892552
21
660.971808987603
31
0
0
LINE
8
layer0
10
1400.32648892552
20
660.971808987603
30
0
11
1401.05872197256
21
664.667803586303
31
0
0
LINE
8
layer0
10
1401.05872197256
20
664.667803586303
30
0
11
1255.56645413677
21
706.667803586303
31
0
0
LINE
8
layer0
10
1257.33422108974
20
709.466999515986
30
0
11
1255.56645413677
21
706.667803586303
31
0
0
LINE
8
layer0
10
1255.56645413677
20
706.667803586303
30
0
11
1401.05872197256
21
664.667803586303
31
0
0
LINE
8
layer0
10
1401.05872197256
20
664.667803586303
30
0
11
1402.82648892552
21
667.466999515986
31
0
0
LINE
8
layer0
10
1402.82648892552
20
667.466999515986
30
0
11
1257.33422108974
21
709.466999515986
31
0
0
LINE
8
layer0
10
1402.82648892552
20
667.466999515986
30
0
11
1401.05872197256
21
664.667803586303
31
0
0
LINE
8
layer0
10
1401.05872197256
20
664.667803586303
30
0
11
1400.32648892552
21
660.971808987603
31
0
0
LINE
8
layer0
10
1400.32648892552
20
660.971808987603
30
0
11
1401.05872197256
21
658.544079229345
31
0
0
LINE
8
layer0
10
1401.05872197256
20
658.544079229345
30
0
11
1402.82648892552
21
658.806745478141
31
0
0
LINE
8
layer0
10
1402.82648892552
20
658.806745478141
30
0
11
1404.59425587849
21
661.605941407824
31
0
0
LINE
8
layer0
10
1404.59425587849
20
661.605941407824
30
0
11
1405.32648892552
21
665.301936006525
31
0
0
LINE
8
layer0
10
1405.32648892552
20
665.301936006525
30
0
11
1404.59425587849
21
667.729665764782
31
0
0
LINE
8
layer0
10
1404.59425587849
20
667.729665764782
30
0
11
1402.82648892552
21
667.466999515986
31
0
0
LINE
8
layer0
10
1255.56645413677
20
706.667803586303
30
0
11
1257.33422108974
21
709.466999515986
31
0
0
LINE
8
layer0
10
1257.33422108974
20
709.466999515986
30
0
11
1259.1019880427
21
709.729665764782
31
0
0
LINE
8
layer0
10
1259.1019880427
20
709.729665764782
30
0
11
1259.83422108974
21
707.301936006525
31
0
0
LINE
8
layer0
10
1259.83422108974
20
707.301936006525
30
0
11
1259.1019880427
21
703.605941407824
31
0
0
LINE
8
layer0
10
1259.1019880427
20
703.605941407824
30
0
11
1257.33422108974
21
700.806745478141
31
0
0
LINE
8
layer0
10
1257.33422108974
20
700.806745478141
30
0
11
1255.56645413677
21
700.544079229345
31
0
0
LINE
8
layer0
10
1255.56645413677
20
700.544079229345
30
0
11
1254.83422108974
21
702.971808987603
31
0
0
LINE
8
layer0
10
1254.83422108974
20
702.971808987603
30
0
11
1255.56645413677
21
706.667803586303
31
0
0
ENDBLK
0
BLOCK
8
layer0
2
PF_OBJECT59
70
0
10
0
20
0
30
0
0
LINE
8
layer0
10
1437.54892078986
20
638.968288210022
30
0
11
923.129830941902
21
787.468288210021
31
0
0
LINE
8
layer0
10
923.129830941902
20
787.468288210021
30
0
11
923.129830941902
21
1399.74824868562
31
0
0
LINE
8
layer0
10
923.129830941902
20
1399.74824868562
30
0
11
1437.54892078986
21
1251.24824868562
31
0
0
LINE
8
layer0
10
1437.54892078986
20
1251.24824868562
30
0
11
1437.54892078986
21
638.968288210022
31
0
0
LINE
8
layer0
10
913.129830941902
20
778.808034172177
30
0
11
1427.54892078986
21
630.308034172177
31
0
0
LINE
8
layer0
10
1427.54892078986
20
630.308034172177
30
0
11
1427.54892078986
21
1242.58799464778
31
0
0
LINE
8
layer0
10
1427.54892078986
20
1242.58799464778
30
0
11
913.129830941902
21
1391.08799464778
31
0
0
LINE
8
layer0
10
913.129830941902
20
1391.08799464778
30
0
11
913.129830941902
21
778.808034172177
31
0
0
LINE
8
layer0
10
923.129830941902
20
787.468288210021
30
0
11
913.129830941902
21
778.808034172177
31
0
0
LINE
8
layer0
10
913.129830941902
20
778.808034172177
30
0
11
913.129830941902
21
1391.08799464778
31
0
0
LINE
8
layer0
10
913.129830941902
20
1391.08799464778
30
0
11
923.129830941902
21
1399.74824868562
31
0
0
LINE
8
layer0
10
923.129830941902
20
1399.74824868562
30
0
11
923.129830941902
21
787.468288210021
31
0
0
LINE
8
layer0
10
1427.54892078986
20
630.308034172177
30
0
11
1437.54892078986
21
638.968288210022
31
0
0
LINE
8
layer0
10
1437.54892078986
20
638.968288210022
30
0
11
1437.54892078986
21
1251.24824868562
31
0
0
LINE
8
layer0
10
1437.54892078986
20
1251.24824868562
30
0
11
1427.54892078986
21
1242.58799464778
31
0
0
LINE
8
layer0
10
1427.54892078986
20
1242.58799464778
30
0
11
1427.54892078986
21
630.308034172177
31
0
0
LINE
8
layer0
10
1437.54892078986
20
1251.24824868562
30
0
11
923.129830941902
21
1399.74824868562
31
0
0
LINE
8
layer0
10
923.129830941902
20
1399.74824868562
30
0
11
913.129830941902
21
1391.08799464778
31
0
0
LINE
8
layer0
10
913.129830941902
20
1391.08799464778
30
0
11
1427.54892078986
21
1242.58799464778
31
0
0
LINE
8
layer0
10
1427.54892078986
20
1242.58799464778
30
0
11
1437.54892078986
21
1251.24824868562
31
0
0
LINE
8
layer0
10
923.129830941902
20
787.468288210021
30
0
11
1437.54892078986
21
638.968288210022
31
0
0
LINE
8
layer0
10
1437.54892078986
20
638.968288210022
30
0
11
1427.54892078986
21
630.308034172177
31
0
0
LINE
8
layer0
10
1427.54892078986
20
630.308034172177
30
0
11
913.129830941902
21
778.808034172177
31
0
0
LINE
8
layer0
10
913.129830941902
20
778.808034172177
30
0
11
923.129830941902
21
787.468288210021
31
0
0
ENDBLK
0
BLOCK
8
layer0
70
0
10
0
20
0
30
0
2
PF_SKETCH60
0
LINE
8
layer0
10
1082.53175473055
20
1543.39244031005
30
0
11
1441.64699700121
21
1254.39536300265
31
0
0
ENDBLK
0
BLOCK
8
layer0
70
0
10
0
20
0
30
0
2
PF_SKETCH61
0
LINE
8
layer0
10
922.031754730548
20
1404.39536300265
30
0
11
1602.14699700121
21
1393.39244031005
31
0
0
ENDBLK
0
BLOCK
8
layer0
2
PF_OBJECT62
70
0
10
0
20
0
30
0
0
LINE
8
layer0
10
1616.00340346176
20
1080.22137115901
30
0
11
1602.14699700121
21
1084.22137115901
31
0
0
LINE
8
layer0
10
1602.14699700121
20
1084.22137115901
30
0
11
1602.14699700121
21
1393.39244031005
31
0
0
LINE
8
layer0
10
1602.14699700121
20
1393.39244031005
30
0
11
1616.00340346176
21
1389.39244031005
31
0
0
LINE
8
layer0
10
1616.00340346176
20
1389.39244031005
30
0
11
1616.00340346176
21
1080.22137115901
31
0
0
LINE
8
layer0
10
1441.64699700121
20
945.224293851605
30
0
11
1455.50340346176
21
941.224293851605
31
0
0
LINE
8
layer0
10
1455.50340346176
20
941.224293851605
30
0
11
1455.50340346176
21
1250.39536300265
31
0
0
LINE
8
layer0
10
1455.50340346176
20
1250.39536300265
30
0
11
1441.64699700121
21
1254.39536300265
31
0
0
LINE
8
layer0
10
1441.64699700121
20
1254.39536300265
30
0
11
1441.64699700121
21
945.224293851605
31
0
0
LINE
8
layer0
10
1602.14699700121
20
1084.22137115901
30
0
11
1441.64699700121
21
945.224293851605
31
0
0
LINE
8
layer0
10
1441.64699700121
20
945.224293851605
30
0
11
1441.64699700121
21
1254.39536300265
31
0
0
LINE
8
layer0
10
1441.64699700121
20
1254.39536300265
30
0
11
1602.14699700121
21
1393.39244031005
31
0
0
LINE
8
layer0
10
1602.14699700121
20
1393.39244031005
30
0
11
1602.14699700121
21
1084.22137115901
31
0
0
LINE
8
layer0
10
1455.50340346176
20
941.224293851605
30
0
11
1616.00340346176
21
1080.22137115901
31
0
0
LINE
8
layer0
10
1616.00340346176
20
1080.22137115901
30
0
11
1616.00340346176
21
1389.39244031005
31
0
0
LINE
8
layer0
10
1616.00340346176
20
1389.39244031005
30
0
11
1455.50340346176
21
1250.39536300265
31
0
0
LINE
8
layer0
10
1455.50340346176
20
1250.39536300265
30
0
11
1455.50340346176
21
941.224293851605
31
0
0
LINE
8
layer0
10
1616.00340346176
20
1389.39244031005
30
0
11
1602.14699700121
21
1393.39244031005
31
0
0
LINE
8
layer0
10
1602.14699700121
20
1393.39244031005
30
0
11
1441.64699700121
21
1254.39536300265
31
0
0
LINE
8
layer0
10
1441.64699700121
20
1254.39536300265
30
0
11
1455.50340346176
21
1250.39536300265
31
0
0
LINE
8
layer0
10
1455.50340346176
20
1250.39536300265
30
0
11
1616.00340346176
21
1389.39244031005
31
0
0
LINE
8
layer0
10
1602.14699700121
20
1084.22137115901
30
0
11
1616.00340346176
21
1080.22137115901
31
0
0
LINE
8
layer0
10
1616.00340346176
20
1080.22137115901
30
0
11
1455.50340346176
21
941.224293851605
31
0
0
LINE
8
layer0
10
1455.50340346176
20
941.224293851605
30
0
11
1441.64699700121
21
945.224293851605
31
0
0
LINE
8
layer0
10
1441.64699700121
20
945.224293851605
30
0
11
1602.14699700121
21
1084.22137115901
31
0
0
ENDBLK
0
BLOCK
8
layer0
2
PF_OBJECT63
70
0
10
0
20
0
30
0
0
LINE
8
layer0
10
2121.76223927187
20
934.221371159008
30
0
11
2107.90583281132
21
938.221371159008
31
0
0
LINE
8
layer0
10
2107.90583281132
20
938.221371159008
30
0
11
2107.90583281132
21
1247.39244031005
31
0
0
LINE
8
layer0
10
2107.90583281132
20
1247.39244031005
30
0
11
2121.76223927187
21
1243.39244031005
31
0
0
LINE
8
layer0
10
2121.76223927187
20
1243.39244031005
30
0
11
2121.76223927187
21
934.221371159008
31
0
0
LINE
8
layer0
10
1947.40583281132
20
799.224293851605
30
0
11
1961.26223927187
21
795.224293851605
31
0
0
LINE
8
layer0
10
1961.26223927187
20
795.224293851605
30
0
11
1961.26223927187
21
1104.39536300265
31
0
0
LINE
8
layer0
10
1961.26223927187
20
1104.39536300265
30
0
11
1947.40583281132
21
1108.39536300265
31
0
0
LINE
8
layer0
10
1947.40583281132
20
1108.39536300265
30
0
11
1947.40583281132
21
799.224293851605
31
0
0
LINE
8
layer0
10
2107.90583281132
20
938.221371159008
30
0
11
1947.40583281132
21
799.224293851605
31
0
0
LINE
8
layer0
10
1947.40583281132
20
799.224293851605
30
0
11
1947.40583281132
21
1108.39536300265
31
0
0
LINE
8
layer0
10
1947.40583281132
20
1108.39536300265
30
0
11
2107.90583281132
21
1247.39244031005
31
0
0
LINE
8
layer0
10
2107.90583281132
20
1247.39244031005
30
0
11
2107.90583281132
21
938.221371159008
31
0
0
LINE
8
layer0
10
1961.26223927187
20
795.224293851605
30
0
11
2121.76223927187
21
934.221371159008
31
0
0
LINE
8
layer0
10
2121.76223927187
20
934.221371159008
30
0
11
2121.76223927187
21
1243.39244031005
31
0
0
LINE
8
layer0
10
2121.76223927187
20
1243.39244031005
30
0
11
1961.26223927187
21
1104.39536300265
31
0
0
LINE
8
layer0
10
1961.26223927187
20
1104.39536300265
30
0
11
1961.26223927187
21
795.224293851605
31
0
0
LINE
8
layer0
10
2121.76223927187
20
1243.39244031005
30
0
11
2107.90583281132
21
1247.39244031005
31
0
0
LINE
8
layer0
10
2107.90583281132
20
1247.39244031005
30
0
11
1947.40583281132
21
1108.39536300265
31
0
0
LINE
8
layer0
10
1947.40583281132
20
1108.39536300265
30
0
11
1961.26223927187
21
1104.39536300265
31
0
0
LINE
8
layer0
10
1961.26223927187
20
1104.39536300265
30
0
11
2121.76223927187
21
1243.39244031005
31
0
0
LINE
8
layer0
10
2107.90583281132
20
938.221371159008
30
0
11
2121.76223927187
21
934.221371159008
31
0
0
LINE
8
layer0
10
2121.76223927187
20
934.221371159008
30
0
11
1961.26223927187
21
795.224293851605
31
0
0
LINE
8
layer0
10
1961.26223927187
20
795.224293851605
30
0
11
1947.40583281132
21
799.224293851605
31
0
0
LINE
8
layer0
10
1947.40583281132
20
799.224293851605
30
0
11
2107.90583281132
21
938.221371159008
31
0
0
ENDBLK
0
BLOCK
8
layer0
2
PF_OBJECT64
70
0
10
0
20
0
30
0
0
LINE
8
layer0
10
2095.90583281132
20
927.829066313594
30
0
11
1604.00340346176
21
1069.82906631359
31
0
0
LINE
8
layer0
10
1604.00340346176
20
1069.82906631359
30
0
11
1604.00340346176
21
1083.68547277415
31
0
0
LINE
8
layer0
10
1604.00340346176
20
1083.68547277415
30
0
11
2095.90583281132
21
941.685472774145
31
0
0
LINE
8
layer0
10
2095.90583281132
20
941.685472774145
30
0
11
2095.90583281132
21
927.829066313594
31
0
0
LINE
8
layer0
10
1456.00340346176
20
941.657306553497
30
0
11
1947.90583281132
21
799.657306553497
31
0
0
LINE
8
layer0
10
1947.90583281132
20
799.657306553497
30
0
11
1947.90583281132
21
813.513713014048
31
0
0
LINE
8
layer0
10
1947.90583281132
20
813.513713014048
30
0
11
1456.00340346176
21
955.513713014048
31
0
0
LINE
8
layer0
10
1456.00340346176
20
955.513713014048
30
0
11
1456.00340346176
21
941.657306553497
31
0
0
LINE
8
layer0
10
1604.00340346176
20
1069.82906631359
30
0
11
1456.00340346176
21
941.657306553497
31
0
0
LINE
8
layer0
10
1456.00340346176
20
941.657306553497
30
0
11
1456.00340346176
21
955.513713014048
31
0
0
LINE
8
layer0
10
1456.00340346176
20
955.513713014048
30
0
11
1604.00340346176
21
1083.68547277415
31
0
0
LINE
8
layer0
10
1604.00340346176
20
1083.68547277415
30
0
11
1604.00340346176
21
1069.82906631359
31
0
0
LINE
8
layer0
10
1947.90583281132
20
799.657306553497
30
0
11
2095.90583281132
21
927.829066313594
31
0
0
LINE
8
layer0
10
2095.90583281132
20
927.829066313594
30
0
11
2095.90583281132
21
941.685472774145
31
0
0
LINE
8
layer0
10
2095.90583281132
20
941.685472774145
30
0
11
1947.90583281132
21
813.513713014048
31
0
0
LINE
8
layer0
10
1947.90583281132
20
813.513713014048
30
0
11
1947.90583281132
21
799.657306553497
31
0
0
LINE
8
layer0
10
2095.90583281132
20
941.685472774145
30
0
11
1604.00340346176
21
1083.68547277415
31
0
0
LINE
8
layer0
10
1604.00340346176
20
1083.68547277415
30
0
11
1456.00340346176
21
955.513713014048
31
0
0
LINE
8
layer0
10
1456.00340346176
20
955.513713014048
30
0
11
1947.90583281132
21
813.513713014048
31
0
0
LINE
8
layer0
10
1947.90583281132
20
813.513713014048
30
0
11
2095.90583281132
21
941.685472774145
31
0
0
LINE
8
layer0
10
1604.00340346176
20
1069.82906631359
30
0
11
2095.90583281132
21
927.829066313594
31
0
0
LINE
8
layer0
10
2095.90583281132
20
927.829066313594
30
0
11
1947.90583281132
21
799.657306553497
31
0
0
LINE
8
layer0
10
1947.90583281132
20
799.657306553497
30
0
11
1456.00340346176
21
941.657306553497
31
0
0
LINE
8
layer0
10
1456.00340346176
20
941.657306553497
30
0
11
1604.00340346176
21
1069.82906631359
31
0
0
ENDBLK
0
BLOCK
8
layer0
2
PF_OBJECT65
70
0
10
0
20
0
30
0
0
LINE
8
layer0
10
2097.90583281132
20
929.561117121163
30
0
11
1606.00340346176
21
1071.56111712116
31
0
0
LINE
8
layer0
10
1606.00340346176
20
1071.56111712116
30
0
11
1606.00340346176
21
1380.73218627221
31
0
0
LINE
8
layer0
10
1606.00340346176
20
1380.73218627221
30
0
11
2097.90583281132
21
1238.73218627221
31
0
0
LINE
8
layer0
10
2097.90583281132
20
1238.73218627221
30
0
11
2097.90583281132
21
929.561117121163
31
0
0
LINE
8
layer0
10
1604.00340346176
20
1069.82906631359
30
0
11
2095.90583281132
21
927.829066313594
31
0
0
LINE
8
layer0
10
2095.90583281132
20
927.829066313594
30
0
11
2095.90583281132
21
1237.00013546464
31
0
0
LINE
8
layer0
10
2095.90583281132
20
1237.00013546464
30
0
11
1604.00340346176
21
1379.00013546464
31
0
0
LINE
8
layer0
10
1604.00340346176
20
1379.00013546464
30
0
11
1604.00340346176
21
1069.82906631359
31
0
0
LINE
8
layer0
10
1606.00340346176
20
1071.56111712116
30
0
11
1604.00340346176
21
1069.82906631359
31
0
0
LINE
8
layer0
10
1604.00340346176
20
1069.82906631359
30
0
11
1604.00340346176
21
1379.00013546464
31
0
0
LINE
8
layer0
10
1604.00340346176
20
1379.00013546464
30
0
11
1606.00340346176
21
1380.73218627221
31
0
0
LINE
8
layer0
10
1606.00340346176
20
1380.73218627221
30
0
11
1606.00340346176
21
1071.56111712116
31
0
0
LINE
8
layer0
10
2095.90583281132
20
927.829066313594
30
0
11
2097.90583281132
21
929.561117121163
31
0
0
LINE
8
layer0
10
2097.90583281132
20
929.561117121163
30
0
11
2097.90583281132
21
1238.73218627221
31
0
0
LINE
8
layer0
10
2097.90583281132
20
1238.73218627221
30
0
11
2095.90583281132
21
1237.00013546464
31
0
0
LINE
8
layer0
10
2095.90583281132
20
1237.00013546464
30
0
11
2095.90583281132
21
927.829066313594
31
0
0
LINE
8
layer0
10
2097.90583281132
20
1238.73218627221
30
0
11
1606.00340346176
21
1380.73218627221
31
0
0
LINE
8
layer0
10
1606.00340346176
20
1380.73218627221
30
0
11
1604.00340346176
21
1379.00013546464
31
0
0
LINE
8
layer0
10
1604.00340346176
20
1379.00013546464
30
0
11
2095.90583281132
21
1237.00013546464
31
0
0
LINE
8
layer0
10
2095.90583281132
20
1237.00013546464
30
0
11
2097.90583281132
21
1238.73218627221
31
0
0
LINE
8
layer0
10
1606.00340346176
20
1071.56111712116
30
0
11
2097.90583281132
21
929.561117121163
31
0
0
LINE
8
layer0
10
2097.90583281132
20
929.561117121163
30
0
11
2095.90583281132
21
927.829066313594
31
0
0
LINE
8
layer0
10
2095.90583281132
20
927.829066313594
30
0
11
1604.00340346176
21
1069.82906631359
31
0
0
LINE
8
layer0
10
1604.00340346176
20
1069.82906631359
30
0
11
1606.00340346176
21
1071.56111712116
31
0
0
ENDBLK
0
BLOCK
8
layer0
2
PF_OBJECT66
70
0
10
0
20
0
30
0
0
LINE
8
layer0
10
2095.90583281132
20
1223.14372900409
30
0
11
1604.00340346176
21
1365.14372900409
31
0
0
LINE
8
layer0
10
1604.00340346176
20
1365.14372900409
30
0
11
1604.00340346176
21
1379.00013546464
31
0
0
LINE
8
layer0
10
1604.00340346176
20
1379.00013546464
30
0
11
2095.90583281132
21
1237.00013546464
31
0
0
LINE
8
layer0
10
2095.90583281132
20
1237.00013546464
30
0
11
2095.90583281132
21
1223.14372900409
31
0
0
LINE
8
layer0
10
1456.00340346176
20
1236.97196924399
30
0
11
1947.90583281132
21
1094.97196924399
31
0
0
LINE
8
layer0
10
1947.90583281132
20
1094.97196924399
30
0
11
1947.90583281132
21
1108.82837570454
31
0
0
LINE
8
layer0
10
1947.90583281132
20
1108.82837570454
30
0
11
1456.00340346176
21
1250.82837570454
31
0
0
LINE
8
layer0
10
1456.00340346176
20
1250.82837570454
30
0
11
1456.00340346176
21
1236.97196924399
31
0
0
LINE
8
layer0
10
1604.00340346176
20
1365.14372900409
30
0
11
1456.00340346176
21
1236.97196924399
31
0
0
LINE
8
layer0
10
1456.00340346176
20
1236.97196924399
30
0
11
1456.00340346176
21
1250.82837570454
31
0
0
LINE
8
layer0
10
1456.00340346176
20
1250.82837570454
30
0
11
1604.00340346176
21
1379.00013546464
31
0
0
LINE
8
layer0
10
1604.00340346176
20
1379.00013546464
30
0
11
1604.00340346176
21
1365.14372900409
31
0
0
LINE
8
layer0
10
1947.90583281132
20
1094.97196924399
30
0
11
2095.90583281132
21
1223.14372900409
31
0
0
LINE
8
layer0
10
2095.90583281132
20
1223.14372900409
30
0
11
2095.90583281132
21
1237.00013546464
31
0
0
LINE
8
layer0
10
2095.90583281132
20
1237.00013546464
30
0
11
1947.90583281132
21
1108.82837570454
31
0
0
LINE
8
layer0
10
1947.90583281132
20
1108.82837570454
30
0
11
1947.90583281132
21
1094.97196924399
31
0
0
LINE
8
layer0
10
2095.90583281132
20
1237.00013546464
30
0
11
1604.00340346176
21
1379.00013546464
31
0
0
LINE
8
layer0
10
1604.00340346176
20
1379.00013546464
30
0
11
1456.00340346176
21
1250.82837570454
31
0
0
LINE
8
layer0
10
1456.00340346176
20
1250.82837570454
30
0
11
1947.90583281132
21
1108.82837570454
31
0
0
LINE
8
layer0
10
1947.90583281132
20
1108.82837570454
30
0
11
2095.90583281132
21
1237.00013546464
31
0
0
LINE
8
layer0
10
1604.00340346176
20
1365.14372900409
30
0
11
2095.90583281132
21
1223.14372900409
31
0
0
LINE
8
layer0
10
2095.90583281132
20
1223.14372900409
30
0
11
1947.90583281132
21
1094.97196924399
31
0
0
LINE
8
layer0
10
1947.90583281132
20
1094.97196924399
30
0
11
1456.00340346176
21
1236.97196924399
31
0
0
LINE
8
layer0
10
1456.00340346176
20
1236.97196924399
30
0
11
1604.00340346176
21
1365.14372900409
31
0
0
ENDBLK
0
BLOCK
8
layer0
2
PF_OBJECT67
70
0
10
0
20
0
30
0
0
LINE
8
layer0
10
1634.99277826146
20
919.030148984164
30
0
11
1631.93091608299
21
921.18229730109
31
0
0
LINE
8
layer0
10
1631.93091608299
20
921.18229730109
30
0
11
1621.93091608299
21
912.522043263246
31
0
0
LINE
8
layer0
10
1621.93091608299
20
912.522043263246
30
0
11
1624.99277826146
21
910.36989494632
31
0
0
LINE
8
layer0
10
1624.99277826146
20
910.36989494632
30
0
11
1634.99277826146
21
919.030148984164
31
0
0
LINE
8
layer0
10
1636.26104310191
20
915.602170282168
30
0
11
1634.99277826146
21
919.030148984164
31
0
0
LINE
8
layer0
10
1634.99277826146
20
919.030148984164
30
0
11
1624.99277826146
21
910.36989494632
31
0
0
LINE
8
layer0
10
1624.99277826146
20
910.36989494632
30
0
11
1626.26104310191
21
906.941916244324
31
0
0
LINE
8
layer0
10
1626.26104310191
20
906.941916244324
30
0
11
1636.26104310191
21
915.602170282168
31
0
0
LINE
8
layer0
10
1634.99277826146
20
912.906424627206
30
0
11
1636.26104310191
21
915.602170282168
31
0
0
LINE
8
layer0
10
1636.26104310191
20
915.602170282168
30
0
11
1626.26104310191
21
906.941916244324
31
0
0
LINE
8
layer0
10
1626.26104310191
20
906.941916244324
30
0
11
1624.99277826146
21
904.246170589362
31
0
0
LINE
8
layer0
10
1624.99277826146
20
904.246170589362
30
0
11
1634.99277826146
21
912.906424627206
31
0
0
LINE
8
layer0
10
1631.93091608299
20
912.522043263246
30
0
11
1634.99277826146
21
912.906424627206
31
0
0
LINE
8
layer0
10
1634.99277826146
20
912.906424627206
30
0
11
1624.99277826146
21
904.246170589362
31
0
0
LINE
8
layer0
10
1624.99277826146
20
904.246170589362
30
0
11
1621.93091608299
21
903.861789225402
31
0
0
LINE
8
layer0
10
1621.93091608299
20
903.861789225402
30
0
11
1631.93091608299
21
912.522043263246
31
0
0
LINE
8
layer0
10
1628.86905390451
20
914.674191580172
30
0
11
1631.93091608299
21
912.522043263246
31
0
0
LINE
8
layer0
10
1631.93091608299
20
912.522043263246
30
0
11
1621.93091608299
21
903.861789225402
31
0
0
LINE
8
layer0
10
1621.93091608299
20
903.861789225402
30
0
11
1618.86905390451
21
906.013937542328
31
0
0
LINE
8
layer0
10
1618.86905390451
20
906.013937542328
30
0
11
1628.86905390451
21
914.674191580172
31
0
0
LINE
8
layer0
10
1627.60078906406
20
918.102170282168
30
0
11
1628.86905390451
21
914.674191580172
31
0
0
LINE
8
layer0
10
1628.86905390451
20
914.674191580172
30
0
11
1618.86905390451
21
906.013937542328
31
0
0
LINE
8
layer0
10
1618.86905390451
20
906.013937542328
30
0
11
1617.60078906406
21
909.441916244324
31
0
0
LINE
8
layer0
10
1617.60078906406
20
909.441916244324
30
0
11
1627.60078906406
21
918.102170282168
31
0
0
LINE
8
layer0
10
1628.86905390451
20
920.79791593713
30
0
11
1627.60078906406
21
918.102170282168
31
0
0
LINE
8
layer0
10
1627.60078906406
20
918.102170282168
30
0
11
1617.60078906406
21
909.441916244324
31
0
0
LINE
8
layer0
10
1617.60078906406
20
909.441916244324
30
0
11
1618.86905390451
21
912.137661899286
31
0
0
LINE
8
layer0
10
1618.86905390451
20
912.137661899286
30
0
11
1628.86905390451
21
920.79791593713
31
0
0
LINE
8
layer0
10
1631.93091608299
20
921.18229730109
30
0
11
1628.86905390451
21
920.79791593713
31
0
0
LINE
8
layer0
10
1628.86905390451
20
920.79791593713
30
0
11
1618.86905390451
21
912.137661899286
31
0
0
LINE
8
layer0
10
1618.86905390451
20
912.137661899286
30
0
11
1621.93091608299
21
912.522043263246
31
0
0
LINE
8
layer0
10
1621.93091608299
20
912.522043263246
30
0
11
1631.93091608299
21
921.18229730109
31
0
0
LINE
8
layer0
10
1621.93091608299
20
912.522043263246
30
0
11
1618.86905390451
21
912.137661899286
31
0
0
LINE
8
layer0
10
1618.86905390451
20
912.137661899286
30
0
11
1617.60078906406
21
909.441916244324
31
0
0
LINE
8
layer0
10
1617.60078906406
20
909.441916244324
30
0
11
1618.86905390451
21
906.013937542328
31
0
0
LINE
8
layer0
10
1618.86905390451
20
906.013937542328
30
0
11
1621.93091608299
21
903.861789225402
31
0
0
LINE
8
layer0
10
1621.93091608299
20
903.861789225402
30
0
11
1624.99277826146
21
904.246170589362
31
0
0
LINE
8
layer0
10
1624.99277826146
20
904.246170589362
30
0
11
1626.26104310191
21
906.941916244324
31
0
0
LINE
8
layer0
10
1626.26104310191
20
906.941916244324
30
0
11
1624.99277826146
21
910.36989494632
31
0
0
LINE
8
layer0
10
1624.99277826146
20
910.36989494632
30
0
11
1621.93091608299
21
912.522043263246
31
0
0
LINE
8
layer0
10
1628.86905390451
20
920.79791593713
30
0
11
1631.93091608299
21
921.18229730109
31
0
0
LINE
8
layer0
10
1631.93091608299
20
921.18229730109
30
0
11
1634.99277826146
21
919.030148984164
31
0
0
LINE
8
layer0
10
1634.99277826146
20
919.030148984164
30
0
11
1636.26104310191
21
915.602170282168
31
0
0
LINE
8
layer0
10
1636.26104310191
20
915.602170282168
30
0
11
1634.99277826146
21
912.906424627206
31
0
0
LINE
8
layer0
10
1634.99277826146
20
912.906424627206
30
0
11
1631.93091608299
21
912.522043263246
31
0
0
LINE
8
layer0
10
1631.93091608299
20
912.522043263246
30
0
11
1628.86905390451
21
914.674191580172
31
0
0
LINE
8
layer0
10
1628.86905390451
20
914.674191580172
30
0
11
1627.60078906406
21
918.102170282168
31
0
0
LINE
8
layer0
10
1627.60078906406
20
918.102170282168
30
0
11
1628.86905390451
21
920.79791593713
31
0
0
ENDBLK
0
BLOCK
8
layer0
2
PF_OBJECT68
70
0
10
0
20
0
30
0
0
LINE
8
layer0
10
1745.84402994587
20
887.030148984164
30
0
11
1742.78216776739
21
889.18229730109
31
0
0
LINE
8
layer0
10
1742.78216776739
20
889.18229730109
30
0
11
1732.78216776739
21
880.522043263246
31
0
0
LINE
8
layer0
10
1732.78216776739
20
880.522043263246
30
0
11
1735.84402994587
21
878.36989494632
31
0
0
LINE
8
layer0
10
1735.84402994587
20
878.36989494632
30
0
11
1745.84402994587
21
887.030148984164
31
0
0
LINE
8
layer0
10
1747.11229478632
20
883.602170282168
30
0
11
1745.84402994587
21
887.030148984164
31
0
0
LINE
8
layer0
10
1745.84402994587
20
887.030148984164
30
0
11
1735.84402994587
21
878.36989494632
31
0
0
LINE
8
layer0
10
1735.84402994587
20
878.36989494632
30
0
11
1737.11229478632
21
874.941916244324
31
0
0
LINE
8
layer0
10
1737.11229478632
20
874.941916244324
30
0
11
1747.11229478632
21
883.602170282168
31
0
0
LINE
8
layer0
10
1745.84402994587
20
880.906424627206
30
0
11
1747.11229478632
21
883.602170282168
31
0
0
LINE
8
layer0
10
1747.11229478632
20
883.602170282168
30
0
11
1737.11229478632
21
874.941916244324
31
0
0
LINE
8
layer0
10
1737.11229478632
20
874.941916244324
30
0
11
1735.84402994587
21
872.246170589362
31
0
0
LINE
8
layer0
10
1735.84402994587
20
872.246170589362
30
0
11
1745.84402994587
21
880.906424627206
31
0
0
LINE
8
layer0
10
1742.78216776739
20
880.522043263246
30
0
11
1745.84402994587
21
880.906424627206
31
0
0
LINE
8
layer0
10
1745.84402994587
20
880.906424627206
30
0
11
1735.84402994587
21
872.246170589362
31
0
0
LINE
8
layer0
10
1735.84402994587
20
872.246170589362
30
0
11
1732.78216776739
21
871.861789225402
31
0
0
LINE
8
layer0
10
1732.78216776739
20
871.861789225402
30
0
11
1742.78216776739
21
880.522043263246
31
0
0
LINE
8
layer0
10
1739.72030558891
20
882.674191580172
30
0
11
1742.78216776739
21
880.522043263246
31
0
0
LINE
8
layer0
10
1742.78216776739
20
880.522043263246
30
0
11
1732.78216776739
21
871.861789225402
31
0
0
LINE
8
layer0
10
1732.78216776739
20
871.861789225402
30
0
11
1729.72030558891
21
874.013937542328
31
0
0
LINE
8
layer0
10
1729.72030558891
20
874.013937542328
30
0
11
1739.72030558891
21
882.674191580172
31
0
0
LINE
8
layer0
10
1738.45204074847
20
886.102170282168
30
0
11
1739.72030558891
21
882.674191580172
31
0
0
LINE
8
layer0
10
1739.72030558891
20
882.674191580172
30
0
11
1729.72030558891
21
874.013937542328
31
0
0
LINE
8
layer0
10
1729.72030558891
20
874.013937542328
30
0
11
1728.45204074847
21
877.441916244324
31
0
0
LINE
8
layer0
10
1728.45204074847
20
877.441916244324
30
0
11
1738.45204074847
21
886.102170282168
31
0
0
LINE
8
layer0
10
1739.72030558891
20
888.79791593713
30
0
11
1738.45204074847
21
886.102170282168
31
0
0
LINE
8
layer0
10
1738.45204074847
20
886.102170282168
30
0
11
1728.45204074847
21
877.441916244324
31
0
0
LINE
8
layer0
10
1728.45204074847
20
877.441916244324
30
0
11
1729.72030558891
21
880.137661899286
31
0
0
LINE
8
layer0
10
1729.72030558891
20
880.137661899286
30
0
11
1739.72030558891
21
888.79791593713
31
0
0
LINE
8
layer0
10
1742.78216776739
20
889.18229730109
30
0
11
1739.72030558891
21
888.79791593713
31
0
0
LINE
8
layer0
10
1739.72030558891
20
888.79791593713
30
0
11
1729.72030558891
21
880.137661899286
31
0
0
LINE
8
layer0
10
1729.72030558891
20
880.137661899286
30
0
11
1732.78216776739
21
880.522043263246
31
0
0
LINE
8
layer0
10
1732.78216776739
20
880.522043263246
30
0
11
1742.78216776739
21
889.18229730109
31
0
0
LINE
8
layer0
10
1732.78216776739
20
880.522043263246
30
0
11
1729.72030558891
21
880.137661899286
31
0
0
LINE
8
layer0
10
1729.72030558891
20
880.137661899286
30
0
11
1728.45204074847
21
877.441916244324
31
0
0
LINE
8
layer0
10
1728.45204074847
20
877.441916244324
30
0
11
1729.72030558891
21
874.013937542328
31
0
0
LINE
8
layer0
10
1729.72030558891
20
874.013937542328
30
0
11
1732.78216776739
21
871.861789225402
31
0
0
LINE
8
layer0
10
1732.78216776739
20
871.861789225402
30
0
11
1735.84402994587
21
872.246170589362
31
0
0
LINE
8
layer0
10
1735.84402994587
20
872.246170589362
30
0
11
1737.11229478632
21
874.941916244324
31
0
0
LINE
8
layer0
10
1737.11229478632
20
874.941916244324
30
0
11
1735.84402994587
21
878.36989494632
31
0
0
LINE
8
layer0
10
1735.84402994587
20
878.36989494632
30
0
11
1732.78216776739
21
880.522043263246
31
0
0
LINE
8
layer0
10
1739.72030558891
20
888.79791593713
30
0
11
1742.78216776739
21
889.18229730109
31
0
0
LINE
8
layer0
10
1742.78216776739
20
889.18229730109
30
0
11
1745.84402994587
21
887.030148984164
31
0
0
LINE
8
layer0
10
1745.84402994587
20
887.030148984164
30
0
11
1747.11229478632
21
883.602170282168
31
0
0
LINE
8
layer0
10
1747.11229478632
20
883.602170282168
30
0
11
1745.84402994587
21
880.906424627206
31
0
0
LINE
8
layer0
10
1745.84402994587
20
880.906424627206
30
0
11
1742.78216776739
21
880.522043263246
31
0
0
LINE
8
layer0
10
1742.78216776739
20
880.522043263246
30
0
11
1739.72030558891
21
882.674191580172
31
0
0
LINE
8
layer0
10
1739.72030558891
20
882.674191580172
30
0
11
1738.45204074847
21
886.102170282168
31
0
0
LINE
8
layer0
10
1738.45204074847
20
886.102170282168
30
0
11
1739.72030558891
21
888.79791593713
31
0
0
ENDBLK
0
BLOCK
8
layer0
2
PF_OBJECT69
70
0
10
0
20
0
30
0
0
LINE
8
layer0
10
1606.37817496026
20
917.784709512042
30
0
11
1604.6104080073
21
917.522043263246
31
0
0
LINE
8
layer0
10
1604.6104080073
20
917.522043263246
30
0
11
1750.10267584308
21
875.522043263246
31
0
0
LINE
8
layer0
10
1750.10267584308
20
875.522043263246
30
0
11
1751.87044279605
21
875.784709512042
31
0
0
LINE
8
layer0
10
1751.87044279605
20
875.784709512042
30
0
11
1606.37817496026
21
917.784709512042
31
0
0
LINE
8
layer0
10
1607.1104080073
20
915.356979753785
30
0
11
1606.37817496026
21
917.784709512042
31
0
0
LINE
8
layer0
10
1606.37817496026
20
917.784709512042
30
0
11
1751.87044279605
21
875.784709512042
31
0
0
LINE
8
layer0
10
1751.87044279605
20
875.784709512042
30
0
11
1752.60267584308
21
873.356979753785
31
0
0
LINE
8
layer0
10
1752.60267584308
20
873.356979753785
30
0
11
1607.1104080073
21
915.356979753785
31
0
0
LINE
8
layer0
10
1606.37817496026
20
911.660985155084
30
0
11
1607.1104080073
21
915.356979753785
31
0
0
LINE
8
layer0
10
1607.1104080073
20
915.356979753785
30
0
11
1752.60267584308
21
873.356979753785
31
0
0
LINE
8
layer0
10
1752.60267584308
20
873.356979753785
30
0
11
1751.87044279605
21
869.660985155084
31
0
0
LINE
8
layer0
10
1751.87044279605
20
869.660985155084
30
0
11
1606.37817496026
21
911.660985155084
31
0
0
LINE
8
layer0
10
1604.6104080073
20
908.861789225402
30
0
11
1606.37817496026
21
911.660985155084
31
0
0
LINE
8
layer0
10
1606.37817496026
20
911.660985155084
30
0
11
1751.87044279605
21
869.660985155084
31
0
0
LINE
8
layer0
10
1751.87044279605
20
869.660985155084
30
0
11
1750.10267584308
21
866.861789225402
31
0
0
LINE
8
layer0
10
1750.10267584308
20
866.861789225402
30
0
11
1604.6104080073
21
908.861789225402
31
0
0
LINE
8
layer0
10
1602.84264105433
20
908.599122976605
30
0
11
1604.6104080073
21
908.861789225402
31
0
0
LINE
8
layer0
10
1604.6104080073
20
908.861789225402
30
0
11
1750.10267584308
21
866.861789225402
31
0
0
LINE
8
layer0
10
1750.10267584308
20
866.861789225402
30
0
11
1748.33490889012
21
866.599122976605
31
0
0
LINE
8
layer0
10
1748.33490889012
20
866.599122976605
30
0
11
1602.84264105433
21
908.599122976605
31
0
0
LINE
8
layer0
10
1602.1104080073
20
911.026852734863
30
0
11
1602.84264105433
21
908.599122976605
31
0
0
LINE
8
layer0
10
1602.84264105433
20
908.599122976605
30
0
11
1748.33490889012
21
866.599122976605
31
0
0
LINE
8
layer0
10
1748.33490889012
20
866.599122976605
30
0
11
1747.60267584308
21
869.026852734863
31
0
0
LINE
8
layer0
10
1747.60267584308
20
869.026852734863
30
0
11
1602.1104080073
21
911.026852734863
31
0
0
LINE
8
layer0
10
1602.84264105433
20
914.722847333563
30
0
11
1602.1104080073
21
911.026852734863
31
0
0
LINE
8
layer0
10
1602.1104080073
20
911.026852734863
30
0
11
1747.60267584308
21
869.026852734863
31
0
0
LINE
8
layer0
10
1747.60267584308
20
869.026852734863
30
0
11
1748.33490889012
21
872.722847333563
31
0
0
LINE
8
layer0
10
1748.33490889012
20
872.722847333563
30
0
11
1602.84264105433
21
914.722847333563
31
0
0
LINE
8
layer0
10
1604.6104080073
20
917.522043263246
30
0
11
1602.84264105433
21
914.722847333563
31
0
0
LINE
8
layer0
10
1602.84264105433
20
914.722847333563
30
0
11
1748.33490889012
21
872.722847333563
31
0
0
LINE
8
layer0
10
1748.33490889012
20
872.722847333563
30
0
11
1750.10267584308
21
875.522043263246
31
0
0
LINE
8
layer0
10
1750.10267584308
20
875.522043263246
30
0
11
1604.6104080073
21
917.522043263246
31
0
0
LINE
8
layer0
10
1750.10267584308
20
875.522043263246
30
0
11
1748.33490889012
21
872.722847333563
31
0
0
LINE
8
layer0
10
1748.33490889012
20
872.722847333563
30
0
11
1747.60267584308
21
869.026852734863
31
0
0
LINE
8
layer0
10
1747.60267584308
20
869.026852734863
30
0
11
1748.33490889012
21
866.599122976605
31
0
0
LINE
8
layer0
10
1748.33490889012
20
866.599122976605
30
0
11
1750.10267584308
21
866.861789225402
31
0
0
LINE
8
layer0
10
1750.10267584308
20
866.861789225402
30
0
11
1751.87044279605
21
869.660985155084
31
0
0
LINE
8
layer0
10
1751.87044279605
20
869.660985155084
30
0
11
1752.60267584308
21
873.356979753785
31
0
0
LINE
8
layer0
10
1752.60267584308
20
873.356979753785
30
0
11
1751.87044279605
21
875.784709512042
31
0
0
LINE
8
layer0
10
1751.87044279605
20
875.784709512042
30
0
11
1750.10267584308
21
875.522043263246
31
0
0
LINE
8
layer0
10
1602.84264105433
20
914.722847333563
30
0
11
1604.6104080073
21
917.522043263246
31
0
0
LINE
8
layer0
10
1604.6104080073
20
917.522043263246
30
0
11
1606.37817496026
21
917.784709512042
31
0
0
LINE
8
layer0
10
1606.37817496026
20
917.784709512042
30
0
11
1607.1104080073
21
915.356979753785
31
0
0
LINE
8
layer0
10
1607.1104080073
20
915.356979753785
30
0
11
1606.37817496026
21
911.660985155084
31
0
0
LINE
8
layer0
10
1606.37817496026
20
911.660985155084
30
0
11
1604.6104080073
21
908.861789225402
31
0
0
LINE
8
layer0
10
1604.6104080073
20
908.861789225402
30
0
11
1602.84264105433
21
908.599122976605
31
0
0
LINE
8
layer0
10
1602.84264105433
20
908.599122976605
30
0
11
1602.1104080073
21
911.026852734863
31
0
0
LINE
8
layer0
10
1602.1104080073
20
911.026852734863
30
0
11
1602.84264105433
21
914.722847333563
31
0
0
ENDBLK
0
BLOCK
8
layer0
2
PF_OBJECT70
70
0
10
0
20
0
30
0
0
LINE
8
layer0
10
1957.16416306052
20
797.273331957282
30
0
11
1442.74507321256
21
945.773331957282
31
0
0
LINE
8
layer0
10
1442.74507321256
20
945.773331957282
30
0
11
1442.74507321256
21
1249.74824868562
31
0
0
LINE
8
layer0
10
1442.74507321256
20
1249.74824868562
30
0
11
1957.16416306052
21
1101.24824868562
31
0
0
LINE
8
layer0
10
1957.16416306052
20
1101.24824868562
30
0
11
1957.16416306052
21
797.273331957282
31
0
0
LINE
8
layer0
10
1432.74507321256
20
937.113077919437
30
0
11
1947.16416306052
21
788.613077919437
31
0
0
LINE
8
layer0
10
1947.16416306052
20
788.613077919437
30
0
11
1947.16416306052
21
1092.58799464778
31
0
0
LINE
8
layer0
10
1947.16416306052
20
1092.58799464778
30
0
11
1432.74507321256
21
1241.08799464778
31
0
0
LINE
8
layer0
10
1432.74507321256
20
1241.08799464778
30
0
11
1432.74507321256
21
937.113077919437
31
0
0
LINE
8
layer0
10
1442.74507321256
20
945.773331957282
30
0
11
1432.74507321256
21
937.113077919437
31
0
0
LINE
8
layer0
10
1432.74507321256
20
937.113077919437
30
0
11
1432.74507321256
21
1241.08799464778
31
0
0
LINE
8
layer0
10
1432.74507321256
20
1241.08799464778
30
0
11
1442.74507321256
21
1249.74824868562
31
0
0
LINE
8
layer0
10
1442.74507321256
20
1249.74824868562
30
0
11
1442.74507321256
21
945.773331957282
31
0
0
LINE
8
layer0
10
1947.16416306052
20
788.613077919437
30
0
11
1957.16416306052
21
797.273331957282
31
0
0
LINE
8
layer0
10
1957.16416306052
20
797.273331957282
30
0
11
1957.16416306052
21
1101.24824868562
31
0
0
LINE
8
layer0
10
1957.16416306052
20
1101.24824868562
30
0
11
1947.16416306052
21
1092.58799464778
31
0
0
LINE
8
layer0
10
1947.16416306052
20
1092.58799464778
30
0
11
1947.16416306052
21
788.613077919437
31
0
0
LINE
8
layer0
10
1957.16416306052
20
1101.24824868562
30
0
11
1442.74507321256
21
1249.74824868562
31
0
0
LINE
8
layer0
10
1442.74507321256
20
1249.74824868562
30
0
11
1432.74507321256
21
1241.08799464778
31
0
0
LINE
8
layer0
10
1432.74507321256
20
1241.08799464778
30
0
11
1947.16416306052
21
1092.58799464778
31
0
0
LINE
8
layer0
10
1947.16416306052
20
1092.58799464778
30
0
11
1957.16416306052
21
1101.24824868562
31
0
0
LINE
8
layer0
10
1442.74507321256
20
945.773331957282
30
0
11
1957.16416306052
21
797.273331957282
31
0
0
LINE
8
layer0
10
1957.16416306052
20
797.273331957282
30
0
11
1947.16416306052
21
788.613077919437
31
0
0
LINE
8
layer0
10
1947.16416306052
20
788.613077919437
30
0
11
1432.74507321256
21
937.113077919437
31
0
0
LINE
8
layer0
10
1432.74507321256
20
937.113077919437
30
0
11
1442.74507321256
21
945.773331957282
31
0
0
ENDBLK
0
BLOCK
8
layer0
2
PF_OBJECT71
70
0
10
0
20
0
30
0
0
ENDBLK
0
BLOCK
8
layer0
70
0
10
0
20
0
30
0
2
PF_SKETCH72
0
LINE
8
layer0
10
1602.14699700121
20
1393.39244031005
30
0
11
1961.26223927187
21
1104.39536300265
31
0
0
ENDBLK
0
BLOCK
8
layer0
70
0
10
0
20
0
30
0
2
PF_SKETCH73
0
LINE
8
layer0
10
1441.64699700121
20
1254.39536300265
30
0
11
2121.76223927187
21
1243.39244031005
31
0
0
ENDBLK
0
BLOCK
8
layer0
2
PF_OBJECT74
70
0
10
0
20
0
30
0
0
LINE
8
layer0
10
316.772918920436
20
-261.762794416288
30
0
11
316.772918920436
21
-391.666604983954
31
0
0
LINE
8
layer0
10
316.772918920436
20
-391.666604983954
30
0
11
576.772918920436
21
-166.5
31
0
0
LINE
8
layer0
10
576.772918920436
20
-166.5
30
0
11
576.772918920436
21
-36.5961894323342
31
0
0
LINE
8
layer0
10
576.772918920436
20
-36.5961894323342
30
0
11
316.772918920436
21
-261.762794416288
31
0
0
LINE
8
layer0
10
562.925172713923
20
-162.5025
30
0
11
576.772918920436
21
-166.5
31
0
0
LINE
8
layer0
10
576.772918920436
20
-166.5
30
0
11
316.772918920436
21
-391.666604983954
31
0
0
LINE
8
layer0
10
316.772918920436
20
-391.666604983954
30
0
11
302.925172713923
21
-387.669104983954
31
0
0
LINE
8
layer0
10
302.925172713923
20
-387.669104983954
30
0
11
562.925172713923
21
-162.5025
31
0
0
LINE
8
layer0
10
562.925172713923
20
-32.5986894323342
30
0
11
576.772918920436
21
-36.5961894323342
31
0
0
LINE
8
layer0
10
576.772918920436
20
-36.5961894323342
30
0
11
576.772918920436
21
-166.5
31
0
0
LINE
8
layer0
10
576.772918920436
20
-166.5
30
0
11
562.925172713923
21
-162.5025
31
0
0
LINE
8
layer0
10
562.925172713923
20
-162.5025
30
0
11
562.925172713923
21
-32.5986894323342
31
0
0
LINE
8
layer0
10
316.772918920436
20
-261.762794416288
30
0
11
302.925172713923
21
-257.765294416288
31
0
0
LINE
8
layer0
10
302.925172713923
20
-257.765294416288
30
0
11
302.925172713923
21
-387.669104983954
31
0
0
LINE
8
layer0
10
302.925172713923
20
-387.669104983954
30
0
11
316.772918920436
21
-391.666604983954
31
0
0
LINE
8
layer0
10
316.772918920436
20
-391.666604983954
30
0
11
316.772918920436
21
-261.762794416288
31
0
0
LINE
8
layer0
10
302.925172713923
20
-257.765294416288
30
0
11
316.772918920436
21
-261.762794416288
31
0
0
LINE
8
layer0
10
316.772918920436
20
-261.762794416288
30
0
11
576.772918920436
21
-36.5961894323342
31
0
0
LINE
8
layer0
10
576.772918920436
20
-36.5961894323342
30
0
11
562.925172713923
21
-32.5986894323342
31
0
0
LINE
8
layer0
10
562.925172713923
20
-32.5986894323342
30
0
11
302.925172713923
21
-257.765294416288
31
0
0
LINE
8
layer0
10
562.925172713923
20
-32.5986894323342
30
0
11
562.925172713923
21
-162.5025
31
0
0
LINE
8
layer0
10
562.925172713923
20
-162.5025
30
0
11
302.925172713923
21
-387.669104983954
31
0
0
LINE
8
layer0
10
302.925172713923
20
-387.669104983954
30
0
11
302.925172713923
21
-257.765294416288
31
0
0
LINE
8
layer0
10
302.925172713923
20
-257.765294416288
30
0
11
562.925172713923
21
-32.5986894323342
31
0
0
ENDBLK
0
BLOCK
8
layer0
2
PF_OBJECT75
70
0
10
0
20
0
30
0
0
LINE
8
layer0
10
1342.14699700121
20
-557.762794416288
30
0
11
1342.14699700121
21
-687.666604983954
31
0
0
LINE
8
layer0
10
1342.14699700121
20
-687.666604983954
30
0
11
302.916512459885
21
-387.666604983954
31
0
0
LINE
8
layer0
10
302.916512459885
20
-387.666604983954
30
0
11
302.916512459885
21
-257.762794416288
31
0
0
LINE
8
layer0
10
302.916512459885
20
-257.762794416288
30
0
11
1342.14699700121
21
-557.762794416288
31
0
0
LINE
8
layer0
10
294.921512459885
20
-394.590478087211
30
0
11
302.916512459885
21
-387.666604983954
31
0
0
LINE
8
layer0
10
302.916512459885
20
-387.666604983954
30
0
11
1342.14699700121
21
-687.666604983954
31
0
0
LINE
8
layer0
10
1342.14699700121
20
-687.666604983954
30
0
11
1334.15199700121
21
-694.590478087211
31
0
0
LINE
8
layer0
10
1334.15199700121
20
-694.590478087211
30
0
11
294.921512459885
21
-394.590478087211
31
0
0
LINE
8
layer0
10
294.921512459885
20
-264.686667519545
30
0
11
302.916512459885
21
-257.762794416288
31
0
0
LINE
8
layer0
10
302.916512459885
20
-257.762794416288
30
0
11
302.916512459885
21
-387.666604983954
31
0
0
LINE
8
layer0
10
302.916512459885
20
-387.666604983954
30
0
11
294.921512459885
21
-394.590478087211
31
0
0
LINE
8
layer0
10
294.921512459885
20
-394.590478087211
30
0
11
294.921512459885
21
-264.686667519545
31
0
0
LINE
8
layer0
10
1342.14699700121
20
-557.762794416288
30
0
11
1334.15199700121
21
-564.686667519545
31
0
0
LINE
8
layer0
10
1334.15199700121
20
-564.686667519545
30
0
11
1334.15199700121
21
-694.590478087211
31
0
0
LINE
8
layer0
10
1334.15199700121
20
-694.590478087211
30
0
11
1342.14699700121
21
-687.666604983954
31
0
0
LINE
8
layer0
10
1342.14699700121
20
-687.666604983954
30
0
11
1342.14699700121
21
-557.762794416288
31
0
0
LINE
8
layer0
10
1334.15199700121
20
-564.686667519545
30
0
11
1342.14699700121
21
-557.762794416288
31
0
0
LINE
8
layer0
10
1342.14699700121
20
-557.762794416288
30
0
11
302.916512459885
21
-257.762794416288
31
0
0
LINE
8
layer0
10
302.916512459885
20
-257.762794416288
30
0
11
294.921512459885
21
-264.686667519545
31
0
0
LINE
8
layer0
10
294.921512459885
20
-264.686667519545
30
0
11
1334.15199700121
21
-564.686667519545
31
0
0
LINE
8
layer0
10
294.921512459885
20
-264.686667519545
30
0
11
294.921512459885
21
-394.590478087211
31
0
0
LINE
8
layer0
10
294.921512459885
20
-394.590478087211
30
0
11
1334.15199700121
21
-694.590478087211
31
0
0
LINE
8
layer0
10
1334.15199700121
20
-694.590478087211
30
0
11
1334.15199700121
21
-564.686667519545
31
0
0
LINE
8
layer0
10
1334.15199700121
20
-564.686667519545
30
0
11
294.921512459885
21
-264.686667519545
31
0
0
ENDBLK
0
BLOCK
8
layer0
2
PF_OBJECT76
70
0
10
0
20
0
30
0
0
LINE
8
layer0
10
1588.29059054066
20
-328.596189432334
30
0
11
1588.29059054066
21
-458.5
31
0
0
LINE
8
layer0
10
1588.29059054066
20
-458.5
30
0
11
1328.29059054066
21
-683.666604983954
31
0
0
LINE
8
layer0
10
1328.29059054066
20
-683.666604983954
30
0
11
1328.29059054066
21
-553.762794416288
31
0
0
LINE
8
layer0
10
1328.29059054066
20
-553.762794416288
30
0
11
1588.29059054066
21
-328.596189432334
31
0
0
LINE
8
layer0
10
1342.13833674717
20
-687.664104983954
30
0
11
1328.29059054066
21
-683.666604983954
31
0
0
LINE
8
layer0
10
1328.29059054066
20
-683.666604983954
30
0
11
1588.29059054066
21
-458.5
31
0
0
LINE
8
layer0
10
1588.29059054066
20
-458.5
30
0
11
1602.13833674717
21
-462.4975
31
0
0
LINE
8
layer0
10
1602.13833674717
20
-462.4975
30
0
11
1342.13833674717
21
-687.664104983954
31
0
0
LINE
8
layer0
10
1342.13833674717
20
-557.760294416288
30
0
11
1328.29059054066
21
-553.762794416288
31
0
0
LINE
8
layer0
10
1328.29059054066
20
-553.762794416288
30
0
11
1328.29059054066
21
-683.666604983954
31
0
0
LINE
8
layer0
10
1328.29059054066
20
-683.666604983954
30
0
11
1342.13833674717
21
-687.664104983954
31
0
0
LINE
8
layer0
10
1342.13833674717
20
-687.664104983954
30
0
11
1342.13833674717
21
-557.760294416288
31
0
0
LINE
8
layer0
10
1588.29059054066
20
-328.596189432334
30
0
11
1602.13833674717
21
-332.593689432334
31
0
0
LINE
8
layer0
10
1602.13833674717
20
-332.593689432334
30
0
11
1602.13833674717
21
-462.4975
31
0
0
LINE
8
layer0
10
1602.13833674717
20
-462.4975
30
0
11
1588.29059054066
21
-458.5
31
0
0
LINE
8
layer0
10
1588.29059054066
20
-458.5
30
0
11
1588.29059054066
21
-328.596189432334
31
0
0
LINE
8
layer0
10
1602.13833674717
20
-332.593689432334
30
0
11
1588.29059054066
21
-328.596189432334
31
0
0
LINE
8
layer0
10
1588.29059054066
20
-328.596189432334
30
0
11
1328.29059054066
21
-553.762794416288
31
0
0
LINE
8
layer0
10
1328.29059054066
20
-553.762794416288
30
0
11
1342.13833674717
21
-557.760294416288
31
0
0
LINE
8
layer0
10
1342.13833674717
20
-557.760294416288
30
0
11
1602.13833674717
21
-332.593689432334
31
0
0
LINE
8
layer0
10
1342.13833674717
20
-557.760294416288
30
0
11
1342.13833674717
21
-687.664104983954
31
0
0
LINE
8
layer0
10
1342.13833674717
20
-687.664104983954
30
0
11
1602.13833674717
21
-462.4975
31
0
0
LINE
8
layer0
10
1602.13833674717
20
-462.4975
30
0
11
1602.13833674717
21
-332.593689432334
31
0
0
LINE
8
layer0
10
1602.13833674717
20
-332.593689432334
30
0
11
1342.13833674717
21
-557.760294416288
31
0
0
ENDBLK
0
BLOCK
8
layer0
2
PF_OBJECT77
70
0
10
0
20
0
30
0
0
LINE
8
layer0
10
2144.27889977027
20
134.442101292462
30
0
11
554.256258422041
21
593.442101292462
31
0
0
LINE
8
layer0
10
554.256258422041
20
593.442101292462
30
0
11
554.256258422041
21
621.154914213564
31
0
0
LINE
8
layer0
10
554.256258422041
20
621.154914213564
30
0
11
2144.27889977027
21
162.154914213564
31
0
0
LINE
8
layer0
10
2144.27889977027
20
162.154914213564
30
0
11
2144.27889977027
21
134.442101292462
31
0
0
LINE
8
layer0
10
254.256258422041
20
333.63448015713
30
0
11
1844.27889977027
21
-125.36551984287
31
0
0
LINE
8
layer0
10
1844.27889977027
20
-125.36551984287
30
0
11
1844.27889977027
21
-97.6527069217678
31
0
0
LINE
8
layer0
10
1844.27889977027
20
-97.6527069217678
30
0
11
254.256258422041
21
361.347293078232
31
0
0
LINE
8
layer0
10
254.256258422041
20
361.347293078232
30
0
11
254.256258422041
21
333.63448015713
31
0
0
LINE
8
layer0
10
554.256258422041
20
593.442101292462
30
0
11
531.256258422041
21
573.52351700542
31
0
0
LINE
8
layer0
10
531.256258422041
20
573.52351700542
30
0
11
531.256258422041
21
601.236329926522
31
0
0
LINE
8
layer0
10
531.256258422041
20
601.236329926522
30
0
11
554.256258422041
21
621.154914213564
31
0
0
LINE
8
layer0
10
554.256258422041
20
621.154914213564
30
0
11
554.256258422041
21
593.442101292462
31
0
0
LINE
8
layer0
10
531.256258422041
20
601.236329926522
30
0
11
531.256258422041
21
573.52351700542
31
0
0
LINE
8
layer0
10
531.256258422041
20
573.52351700542
30
0
11
480.756258422041
21
529.789234114305
31
0
0
LINE
8
layer0
10
480.756258422041
20
529.789234114305
30
0
11
480.756258422041
21
557.502047035407
31
0
0
LINE
8
layer0
10
480.756258422041
20
557.502047035407
30
0
11
531.256258422041
21
601.236329926522
31
0
0
LINE
8
layer0
10
294.256258422041
20
395.98830922961
30
0
11
294.256258422041
21
368.275496308508
31
0
0
LINE
8
layer0
10
294.256258422041
20
368.275496308508
30
0
11
254.256258422041
21
333.63448015713
31
0
0
LINE
8
layer0
10
254.256258422041
20
333.63448015713
30
0
11
254.256258422041
21
361.347293078232
31
0
0
LINE
8
layer0
10
254.256258422041
20
361.347293078232
30
0
11
294.256258422041
21
395.98830922961
31
0
0
LINE
8
layer0
10
304.256258422041
20
404.648563267454
30
0
11
304.256258422041
21
376.935750346352
31
0
0
LINE
8
layer0
10
304.256258422041
20
376.935750346352
30
0
11
294.256258422041
21
368.275496308508
31
0
0
LINE
8
layer0
10
294.256258422041
20
368.275496308508
30
0
11
294.256258422041
21
395.98830922961
31
0
0
LINE
8
layer0
10
294.256258422041
20
395.98830922961
30
0
11
304.256258422041
21
404.648563267454
31
0
0
LINE
8
layer0
10
480.756258422041
20
557.502047035407
30
0
11
480.756258422041
21
529.789234114305
31
0
0
LINE
8
layer0
10
480.756258422041
20
529.789234114305
30
0
11
304.256258422041
21
376.935750346352
31
0
0
LINE
8
layer0
10
304.256258422041
20
376.935750346352
30
0
11
304.256258422041
21
404.648563267454
31
0
0
LINE
8
layer0
10
304.256258422041
20
404.648563267454
30
0
11
480.756258422041
21
557.502047035407
31
0
0
LINE
8
layer0
10
2121.27889977027
20
142.236329926522
30
0
11
2121.27889977027
21
114.52351700542
31
0
0
LINE
8
layer0
10
2121.27889977027
20
114.52351700542
30
0
11
2144.27889977027
21
134.442101292462
31
0
0
LINE
8
layer0
10
2144.27889977027
20
134.442101292462
30
0
11
2144.27889977027
21
162.154914213564
31
0
0
LINE
8
layer0
10
2144.27889977027
20
162.154914213564
30
0
11
2121.27889977027
21
142.236329926522
31
0
0
LINE
8
layer0
10
2070.77889977027
20
98.5020470354075
30
0
11
2070.77889977027
21
70.7892341143055
31
0
0
LINE
8
layer0
10
2070.77889977027
20
70.7892341143055
30
0
11
2121.27889977027
21
114.52351700542
31
0
0
LINE
8
layer0
10
2121.27889977027
20
114.52351700542
30
0
11
2121.27889977027
21
142.236329926522
31
0
0
LINE
8
layer0
10
2121.27889977027
20
142.236329926522
30
0
11
2070.77889977027
21
98.5020470354075
31
0
0
LINE
8
layer0
10
1844.27889977027
20
-125.36551984287
30
0
11
1884.27889977027
21
-90.7245036914924
31
0
0
LINE
8
layer0
10
1884.27889977027
20
-90.7245036914924
30
0
11
1884.27889977027
21
-63.0116907703904
31
0
0
LINE
8
layer0
10
1884.27889977027
20
-63.0116907703904
30
0
11
1844.27889977027
21
-97.6527069217678
31
0
0
LINE
8
layer0
10
1844.27889977027
20
-97.6527069217678
30
0
11
1844.27889977027
21
-125.36551984287
31
0
0
LINE
8
layer0
10
1884.27889977027
20
-63.0116907703904
30
0
11
1884.27889977027
21
-90.7245036914924
31
0
0
LINE
8
layer0
10
1884.27889977027
20
-90.7245036914924
30
0
11
1894.27889977027
21
-82.0642496536479
31
0
0
LINE
8
layer0
10
1894.27889977027
20
-82.0642496536479
30
0
11
1894.27889977027
21
-54.3514367325459
31
0
0
LINE
8
layer0
10
1894.27889977027
20
-54.3514367325459
30
0
11
1884.27889977027
21
-63.0116907703904
31
0
0
LINE
8
layer0
10
1894.27889977027
20
-54.3514367325459
30
0
11
1894.27889977027
21
-82.0642496536479
31
0
0
LINE
8
layer0
10
1894.27889977027
20
-82.0642496536479
30
0
11
2070.77889977027
21
70.7892341143055
31
0
0
LINE
8
layer0
10
2070.77889977027
20
70.7892341143055
30
0
11
2070.77889977027
21
98.5020470354075
31
0
0
LINE
8
layer0
10
2070.77889977027
20
98.5020470354075
30
0
11
1894.27889977027
21
-54.3514367325459
31
0
0
LINE
8
layer0
10
554.256258422041
20
593.442101292462
30
0
11
2144.27889977027
21
134.442101292462
31
0
0
LINE
8
layer0
10
2144.27889977027
20
134.442101292462
30
0
11
2121.27889977027
21
114.52351700542
31
0
0
LINE
8
layer0
10
2121.27889977027
20
114.52351700542
30
0
11
531.256258422041
21
573.52351700542
31
0
0
LINE
8
layer0
10
531.256258422041
20
573.52351700542
30
0
11
554.256258422041
21
593.442101292462
31
0
0
LINE
8
layer0
10
531.256258422041
20
573.52351700542
30
0
11
1730.70144266349
21
227.27351700542
31
0
0
LINE
8
layer0
10
1730.70144266349
20
227.27351700542
30
0
11
1680.20144266349
21
183.539234114305
31
0
0
LINE
8
layer0
10
1680.20144266349
20
183.539234114305
30
0
11
480.756258422041
21
529.789234114305
31
0
0
LINE
8
layer0
10
480.756258422041
20
529.789234114305
30
0
11
531.256258422041
21
573.52351700542
31
0
0
LINE
8
layer0
10
1896.7077936096
20
121.039234114305
30
0
11
1947.2077936096
21
164.77351700542
31
0
0
LINE
8
layer0
10
1947.2077936096
20
164.77351700542
30
0
11
2121.27889977027
21
114.52351700542
31
0
0
LINE
8
layer0
10
2121.27889977027
20
114.52351700542
30
0
11
2070.77889977027
21
70.7892341143055
31
0
0
LINE
8
layer0
10
2070.77889977027
20
70.7892341143055
30
0
11
1896.7077936096
21
121.039234114305
31
0
0
LINE
8
layer0
10
294.256258422041
20
368.275496308508
30
0
11
1884.27889977027
21
-90.7245036914924
31
0
0
LINE
8
layer0
10
1884.27889977027
20
-90.7245036914924
30
0
11
1844.27889977027
21
-125.36551984287
31
0
0
LINE
8
layer0
10
1844.27889977027
20
-125.36551984287
30
0
11
254.256258422041
21
333.63448015713
31
0
0
LINE
8
layer0
10
254.256258422041
20
333.63448015713
30
0
11
294.256258422041
21
368.275496308508
31
0
0
LINE
8
layer0
10
304.256258422041
20
376.935750346352
30
0
11
1503.70144266349
21
30.6857503463521
31
0
0
LINE
8
layer0
10
1503.70144266349
20
30.6857503463521
30
0
11
1493.70144266349
21
22.0254963085076
31
0
0
LINE
8
layer0
10
1493.70144266349
20
22.0254963085076
30
0
11
294.256258422041
21
368.275496308508
31
0
0
LINE
8
layer0
10
294.256258422041
20
368.275496308508
30
0
11
304.256258422041
21
376.935750346352
31
0
0
LINE
8
layer0
10
1710.2077936096
20
-40.4745036914924
30
0
11
1720.2077936096
21
-31.8142496536479
31
0
0
LINE
8
layer0
10
1720.2077936096
20
-31.8142496536479
30
0
11
1894.27889977027
21
-82.0642496536479
31
0
0
LINE
8
layer0
10
1894.27889977027
20
-82.0642496536479
30
0
11
1884.27889977027
21
-90.7245036914924
31
0
0
LINE
8
layer0
10
1884.27889977027
20
-90.7245036914924
30
0
11
1710.2077936096
21
-40.4745036914924
31
0
0
LINE
8
layer0
10
480.756258422041
20
529.789234114305
30
0
11
574.28700203076
21
502.789234114305
31
0
0
LINE
8
layer0
10
574.28700203076
20
502.789234114305
30
0
11
397.78700203076
21
349.935750346352
31
0
0
LINE
8
layer0
10
397.78700203076
20
349.935750346352
30
0
11
304.256258422041
21
376.935750346352
31
0
0
LINE
8
layer0
10
304.256258422041
20
376.935750346352
30
0
11
480.756258422041
21
529.789234114305
31
0
0
LINE
8
layer0
10
748.527290563458
20
248.685750346352
30
0
11
925.027290563458
21
401.539234114305
31
0
0
LINE
8
layer0
10
925.027290563458
20
401.539234114305
30
0
11
1680.20144266349
21
183.539234114305
31
0
0
LINE
8
layer0
10
1680.20144266349
20
183.539234114305
30
0
11
1503.70144266349
21
30.6857503463521
31
0
0
LINE
8
layer0
10
1503.70144266349
20
30.6857503463521
30
0
11
748.527290563458
21
248.685750346352
31
0
0
LINE
8
layer0
10
1720.2077936096
20
-31.8142496536479
30
0
11
1896.7077936096
21
121.039234114305
31
0
0
LINE
8
layer0
10
1896.7077936096
20
121.039234114305
30
0
11
2070.77889977027
21
70.7892341143055
31
0
0
LINE
8
layer0
10
2070.77889977027
20
70.7892341143055
30
0
11
1894.27889977027
21
-82.0642496536479
31
0
0
LINE
8
layer0
10
1894.27889977027
20
-82.0642496536479
30
0
11
1720.2077936096
21
-31.8142496536479
31
0
0
LINE
8
layer0
10
1730.70144266349
20
227.27351700542
30
0
11
1947.2077936096
21
164.77351700542
31
0
0
LINE
8
layer0
10
1947.2077936096
20
164.77351700542
30
0
11
1947.2077936096
21
192.486329926522
31
0
0
LINE
8
layer0
10
1947.2077936096
20
192.486329926522
30
0
11
1730.70144266349
21
254.986329926522
31
0
0
LINE
8
layer0
10
1730.70144266349
20
254.986329926522
30
0
11
1730.70144266349
21
227.27351700542
31
0
0
LINE
8
layer0
10
1947.2077936096
20
164.77351700542
30
0
11
1896.7077936096
21
121.039234114305
31
0
0
LINE
8
layer0
10
1896.7077936096
20
121.039234114305
30
0
11
1896.7077936096
21
148.752047035407
31
0
0
LINE
8
layer0
10
1896.7077936096
20
148.752047035407
30
0
11
1947.2077936096
21
192.486329926522
31
0
0
LINE
8
layer0
10
1947.2077936096
20
192.486329926522
30
0
11
1947.2077936096
21
164.77351700542
31
0
0
LINE
8
layer0
10
1680.20144266349
20
211.252047035407
30
0
11
1680.20144266349
21
183.539234114305
31
0
0
LINE
8
layer0
10
1680.20144266349
20
183.539234114305
30
0
11
1730.70144266349
21
227.27351700542
31
0
0
LINE
8
layer0
10
1730.70144266349
20
227.27351700542
30
0
11
1730.70144266349
21
254.986329926522
31
0
0
LINE
8
layer0
10
1730.70144266349
20
254.986329926522
30
0
11
1680.20144266349
21
211.252047035407
31
0
0
LINE
8
layer0
10
574.28700203076
20
502.789234114305
30
0
11
925.027290563458
21
401.539234114305
31
0
0
LINE
8
layer0
10
925.027290563458
20
401.539234114305
30
0
11
925.027290563458
21
429.252047035407
31
0
0
LINE
8
layer0
10
925.027290563458
20
429.252047035407
30
0
11
574.28700203076
21
530.502047035407
31
0
0
LINE
8
layer0
10
574.28700203076
20
530.502047035407
30
0
11
574.28700203076
21
502.789234114305
31
0
0
LINE
8
layer0
10
1710.2077936096
20
-40.4745036914924
30
0
11
1493.70144266349
21
22.0254963085076
31
0
0
LINE
8
layer0
10
1493.70144266349
20
22.0254963085076
30
0
11
1493.70144266349
21
49.7383092296096
31
0
0
LINE
8
layer0
10
1493.70144266349
20
49.7383092296096
30
0
11
1710.2077936096
21
-12.7616907703904
31
0
0
LINE
8
layer0
10
1710.2077936096
20
-12.7616907703904
30
0
11
1710.2077936096
21
-40.4745036914924
31
0
0
LINE
8
layer0
10
1720.2077936096
20
-4.10143673254595
30
0
11
1720.2077936096
21
-31.8142496536479
31
0
0
LINE
8
layer0
10
1720.2077936096
20
-31.8142496536479
30
0
11
1710.2077936096
21
-40.4745036914924
31
0
0
LINE
8
layer0
10
1710.2077936096
20
-40.4745036914924
30
0
11
1710.2077936096
21
-12.7616907703904
31
0
0
LINE
8
layer0
10
1710.2077936096
20
-12.7616907703904
30
0
11
1720.2077936096
21
-4.10143673254595
31
0
0
LINE
8
layer0
10
1493.70144266349
20
22.0254963085076
30
0
11
1503.70144266349
21
30.6857503463521
31
0
0
LINE
8
layer0
10
1503.70144266349
20
30.6857503463521
30
0
11
1503.70144266349
21
58.3985632674541
31
0
0
LINE
8
layer0
10
1503.70144266349
20
58.3985632674541
30
0
11
1493.70144266349
21
49.7383092296096
31
0
0
LINE
8
layer0
10
1493.70144266349
20
49.7383092296096
30
0
11
1493.70144266349
21
22.0254963085076
31
0
0
LINE
8
layer0
10
748.527290563458
20
248.685750346352
30
0
11
397.78700203076
21
349.935750346352
31
0
0
LINE
8
layer0
10
397.78700203076
20
349.935750346352
30
0
11
397.78700203076
21
377.648563267454
31
0
0
LINE
8
layer0
10
397.78700203076
20
377.648563267454
30
0
11
748.527290563458
21
276.398563267454
31
0
0
LINE
8
layer0
10
748.527290563458
20
276.398563267454
30
0
11
748.527290563458
21
248.685750346352
31
0
0
LINE
8
layer0
10
397.78700203076
20
349.935750346352
30
0
11
574.28700203076
21
502.789234114305
31
0
0
LINE
8
layer0
10
574.28700203076
20
502.789234114305
30
0
11
574.28700203076
21
530.502047035407
31
0
0
LINE
8
layer0
10
574.28700203076
20
530.502047035407
30
0
11
397.78700203076
21
377.648563267454
31
0
0
LINE
8
layer0
10
397.78700203076
20
377.648563267454
30
0
11
397.78700203076
21
349.935750346352
31
0
0
LINE
8
layer0
10
1896.7077936096
20
148.752047035407
30
0
11
1896.7077936096
21
121.039234114305
31
0
0
LINE
8
layer0
10
1896.7077936096
20
121.039234114305
30
0
11
1720.2077936096
21
-31.8142496536479
31
0
0
LINE
8
layer0
10
1720.2077936096
20
-31.8142496536479
30
0
11
1720.2077936096
21
-4.10143673254595
31
0
0
LINE
8
layer0
10
1720.2077936096
20
-4.10143673254595
30
0
11
1896.7077936096
21
148.752047035407
31
0
0
LINE
8
layer0
10
1503.70144266349
20
58.3985632674541
30
0
11
1503.70144266349
21
30.6857503463521
31
0
0
LINE
8
layer0
10
1503.70144266349
20
30.6857503463521
30
0
11
1680.20144266349
21
183.539234114305
31
0
0
LINE
8
layer0
10
1680.20144266349
20
183.539234114305
30
0
11
1680.20144266349
21
211.252047035407
31
0
0
LINE
8
layer0
10
1680.20144266349
20
211.252047035407
30
0
11
1503.70144266349
21
58.3985632674541
31
0
0
LINE
8
layer0
10
925.027290563458
20
401.539234114305
30
0
11
748.527290563458
21
248.685750346352
31
0
0
LINE
8
layer0
10
748.527290563458
20
248.685750346352
30
0
11
748.527290563458
21
276.398563267454
31
0
0
LINE
8
layer0
10
748.527290563458
20
276.398563267454
30
0
11
925.027290563458
21
429.252047035407
31
0
0
LINE
8
layer0
10
925.027290563458
20
429.252047035407
30
0
11
925.027290563458
21
401.539234114305
31
0
0
LINE
8
layer0
10
2144.27889977027
20
162.154914213564
30
0
11
554.256258422041
21
621.154914213564
31
0
0
LINE
8
layer0
10
554.256258422041
20
621.154914213564
30
0
11
531.256258422041
21
601.236329926522
31
0
0
LINE
8
layer0
10
531.256258422041
20
601.236329926522
30
0
11
2121.27889977027
21
142.236329926522
31
0
0
LINE
8
layer0
10
2121.27889977027
20
142.236329926522
30
0
11
2144.27889977027
21
162.154914213564
31
0
0
LINE
8
layer0
10
1680.20144266349
20
211.252047035407
30
0
11
1730.70144266349
21
254.986329926522
31
0
0
LINE
8
layer0
10
1730.70144266349
20
254.986329926522
30
0
11
531.256258422041
21
601.236329926522
31
0
0
LINE
8
layer0
10
531.256258422041
20
601.236329926522
30
0
11
480.756258422041
21
557.502047035407
31
0
0
LINE
8
layer0
10
480.756258422041
20
557.502047035407
30
0
11
1680.20144266349
21
211.252047035407
31
0
0
LINE
8
layer0
10
2121.27889977027
20
142.236329926522
30
0
11
1947.2077936096
21
192.486329926522
31
0
0
LINE
8
layer0
10
1947.2077936096
20
192.486329926522
30
0
11
1896.7077936096
21
148.752047035407
31
0
0
LINE
8
layer0
10
1896.7077936096
20
148.752047035407
30
0
11
2070.77889977027
21
98.5020470354075
31
0
0
LINE
8
layer0
10
2070.77889977027
20
98.5020470354075
30
0
11
2121.27889977027
21
142.236329926522
31
0
0
LINE
8
layer0
10
1884.27889977027
20
-63.0116907703904
30
0
11
294.256258422041
21
395.98830922961
31
0
0
LINE
8
layer0
10
294.256258422041
20
395.98830922961
30
0
11
254.256258422041
21
361.347293078232
31
0
0
LINE
8
layer0
10
254.256258422041
20
361.347293078232
30
0
11
1844.27889977027
21
-97.6527069217678
31
0
0
LINE
8
layer0
10
1844.27889977027
20
-97.6527069217678
30
0
11
1884.27889977027
21
-63.0116907703904
31
0
0
LINE
8
layer0
10
1493.70144266349
20
49.7383092296096
30
0
11
1503.70144266349
21
58.3985632674541
31
0
0
LINE
8
layer0
10
1503.70144266349
20
58.3985632674541
30
0
11
304.256258422041
21
404.648563267454
31
0
0
LINE
8
layer0
10
304.256258422041
20
404.648563267454
30
0
11
294.256258422041
21
395.98830922961
31
0
0
LINE
8
layer0
10
294.256258422041
20
395.98830922961
30
0
11
1493.70144266349
21
49.7383092296096
31
0
0
LINE
8
layer0
10
1894.27889977027
20
-54.3514367325459
30
0
11
1720.2077936096
21
-4.10143673254595
31
0
0
LINE
8
layer0
10
1720.2077936096
20
-4.10143673254595
30
0
11
1710.2077936096
21
-12.7616907703904
31
0
0
LINE
8
layer0
10
1710.2077936096
20
-12.7616907703904
30
0
11
1884.27889977027
21
-63.0116907703904
31
0
0
LINE
8
layer0
10
1884.27889977027
20
-63.0116907703904
30
0
11
1894.27889977027
21
-54.3514367325459
31
0
0
LINE
8
layer0
10
397.78700203076
20
377.648563267454
30
0
11
574.28700203076
21
530.502047035407
31
0
0
LINE
8
layer0
10
574.28700203076
20
530.502047035407
30
0
11
480.756258422041
21
557.502047035407
31
0
0
LINE
8
layer0
10
480.756258422041
20
557.502047035407
30
0
11
304.256258422041
21
404.648563267454
31
0
0
LINE
8
layer0
10
304.256258422041
20
404.648563267454
30
0
11
397.78700203076
21
377.648563267454
31
0
0
LINE
8
layer0
10
1503.70144266349
20
58.3985632674541
30
0
11
1680.20144266349
21
211.252047035407
31
0
0
LINE
8
layer0
10
1680.20144266349
20
211.252047035407
30
0
11
925.027290563458
21
429.252047035407
31
0
0
LINE
8
layer0
10
925.027290563458
20
429.252047035407
30
0
11
748.527290563458
21
276.398563267454
31
0
0
LINE
8
layer0
10
748.527290563458
20
276.398563267454
30
0
11
1503.70144266349
21
58.3985632674541
31
0
0
LINE
8
layer0
10
2070.77889977027
20
98.5020470354075
30
0
11
1896.7077936096
21
148.752047035407
31
0
0
LINE
8
layer0
10
1896.7077936096
20
148.752047035407
30
0
11
1720.2077936096
21
-4.10143673254595
31
0
0
LINE
8
layer0
10
1720.2077936096
20
-4.10143673254595
30
0
11
1894.27889977027
21
-54.3514367325459
31
0
0
LINE
8
layer0
10
1894.27889977027
20
-54.3514367325459
30
0
11
2070.77889977027
21
98.5020470354075
31
0
0
ENDBLK
0
BLOCK
8
layer0
2
PF_OBJECT78
70
0
10
0
20
0
30
0
0
LINE
8
layer0
10
592.514243366712
20
536.787301073252
30
0
11
925.934023823721
21
440.537301073252
31
0
0
LINE
8
layer0
10
925.934023823721
20
440.537301073252
30
0
11
933.228368588043
21
437.583879111868
31
0
0
LINE
8
layer0
10
933.228368588043
20
437.583879111868
30
0
11
938.340387552999
21
433.647969662622
31
0
0
LINE
8
layer0
10
938.340387552999
20
433.647969662622
30
0
11
940.769680684769
21
429.1148469655
31
0
0
LINE
8
layer0
10
940.769680684769
20
429.1148469655
30
0
11
940.278451845735
21
424.428244654219
31
0
0
LINE
8
layer0
10
940.278451845735
20
424.428244654219
30
0
11
936.914785937254
21
420.046920016485
31
0
0
LINE
8
layer0
10
936.914785937254
20
420.046920016485
30
0
11
936.914785937254
21
420.046920016485
31
0
0
LINE
8
layer0
10
936.914785937254
20
420.046920016485
30
0
11
551.533481253179
21
531.296920016485
31
0
0
LINE
8
layer0
10
551.533481253179
20
531.296920016485
30
0
11
557.440325175947
21
534.944092398646
31
0
0
LINE
8
layer0
10
557.440325175947
20
534.944092398646
30
0
11
565.312144074438
21
537.500101881124
31
0
0
LINE
8
layer0
10
565.312144074438
20
537.500101881124
30
0
11
574.378389468683
21
538.714748447009
31
0
0
LINE
8
layer0
10
574.378389468683
20
538.714748447009
30
0
11
583.751594091245
21
538.469134027492
31
0
0
LINE
8
layer0
10
583.751594091245
20
538.469134027492
30
0
11
592.514243366712
21
536.787301073252
31
0
0
LINE
8
layer0
10
551.533481253179
20
531.296920016485
30
0
11
603.495005480245
21
516.296920016485
31
0
0
LINE
8
layer0
10
603.495005480245
20
516.296920016485
30
0
11
546.781948043443
21
527.181971549928
31
0
0
LINE
8
layer0
10
546.781948043443
20
527.181971549928
30
0
11
551.533481253179
21
531.296920016485
31
0
0
LINE
8
layer0
10
551.533481253179
20
531.296920016485
30
0
11
551.533481253179
21
531.296920016485
31
0
0
LINE
8
layer0
10
546.781948043443
20
527.181971549928
30
0
11
594.732356204778
21
517.978752970726
31
0
0
LINE
8
layer0
10
594.732356204778
20
517.978752970726
30
0
11
537.875345857178
21
519.468627795221
31
0
0
LINE
8
layer0
10
537.875345857178
20
519.468627795221
30
0
11
546.781948043443
21
527.181971549928
31
0
0
LINE
8
layer0
10
537.875345857178
20
519.468627795221
30
0
11
585.359151582216
21
518.224367390243
31
0
0
LINE
8
layer0
10
585.359151582216
20
518.224367390243
30
0
11
527.485514953191
21
510.470770291343
31
0
0
LINE
8
layer0
10
527.485514953191
20
510.470770291343
30
0
11
537.875345857178
21
519.468627795221
31
0
0
LINE
8
layer0
10
527.485514953191
20
510.470770291343
30
0
11
576.292906187972
21
517.009720824358
31
0
0
LINE
8
layer0
10
576.292906187972
20
517.009720824358
30
0
11
510.288723656799
21
495.577912165089
31
0
0
LINE
8
layer0
10
510.288723656799
20
495.577912165089
30
0
11
527.485514953191
21
510.470770291343
31
0
0
LINE
8
layer0
10
510.288723656799
20
495.577912165089
30
0
11
568.42108728948
21
514.45371134188
31
0
0
LINE
8
layer0
10
568.42108728948
20
514.45371134188
30
0
11
441.827208533054
21
436.288500886353
31
0
0
LINE
8
layer0
10
441.827208533054
20
436.288500886353
30
0
11
510.288723656799
21
495.577912165089
31
0
0
LINE
8
layer0
10
441.827208533054
20
436.288500886353
30
0
11
562.514243366712
21
510.806538959719
31
0
0
LINE
8
layer0
10
562.514243366712
20
510.806538959719
30
0
11
396.014243366712
21
366.61330922961
31
0
0
LINE
8
layer0
10
396.014243366712
20
366.61330922961
30
0
11
388.719898602391
21
369.566731190993
31
0
0
LINE
8
layer0
10
388.719898602391
20
369.566731190993
30
0
11
383.607879637434
21
373.502640640239
31
0
0
LINE
8
layer0
10
383.607879637434
20
373.502640640239
30
0
11
381.178586505664
21
378.035763337361
31
0
0
LINE
8
layer0
10
381.178586505664
20
378.035763337361
30
0
11
381.669815344698
21
382.722365648643
31
0
0
LINE
8
layer0
10
381.669815344698
20
382.722365648643
30
0
11
385.033481253179
21
387.103690286376
31
0
0
LINE
8
layer0
10
385.033481253179
20
387.103690286376
30
0
11
441.827208533054
21
436.288500886353
31
0
0
LINE
8
layer0
10
396.014243366712
20
366.61330922961
30
0
11
426.014243366712
21
392.594071343143
31
0
0
LINE
8
layer0
10
426.014243366712
20
392.594071343143
30
0
11
404.244140299826
21
364.237542624742
31
0
0
LINE
8
layer0
10
404.244140299826
20
364.237542624742
30
0
11
396.014243366712
21
366.61330922961
31
0
0
LINE
8
layer0
10
396.014243366712
20
366.61330922961
30
0
11
396.014243366712
21
366.61330922961
31
0
0
LINE
8
layer0
10
404.244140299826
20
364.237542624742
30
0
11
422.650577458231
21
388.212746705409
31
0
0
LINE
8
layer0
10
422.650577458231
20
388.212746705409
30
0
11
419.670827809241
21
359.784241531609
31
0
0
LINE
8
layer0
10
419.670827809241
20
359.784241531609
30
0
11
404.244140299826
21
364.237542624742
31
0
0
LINE
8
layer0
10
419.670827809241
20
359.784241531609
30
0
11
422.159348619197
21
383.526144394128
31
0
0
LINE
8
layer0
10
422.159348619197
20
383.526144394128
30
0
11
437.666542816997
21
354.589326079615
31
0
0
LINE
8
layer0
10
437.666542816997
20
354.589326079615
30
0
11
419.670827809241
21
359.784241531609
31
0
0
LINE
8
layer0
10
437.666542816997
20
354.589326079615
30
0
11
424.588641750967
21
378.993021697006
31
0
0
LINE
8
layer0
10
424.588641750967
20
378.993021697006
30
0
11
467.452259069506
21
345.990930431419
31
0
0
LINE
8
layer0
10
467.452259069506
20
345.990930431419
30
0
11
437.666542816997
21
354.589326079615
31
0
0
LINE
8
layer0
10
467.452259069506
20
345.990930431419
30
0
11
429.700660715924
21
375.05711224776
31
0
0
LINE
8
layer0
10
429.700660715924
20
375.05711224776
30
0
11
586.031081626978
21
311.760172869547
31
0
0
LINE
8
layer0
10
586.031081626978
20
311.760172869547
30
0
11
467.452259069506
21
345.990930431419
31
0
0
LINE
8
layer0
10
586.031081626978
20
311.760172869547
30
0
11
436.995005480245
21
372.103690286376
31
0
0
LINE
8
layer0
10
436.995005480245
20
372.103690286376
30
0
11
770.414785937254
21
275.853690286376
31
0
0
LINE
8
layer0
10
770.414785937254
20
275.853690286376
30
0
11
764.507942014487
21
272.206517904215
31
0
0
LINE
8
layer0
10
764.507942014487
20
272.206517904215
30
0
11
756.636123115995
21
269.650508421737
31
0
0
LINE
8
layer0
10
756.636123115995
20
269.650508421737
30
0
11
747.569877721751
21
268.435861855852
31
0
0
LINE
8
layer0
10
747.569877721751
20
268.435861855852
30
0
11
738.196673099189
21
268.681476275369
31
0
0
LINE
8
layer0
10
738.196673099189
20
268.681476275369
30
0
11
729.434023823721
21
270.36330922961
31
0
0
LINE
8
layer0
10
729.434023823721
20
270.36330922961
30
0
11
586.031081626978
21
311.760172869547
31
0
0
LINE
8
layer0
10
770.414785937254
20
275.853690286376
30
0
11
718.453261710188
21
290.853690286376
31
0
0
LINE
8
layer0
10
718.453261710188
20
290.853690286376
30
0
11
775.166319146991
21
279.968638752933
31
0
0
LINE
8
layer0
10
775.166319146991
20
279.968638752933
30
0
11
770.414785937254
21
275.853690286376
31
0
0
LINE
8
layer0
10
770.414785937254
20
275.853690286376
30
0
11
770.414785937254
21
275.853690286376
31
0
0
LINE
8
layer0
10
775.166319146991
20
279.968638752933
30
0
11
727.215910985655
21
289.171857332136
31
0
0
LINE
8
layer0
10
727.215910985655
20
289.171857332136
30
0
11
784.072921333255
21
287.68198250764
31
0
0
LINE
8
layer0
10
784.072921333255
20
287.68198250764
30
0
11
775.166319146991
21
279.968638752933
31
0
0
LINE
8
layer0
10
784.072921333255
20
287.68198250764
30
0
11
736.589115608217
21
288.926242912619
31
0
0
LINE
8
layer0
10
736.589115608217
20
288.926242912619
30
0
11
794.462752237243
21
296.679840011519
31
0
0
LINE
8
layer0
10
794.462752237243
20
296.679840011519
30
0
11
784.072921333255
21
287.68198250764
31
0
0
LINE
8
layer0
10
794.462752237243
20
296.679840011519
30
0
11
745.655361002463
21
290.140889478504
31
0
0
LINE
8
layer0
10
745.655361002463
20
290.140889478504
30
0
11
811.659543533635
21
311.572698137773
31
0
0
LINE
8
layer0
10
811.659543533635
20
311.572698137773
30
0
11
794.462752237243
21
296.679840011519
31
0
0
LINE
8
layer0
10
811.659543533635
20
311.572698137773
30
0
11
753.527179900954
21
292.696898960982
31
0
0
LINE
8
layer0
10
753.527179900954
20
292.696898960982
30
0
11
880.12105865738
21
370.862109416509
31
0
0
LINE
8
layer0
10
880.12105865738
20
370.862109416509
30
0
11
811.659543533635
21
311.572698137773
31
0
0
LINE
8
layer0
10
880.12105865738
20
370.862109416509
30
0
11
759.434023823721
21
296.344071343143
31
0
0
LINE
8
layer0
10
759.434023823721
20
296.344071343143
30
0
11
910.934023823721
21
427.546920016485
31
0
0
LINE
8
layer0
10
910.934023823721
20
427.546920016485
30
0
11
936.914785937254
21
420.046920016485
31
0
0
LINE
8
layer0
10
936.914785937254
20
420.046920016485
30
0
11
880.12105865738
21
370.862109416509
31
0
0
LINE
8
layer0
10
910.934023823721
20
427.546920016485
30
0
11
895.934023823721
21
414.556538959719
31
0
0
LINE
8
layer0
10
895.934023823721
20
414.556538959719
30
0
11
906.819075357164
21
428.734803318919
31
0
0
LINE
8
layer0
10
906.819075357164
20
428.734803318919
30
0
11
910.934023823721
21
427.546920016485
31
0
0
LINE
8
layer0
10
906.819075357164
20
428.734803318919
30
0
11
899.297689732202
21
418.937863597452
31
0
0
LINE
8
layer0
10
899.297689732202
20
418.937863597452
30
0
11
900.515298875299
21
430.554546843277
31
0
0
LINE
8
layer0
10
900.515298875299
20
430.554546843277
30
0
11
906.819075357164
21
428.734803318919
31
0
0
LINE
8
layer0
10
900.515298875299
20
430.554546843277
30
0
11
899.788918571236
21
423.624465908734
31
0
0
LINE
8
layer0
10
899.788918571236
20
423.624465908734
30
0
11
895.26248648697
21
432.07090316648
31
0
0
LINE
8
layer0
10
895.26248648697
20
432.07090316648
30
0
11
900.515298875299
21
430.554546843277
31
0
0
LINE
8
layer0
10
895.26248648697
20
432.07090316648
30
0
11
897.359625439466
21
428.157588605856
31
0
0
LINE
8
layer0
10
897.359625439466
20
428.157588605856
30
0
11
890.486124785979
21
433.449720023387
31
0
0
LINE
8
layer0
10
890.486124785979
20
433.449720023387
30
0
11
895.26248648697
21
432.07090316648
31
0
0
LINE
8
layer0
10
890.486124785979
20
433.449720023387
30
0
11
892.24760647451
21
432.093498055102
31
0
0
LINE
8
layer0
10
892.24760647451
20
432.093498055102
30
0
11
884.953261710188
21
435.046920016485
31
0
0
LINE
8
layer0
10
884.953261710188
20
435.046920016485
30
0
11
890.486124785979
21
433.449720023387
31
0
0
LINE
8
layer0
10
925.934023823721
20
444.00140268839
30
0
11
925.934023823721
21
440.537301073252
31
0
0
LINE
8
layer0
10
925.934023823721
20
440.537301073252
30
0
11
592.514243366712
21
536.787301073252
31
0
0
LINE
8
layer0
10
592.514243366712
20
536.787301073252
30
0
11
592.514243366712
21
540.25140268839
31
0
0
LINE
8
layer0
10
592.514243366712
20
540.25140268839
30
0
11
925.934023823721
21
444.00140268839
31
0
0
LINE
8
layer0
10
592.514243366712
20
540.25140268839
30
0
11
592.514243366712
21
536.787301073252
31
0
0
LINE
8
layer0
10
592.514243366712
20
536.787301073252
30
0
11
583.751594091245
21
538.469134027492
31
0
0
LINE
8
layer0
10
583.751594091245
20
538.469134027492
30
0
11
583.751594091245
21
541.93323564263
31
0
0
LINE
8
layer0
10
583.751594091245
20
541.93323564263
30
0
11
592.514243366712
21
540.25140268839
31
0
0
LINE
8
layer0
10
583.751594091245
20
541.93323564263
30
0
11
583.751594091245
21
538.469134027492
31
0
0
LINE
8
layer0
10
583.751594091245
20
538.469134027492
30
0
11
574.378389468683
21
538.714748447009
31
0
0
LINE
8
layer0
10
574.378389468683
20
538.714748447009
30
0
11
574.378389468683
21
542.178850062147
31
0
0
LINE
8
layer0
10
574.378389468683
20
542.178850062147
30
0
11
583.751594091245
21
541.93323564263
31
0
0
LINE
8
layer0
10
574.378389468683
20
542.178850062147
30
0
11
574.378389468683
21
538.714748447009
31
0
0
LINE
8
layer0
10
574.378389468683
20
538.714748447009
30
0
11
565.312144074438
21
537.500101881124
31
0
0
LINE
8
layer0
10
565.312144074438
20
537.500101881124
30
0
11
565.312144074438
21
540.964203496262
31
0
0
LINE
8
layer0
10
565.312144074438
20
540.964203496262
30
0
11
574.378389468683
21
542.178850062147
31
0
0
LINE
8
layer0
10
565.312144074438
20
540.964203496262
30
0
11
565.312144074438
21
537.500101881124
31
0
0
LINE
8
layer0
10
565.312144074438
20
537.500101881124
30
0
11
557.440325175947
21
534.944092398646
31
0
0
LINE
8
layer0
10
557.440325175947
20
534.944092398646
30
0
11
557.440325175947
21
538.408194013784
31
0
0
LINE
8
layer0
10
557.440325175947
20
538.408194013784
30
0
11
565.312144074438
21
540.964203496262
31
0
0
LINE
8
layer0
10
557.440325175947
20
538.408194013784
30
0
11
557.440325175947
21
534.944092398646
31
0
0
LINE
8
layer0
10
557.440325175947
20
534.944092398646
30
0
11
551.533481253179
21
531.296920016485
31
0
0
LINE
8
layer0
10
551.533481253179
20
531.296920016485
30
0
11
551.533481253179
21
534.761021631623
31
0
0
LINE
8
layer0
10
551.533481253179
20
534.761021631623
30
0
11
557.440325175947
21
538.408194013784
31
0
0
LINE
8
layer0
10
551.533481253179
20
534.761021631623
30
0
11
551.533481253179
21
531.296920016485
31
0
0
LINE
8
layer0
10
551.533481253179
20
531.296920016485
30
0
11
546.781948043443
21
527.181971549928
31
0
0
LINE
8
layer0
10
546.781948043443
20
527.181971549928
30
0
11
546.781948043443
21
530.646073165066
31
0
0
LINE
8
layer0
10
546.781948043443
20
530.646073165066
30
0
11
551.533481253179
21
534.761021631623
31
0
0
LINE
8
layer0
10
546.781948043443
20
530.646073165066
30
0
11
546.781948043443
21
527.181971549928
31
0
0
LINE
8
layer0
10
546.781948043443
20
527.181971549928
30
0
11
537.875345857178
21
519.468627795221
31
0
0
LINE
8
layer0
10
537.875345857178
20
519.468627795221
30
0
11
537.875345857178
21
522.932729410359
31
0
0
LINE
8
layer0
10
537.875345857178
20
522.932729410359
30
0
11
546.781948043443
21
530.646073165066
31
0
0
LINE
8
layer0
10
537.875345857178
20
522.932729410359
30
0
11
537.875345857178
21
519.468627795221
31
0
0
LINE
8
layer0
10
537.875345857178
20
519.468627795221
30
0
11
527.485514953191
21
510.470770291343
31
0
0
LINE
8
layer0
10
527.485514953191
20
510.470770291343
30
0
11
527.485514953191
21
513.934871906481
31
0
0
LINE
8
layer0
10
527.485514953191
20
513.934871906481
30
0
11
537.875345857178
21
522.932729410359
31
0
0
LINE
8
layer0
10
527.485514953191
20
513.934871906481
30
0
11
527.485514953191
21
510.470770291343
31
0
0
LINE
8
layer0
10
527.485514953191
20
510.470770291343
30
0
11
510.288723656799
21
495.577912165089
31
0
0
LINE
8
layer0
10
510.288723656799
20
495.577912165089
30
0
11
510.288723656799
21
499.042013780226
31
0
0
LINE
8
layer0
10
510.288723656799
20
499.042013780226
30
0
11
527.485514953191
21
513.934871906481
31
0
0
LINE
8
layer0
10
510.288723656799
20
499.042013780226
30
0
11
510.288723656799
21
495.577912165089
31
0
0
LINE
8
layer0
10
510.288723656799
20
495.577912165089
30
0
11
441.827208533054
21
436.288500886353
31
0
0
LINE
8
layer0
10
441.827208533054
20
436.288500886353
30
0
11
441.827208533054
21
439.75260250149
31
0
0
LINE
8
layer0
10
441.827208533054
20
439.75260250149
30
0
11
510.288723656799
21
499.042013780226
31
0
0
LINE
8
layer0
10
441.827208533054
20
439.75260250149
30
0
11
441.827208533054
21
436.288500886353
31
0
0
LINE
8
layer0
10
441.827208533054
20
436.288500886353
30
0
11
385.033481253179
21
387.103690286376
31
0
0
LINE
8
layer0
10
385.033481253179
20
387.103690286376
30
0
11
385.033481253179
21
390.567791901514
31
0
0
LINE
8
layer0
10
385.033481253179
20
390.567791901514
30
0
11
441.827208533054
21
439.75260250149
31
0
0
LINE
8
layer0
10
385.033481253179
20
390.567791901514
30
0
11
385.033481253179
21
387.103690286376
31
0
0
LINE
8
layer0
10
385.033481253179
20
387.103690286376
30
0
11
381.669815344698
21
382.722365648643
31
0
0
LINE
8
layer0
10
381.669815344698
20
382.722365648643
30
0
11
381.669815344698
21
386.18646726378
31
0
0
LINE
8
layer0
10
381.669815344698
20
386.18646726378
30
0
11
385.033481253179
21
390.567791901514
31
0
0
LINE
8
layer0
10
381.669815344698
20
386.18646726378
30
0
11
381.669815344698
21
382.722365648643
31
0
0
LINE
8
layer0
10
381.669815344698
20
382.722365648643
30
0
11
381.178586505664
21
378.035763337361
31
0
0
LINE
8
layer0
10
381.178586505664
20
378.035763337361
30
0
11
381.178586505664
21
381.499864952499
31
0
0
LINE
8
layer0
10
381.178586505664
20
381.499864952499
30
0
11
381.669815344698
21
386.18646726378
31
0
0
LINE
8
layer0
10
381.178586505664
20
381.499864952499
30
0
11
381.178586505664
21
378.035763337361
31
0
0
LINE
8
layer0
10
381.178586505664
20
378.035763337361
30
0
11
383.607879637434
21
373.502640640239
31
0
0
LINE
8
layer0
10
383.607879637434
20
373.502640640239
30
0
11
383.607879637434
21
376.966742255377
31
0
0
LINE
8
layer0
10
383.607879637434
20
376.966742255377
30
0
11
381.178586505664
21
381.499864952499
31
0
0
LINE
8
layer0
10
383.607879637434
20
376.966742255377
30
0
11
383.607879637434
21
373.502640640239
31
0
0
LINE
8
layer0
10
383.607879637434
20
373.502640640239
30
0
11
388.719898602391
21
369.566731190993
31
0
0
LINE
8
layer0
10
388.719898602391
20
369.566731190993
30
0
11
388.719898602391
21
373.030832806131
31
0
0
LINE
8
layer0
10
388.719898602391
20
373.030832806131
30
0
11
383.607879637434
21
376.966742255377
31
0
0
LINE
8
layer0
10
388.719898602391
20
373.030832806131
30
0
11
388.719898602391
21
369.566731190993
31
0
0
LINE
8
layer0
10
388.719898602391
20
369.566731190993
30
0
11
396.014243366712
21
366.61330922961
31
0
0
LINE
8
layer0
10
396.014243366712
20
366.61330922961
30
0
11
396.014243366712
21
370.077410844747
31
0
0
LINE
8
layer0
10
396.014243366712
20
370.077410844747
30
0
11
388.719898602391
21
373.030832806131
31
0
0
LINE
8
layer0
10
396.014243366712
20
370.077410844747
30
0
11
396.014243366712
21
366.61330922961
31
0
0
LINE
8
layer0
10
396.014243366712
20
366.61330922961
30
0
11
404.244140299826
21
364.237542624742
31
0
0
LINE
8
layer0
10
404.244140299826
20
364.237542624742
30
0
11
404.244140299826
21
367.701644239879
31
0
0
LINE
8
layer0
10
404.244140299826
20
367.701644239879
30
0
11
396.014243366712
21
370.077410844747
31
0
0
LINE
8
layer0
10
404.244140299826
20
367.701644239879
30
0
11
404.244140299826
21
364.237542624742
31
0
0
LINE
8
layer0
10
404.244140299826
20
364.237542624742
30
0
11
419.670827809241
21
359.784241531609
31
0
0
LINE
8
layer0
10
419.670827809241
20
359.784241531609
30
0
11
419.670827809241
21
363.248343146747
31
0
0
LINE
8
layer0
10
419.670827809241
20
363.248343146747
30
0
11
404.244140299826
21
367.701644239879
31
0
0
LINE
8
layer0
10
419.670827809241
20
363.248343146747
30
0
11
419.670827809241
21
359.784241531609
31
0
0
LINE
8
layer0
10
419.670827809241
20
359.784241531609
30
0
11
437.666542816997
21
354.589326079615
31
0
0
LINE
8
layer0
10
437.666542816997
20
354.589326079615
30
0
11
437.666542816997
21
358.053427694753
31
0
0
LINE
8
layer0
10
437.666542816997
20
358.053427694753
30
0
11
419.670827809241
21
363.248343146747
31
0
0
LINE
8
layer0
10
437.666542816997
20
358.053427694753
30
0
11
437.666542816997
21
354.589326079615
31
0
0
LINE
8
layer0
10
437.666542816997
20
354.589326079615
30
0
11
467.452259069506
21
345.990930431419
31
0
0
LINE
8
layer0
10
467.452259069506
20
345.990930431419
30
0
11
467.452259069506
21
349.455032046557
31
0
0
LINE
8
layer0
10
467.452259069506
20
349.455032046557
30
0
11
437.666542816997
21
358.053427694753
31
0
0
LINE
8
layer0
10
467.452259069506
20
349.455032046557
30
0
11
467.452259069506
21
345.990930431419
31
0
0
LINE
8
layer0
10
467.452259069506
20
345.990930431419
30
0
11
586.031081626978
21
311.760172869547
31
0
0
LINE
8
layer0
10
586.031081626978
20
311.760172869547
30
0
11
586.031081626978
21
315.224274484685
31
0
0
LINE
8
layer0
10
586.031081626978
20
315.224274484685
30
0
11
467.452259069506
21
349.455032046557
31
0
0
LINE
8
layer0
10
586.031081626978
20
315.224274484685
30
0
11
586.031081626978
21
311.760172869547
31
0
0
LINE
8
layer0
10
586.031081626978
20
311.760172869547
30
0
11
729.434023823721
21
270.36330922961
31
0
0
LINE
8
layer0
10
729.434023823721
20
270.36330922961
30
0
11
729.434023823721
21
273.827410844747
31
0
0
LINE
8
layer0
10
729.434023823721
20
273.827410844747
30
0
11
586.031081626978
21
315.224274484685
31
0
0
LINE
8
layer0
10
729.434023823721
20
273.827410844747
30
0
11
729.434023823721
21
270.36330922961
31
0
0
LINE
8
layer0
10
729.434023823721
20
270.36330922961
30
0
11
738.196673099189
21
268.681476275369
31
0
0
LINE
8
layer0
10
738.196673099189
20
268.681476275369
30
0
11
738.196673099189
21
272.145577890507
31
0
0
LINE
8
layer0
10
738.196673099189
20
272.145577890507
30
0
11
729.434023823721
21
273.827410844747
31
0
0
LINE
8
layer0
10
738.196673099189
20
272.145577890507
30
0
11
738.196673099189
21
268.681476275369
31
0
0
LINE
8
layer0
10
738.196673099189
20
268.681476275369
30
0
11
747.569877721751
21
268.435861855852
31
0
0
LINE
8
layer0
10
747.569877721751
20
268.435861855852
30
0
11
747.569877721751
21
271.89996347099
31
0
0
LINE
8
layer0
10
747.569877721751
20
271.89996347099
30
0
11
738.196673099189
21
272.145577890507
31
0
0
LINE
8
layer0
10
747.569877721751
20
271.89996347099
30
0
11
747.569877721751
21
268.435861855852
31
0
0
LINE
8
layer0
10
747.569877721751
20
268.435861855852
30
0
11
756.636123115995
21
269.650508421737
31
0
0
LINE
8
layer0
10
756.636123115995
20
269.650508421737
30
0
11
756.636123115995
21
273.114610036875
31
0
0
LINE
8
layer0
10
756.636123115995
20
273.114610036875
30
0
11
747.569877721751
21
271.89996347099
31
0
0
LINE
8
layer0
10
756.636123115995
20
273.114610036875
30
0
11
756.636123115995
21
269.650508421737
31
0
0
LINE
8
layer0
10
756.636123115995
20
269.650508421737
30
0
11
764.507942014487
21
272.206517904215
31
0
0
LINE
8
layer0
10
764.507942014487
20
272.206517904215
30
0
11
764.507942014487
21
275.670619519353
31
0
0
LINE
8
layer0
10
764.507942014487
20
275.670619519353
30
0
11
756.636123115995
21
273.114610036875
31
0
0
LINE
8
layer0
10
764.507942014487
20
275.670619519353
30
0
11
764.507942014487
21
272.206517904215
31
0
0
LINE
8
layer0
10
764.507942014487
20
272.206517904215
30
0
11
770.414785937254
21
275.853690286376
31
0
0
LINE
8
layer0
10
770.414785937254
20
275.853690286376
30
0
11
770.414785937254
21
279.317791901514
31
0
0
LINE
8
layer0
10
770.414785937254
20
279.317791901514
30
0
11
764.507942014487
21
275.670619519353
31
0
0
LINE
8
layer0
10
770.414785937254
20
279.317791901514
30
0
11
770.414785937254
21
275.853690286376
31
0
0
LINE
8
layer0
10
770.414785937254
20
275.853690286376
30
0
11
775.166319146991
21
279.968638752933
31
0
0
LINE
8
layer0
10
775.166319146991
20
279.968638752933
30
0
11
775.166319146991
21
283.432740368071
31
0
0
LINE
8
layer0
10
775.166319146991
20
283.432740368071
30
0
11
770.414785937254
21
279.317791901514
31
0
0
LINE
8
layer0
10
775.166319146991
20
283.432740368071
30
0
11
775.166319146991
21
279.968638752933
31
0
0
LINE
8
layer0
10
775.166319146991
20
279.968638752933
30
0
11
784.072921333255
21
287.68198250764
31
0
0
LINE
8
layer0
10
784.072921333255
20
287.68198250764
30
0
11
784.072921333255
21
291.146084122778
31
0
0
LINE
8
layer0
10
784.072921333255
20
291.146084122778
30
0
11
775.166319146991
21
283.432740368071
31
0
0
LINE
8
layer0
10
784.072921333255
20
291.146084122778
30
0
11
784.072921333255
21
287.68198250764
31
0
0
LINE
8
layer0
10
784.072921333255
20
287.68198250764
30
0
11
794.462752237243
21
296.679840011519
31
0
0
LINE
8
layer0
10
794.462752237243
20
296.679840011519
30
0
11
794.462752237243
21
300.143941626656
31
0
0
LINE
8
layer0
10
794.462752237243
20
300.143941626656
30
0
11
784.072921333255
21
291.146084122778
31
0
0
LINE
8
layer0
10
794.462752237243
20
300.143941626656
30
0
11
794.462752237243
21
296.679840011519
31
0
0
LINE
8
layer0
10
794.462752237243
20
296.679840011519
30
0
11
811.659543533635
21
311.572698137773
31
0
0
LINE
8
layer0
10
811.659543533635
20
311.572698137773
30
0
11
811.659543533635
21
315.036799752911
31
0
0
LINE
8
layer0
10
811.659543533635
20
315.036799752911
30
0
11
794.462752237243
21
300.143941626656
31
0
0
LINE
8
layer0
10
811.659543533635
20
315.036799752911
30
0
11
811.659543533635
21
311.572698137773
31
0
0
LINE
8
layer0
10
811.659543533635
20
311.572698137773
30
0
11
880.12105865738
21
370.862109416509
31
0
0
LINE
8
layer0
10
880.12105865738
20
370.862109416509
30
0
11
880.12105865738
21
374.326211031647
31
0
0
LINE
8
layer0
10
880.12105865738
20
374.326211031647
30
0
11
811.659543533635
21
315.036799752911
31
0
0
LINE
8
layer0
10
880.12105865738
20
374.326211031647
30
0
11
880.12105865738
21
370.862109416509
31
0
0
LINE
8
layer0
10
880.12105865738
20
370.862109416509
30
0
11
936.914785937254
21
420.046920016485
31
0
0
LINE
8
layer0
10
936.914785937254
20
420.046920016485
30
0
11
936.914785937254
21
423.511021631623
31
0
0
LINE
8
layer0
10
936.914785937254
20
423.511021631623
30
0
11
880.12105865738
21
374.326211031647
31
0
0
LINE
8
layer0
10
936.914785937254
20
423.511021631623
30
0
11
936.914785937254
21
420.046920016485
31
0
0
LINE
8
layer0
10
936.914785937254
20
420.046920016485
30
0
11
940.278451845735
21
424.428244654219
31
0
0
LINE
8
layer0
10
940.278451845735
20
424.428244654219
30
0
11
940.278451845735
21
427.892346269357
31
0
0
LINE
8
layer0
10
940.278451845735
20
427.892346269357
30
0
11
936.914785937254
21
423.511021631623
31
0
0
LINE
8
layer0
10
940.278451845735
20
427.892346269357
30
0
11
940.278451845735
21
424.428244654219
31
0
0
LINE
8
layer0
10
940.278451845735
20
424.428244654219
30
0
11
940.769680684769
21
429.1148469655
31
0
0
LINE
8
layer0
10
940.769680684769
20
429.1148469655
30
0
11
940.769680684769
21
432.578948580638
31
0
0
LINE
8
layer0
10
940.769680684769
20
432.578948580638
30
0
11
940.278451845735
21
427.892346269357
31
0
0
LINE
8
layer0
10
940.769680684769
20
432.578948580638
30
0
11
940.769680684769
21
429.1148469655
31
0
0
LINE
8
layer0
10
940.769680684769
20
429.1148469655
30
0
11
938.340387552999
21
433.647969662622
31
0
0
LINE
8
layer0
10
938.340387552999
20
433.647969662622
30
0
11
938.340387552999
21
437.11207127776
31
0
0
LINE
8
layer0
10
938.340387552999
20
437.11207127776
30
0
11
940.769680684769
21
432.578948580638
31
0
0
LINE
8
layer0
10
938.340387552999
20
437.11207127776
30
0
11
938.340387552999
21
433.647969662622
31
0
0
LINE
8
layer0
10
938.340387552999
20
433.647969662622
30
0
11
933.228368588043
21
437.583879111868
31
0
0
LINE
8
layer0
10
933.228368588043
20
437.583879111868
30
0
11
933.228368588043
21
441.047980727006
31
0
0
LINE
8
layer0
10
933.228368588043
20
441.047980727006
30
0
11
938.340387552999
21
437.11207127776
31
0
0
LINE
8
layer0
10
933.228368588043
20
441.047980727006
30
0
11
933.228368588043
21
437.583879111868
31
0
0
LINE
8
layer0
10
933.228368588043
20
437.583879111868
30
0
11
925.934023823721
21
440.537301073252
31
0
0
LINE
8
layer0
10
925.934023823721
20
440.537301073252
30
0
11
925.934023823721
21
444.00140268839
31
0
0
LINE
8
layer0
10
925.934023823721
20
444.00140268839
30
0
11
933.228368588043
21
441.047980727006
31
0
0
LINE
8
layer0
10
884.953261710188
20
435.046920016485
30
0
11
884.953261710188
21
438.511021631623
31
0
0
LINE
8
layer0
10
884.953261710188
20
438.511021631623
30
0
11
603.495005480245
21
519.761021631623
31
0
0
LINE
8
layer0
10
603.495005480245
20
519.761021631623
30
0
11
603.495005480245
21
516.296920016485
31
0
0
LINE
8
layer0
10
603.495005480245
20
516.296920016485
30
0
11
884.953261710188
21
435.046920016485
31
0
0
LINE
8
layer0
10
603.495005480245
20
516.296920016485
30
0
11
603.495005480245
21
519.761021631623
31
0
0
LINE
8
layer0
10
603.495005480245
20
519.761021631623
30
0
11
594.732356204778
21
521.442854585864
31
0
0
LINE
8
layer0
10
594.732356204778
20
521.442854585864
30
0
11
594.732356204778
21
517.978752970726
31
0
0
LINE
8
layer0
10
594.732356204778
20
517.978752970726
30
0
11
603.495005480245
21
516.296920016485
31
0
0
LINE
8
layer0
10
594.732356204778
20
517.978752970726
30
0
11
594.732356204778
21
521.442854585864
31
0
0
LINE
8
layer0
10
594.732356204778
20
521.442854585864
30
0
11
585.359151582216
21
521.688469005381
31
0
0
LINE
8
layer0
10
585.359151582216
20
521.688469005381
30
0
11
585.359151582216
21
518.224367390243
31
0
0
LINE
8
layer0
10
585.359151582216
20
518.224367390243
30
0
11
594.732356204778
21
517.978752970726
31
0
0
LINE
8
layer0
10
585.359151582216
20
518.224367390243
30
0
11
585.359151582216
21
521.688469005381
31
0
0
LINE
8
layer0
10
585.359151582216
20
521.688469005381
30
0
11
576.292906187972
21
520.473822439495
31
0
0
LINE
8
layer0
10
576.292906187972
20
520.473822439495
30
0
11
576.292906187972
21
517.009720824358
31
0
0
LINE
8
layer0
10
576.292906187972
20
517.009720824358
30
0
11
585.359151582216
21
518.224367390243
31
0
0
LINE
8
layer0
10
576.292906187972
20
517.009720824358
30
0
11
576.292906187972
21
520.473822439495
31
0
0
LINE
8
layer0
10
576.292906187972
20
520.473822439495
30
0
11
568.42108728948
21
517.917812957017
31
0
0
LINE
8
layer0
10
568.42108728948
20
517.917812957017
30
0
11
568.42108728948
21
514.45371134188
31
0
0
LINE
8
layer0
10
568.42108728948
20
514.45371134188
30
0
11
576.292906187972
21
517.009720824358
31
0
0
LINE
8
layer0
10
568.42108728948
20
514.45371134188
30
0
11
568.42108728948
21
517.917812957017
31
0
0
LINE
8
layer0
10
568.42108728948
20
517.917812957017
30
0
11
562.514243366712
21
514.270640574856
31
0
0
LINE
8
layer0
10
562.514243366712
20
514.270640574856
30
0
11
562.514243366712
21
510.806538959719
31
0
0
LINE
8
layer0
10
562.514243366712
20
510.806538959719
30
0
11
568.42108728948
21
514.45371134188
31
0
0
LINE
8
layer0
10
562.514243366712
20
510.806538959719
30
0
11
562.514243366712
21
514.270640574856
31
0
0
LINE
8
layer0
10
562.514243366712
20
514.270640574856
30
0
11
426.014243366712
21
396.058172958281
31
0
0
LINE
8
layer0
10
426.014243366712
20
396.058172958281
30
0
11
426.014243366712
21
392.594071343143
31
0
0
LINE
8
layer0
10
426.014243366712
20
392.594071343143
30
0
11
562.514243366712
21
510.806538959719
31
0
0
LINE
8
layer0
10
426.014243366712
20
392.594071343143
30
0
11
426.014243366712
21
396.058172958281
31
0
0
LINE
8
layer0
10
426.014243366712
20
396.058172958281
30
0
11
422.650577458231
21
391.676848320547
31
0
0
LINE
8
layer0
10
422.650577458231
20
391.676848320547
30
0
11
422.650577458231
21
388.212746705409
31
0
0
LINE
8
layer0
10
422.650577458231
20
388.212746705409
30
0
11
426.014243366712
21
392.594071343143
31
0
0
LINE
8
layer0
10
422.650577458231
20
388.212746705409
30
0
11
422.650577458231
21
391.676848320547
31
0
0
LINE
8
layer0
10
422.650577458231
20
391.676848320547
30
0
11
422.159348619197
21
386.990246009266
31
0
0
LINE
8
layer0
10
422.159348619197
20
386.990246009266
30
0
11
422.159348619197
21
383.526144394128
31
0
0
LINE
8
layer0
10
422.159348619197
20
383.526144394128
30
0
11
422.650577458231
21
388.212746705409
31
0
0
LINE
8
layer0
10
422.159348619197
20
383.526144394128
30
0
11
422.159348619197
21
386.990246009266
31
0
0
LINE
8
layer0
10
422.159348619197
20
386.990246009266
30
0
11
424.588641750968
21
382.457123312144
31
0
0
LINE
8
layer0
10
424.588641750968
20
382.457123312144
30
0
11
424.588641750968
21
378.993021697006
31
0
0
LINE
8
layer0
10
424.588641750968
20
378.993021697006
30
0
11
422.159348619197
21
383.526144394128
31
0
0
LINE
8
layer0
10
424.588641750968
20
378.993021697006
30
0
11
424.588641750968
21
382.457123312144
31
0
0
LINE
8
layer0
10
424.588641750968
20
382.457123312144
30
0
11
429.700660715924
21
378.521213862898
31
0
0
LINE
8
layer0
10
429.700660715924
20
378.521213862898
30
0
11
429.700660715924
21
375.05711224776
31
0
0
LINE
8
layer0
10
429.700660715924
20
375.05711224776
30
0
11
424.588641750968
21
378.993021697006
31
0
0
LINE
8
layer0
10
429.700660715924
20
375.05711224776
30
0
11
429.700660715924
21
378.521213862898
31
0
0
LINE
8
layer0
10
429.700660715924
20
378.521213862898
30
0
11
436.995005480246
21
375.567791901514
31
0
0
LINE
8
layer0
10
436.995005480246
20
375.567791901514
30
0
11
436.995005480246
21
372.103690286376
31
0
0
LINE
8
layer0
10
436.995005480246
20
372.103690286376
30
0
11
429.700660715924
21
375.05711224776
31
0
0
LINE
8
layer0
10
436.995005480246
20
372.103690286376
30
0
11
436.995005480246
21
375.567791901514
31
0
0
LINE
8
layer0
10
436.995005480246
20
375.567791901514
30
0
11
718.453261710188
21
294.317791901514
31
0
0
LINE
8
layer0
10
718.453261710188
20
294.317791901514
30
0
11
718.453261710188
21
290.853690286376
31
0
0
LINE
8
layer0
10
718.453261710188
20
290.853690286376
30
0
11
436.995005480246
21
372.103690286376
31
0
0
LINE
8
layer0
10
718.453261710188
20
290.853690286376
30
0
11
718.453261710188
21
294.317791901514
31
0
0
LINE
8
layer0
10
718.453261710188
20
294.317791901514
30
0
11
727.215910985655
21
292.635958947273
31
0
0
LINE
8
layer0
10
727.215910985655
20
292.635958947273
30
0
11
727.215910985655
21
289.171857332136
31
0
0
LINE
8
layer0
10
727.215910985655
20
289.171857332136
30
0
11
718.453261710188
21
290.853690286376
31
0
0
LINE
8
layer0
10
727.215910985655
20
289.171857332136
30
0
11
727.215910985655
21
292.635958947273
31
0
0
LINE
8
layer0
10
727.215910985655
20
292.635958947273
30
0
11
736.589115608218
21
292.390344527756
31
0
0
LINE
8
layer0
10
736.589115608218
20
292.390344527756
30
0
11
736.589115608218
21
288.926242912619
31
0
0
LINE
8
layer0
10
736.589115608218
20
288.926242912619
30
0
11
727.215910985655
21
289.171857332136
31
0
0
LINE
8
layer0
10
736.589115608218
20
288.926242912619
30
0
11
736.589115608218
21
292.390344527756
31
0
0
LINE
8
layer0
10
736.589115608218
20
292.390344527756
30
0
11
745.655361002462
21
293.604991093642
31
0
0
LINE
8
layer0
10
745.655361002462
20
293.604991093642
30
0
11
745.655361002462
21
290.140889478504
31
0
0
LINE
8
layer0
10
745.655361002462
20
290.140889478504
30
0
11
736.589115608218
21
288.926242912619
31
0
0
LINE
8
layer0
10
745.655361002462
20
290.140889478504
30
0
11
745.655361002462
21
293.604991093642
31
0
0
LINE
8
layer0
10
745.655361002462
20
293.604991093642
30
0
11
753.527179900954
21
296.16100057612
31
0
0
LINE
8
layer0
10
753.527179900954
20
296.16100057612
30
0
11
753.527179900954
21
292.696898960982
31
0
0
LINE
8
layer0
10
753.527179900954
20
292.696898960982
30
0
11
745.655361002462
21
290.140889478504
31
0
0
LINE
8
layer0
10
753.527179900954
20
292.696898960982
30
0
11
753.527179900954
21
296.16100057612
31
0
0
LINE
8
layer0
10
753.527179900954
20
296.16100057612
30
0
11
759.434023823721
21
299.808172958281
31
0
0
LINE
8
layer0
10
759.434023823721
20
299.808172958281
30
0
11
759.434023823721
21
296.344071343143
31
0
0
LINE
8
layer0
10
759.434023823721
20
296.344071343143
30
0
11
753.527179900954
21
292.696898960982
31
0
0
LINE
8
layer0
10
759.434023823721
20
296.344071343143
30
0
11
759.434023823721
21
299.808172958281
31
0
0
LINE
8
layer0
10
759.434023823721
20
299.808172958281
30
0
11
895.934023823721
21
418.020640574856
31
0
0
LINE
8
layer0
10
895.934023823721
20
418.020640574856
30
0
11
895.934023823721
21
414.556538959719
31
0
0
LINE
8
layer0
10
895.934023823721
20
414.556538959719
30
0
11
759.434023823721
21
296.344071343143
31
0
0
LINE
8
layer0
10
895.934023823721
20
414.556538959719
30
0
11
895.934023823721
21
418.020640574856
31
0
0
LINE
8
layer0
10
895.934023823721
20
418.020640574856
30
0
11
899.297689732202
21
422.40196521259
31
0
0
LINE
8
layer0
10
899.297689732202
20
422.40196521259
30
0
11
899.297689732202
21
418.937863597452
31
0
0
LINE
8
layer0
10
899.297689732202
20
418.937863597452
30
0
11
895.934023823721
21
414.556538959719
31
0
0
LINE
8
layer0
10
899.297689732202
20
418.937863597452
30
0
11
899.297689732202
21
422.40196521259
31
0
0
LINE
8
layer0
10
899.297689732202
20
422.40196521259
30
0
11
899.788918571236
21
427.088567523871
31
0
0
LINE
8
layer0
10
899.788918571236
20
427.088567523871
30
0
11
899.788918571236
21
423.624465908734
31
0
0
LINE
8
layer0
10
899.788918571236
20
423.624465908734
30
0
11
899.297689732202
21
418.937863597452
31
0
0
LINE
8
layer0
10
899.788918571236
20
423.624465908734
30
0
11
899.788918571236
21
427.088567523871
31
0
0
LINE
8
layer0
10
899.788918571236
20
427.088567523871
30
0
11
897.359625439466
21
431.621690220993
31
0
0
LINE
8
layer0
10
897.359625439466
20
431.621690220993
30
0
11
897.359625439466
21
428.157588605856
31
0
0
LINE
8
layer0
10
897.359625439466
20
428.157588605856
30
0
11
899.788918571236
21
423.624465908734
31
0
0
LINE
8
layer0
10
897.359625439466
20
428.157588605856
30
0
11
897.359625439466
21
431.621690220993
31
0
0
LINE
8
layer0
10
897.359625439466
20
431.621690220993
30
0
11
892.24760647451
21
435.557599670239
31
0
0
LINE
8
layer0
10
892.24760647451
20
435.557599670239
30
0
11
892.24760647451
21
432.093498055102
31
0
0
LINE
8
layer0
10
892.24760647451
20
432.093498055102
30
0
11
897.359625439466
21
428.157588605856
31
0
0
LINE
8
layer0
10
892.24760647451
20
432.093498055102
30
0
11
892.24760647451
21
435.557599670239
31
0
0
LINE
8
layer0
10
892.24760647451
20
435.557599670239
30
0
11
884.953261710188
21
438.511021631623
31
0
0
LINE
8
layer0
10
884.953261710188
20
438.511021631623
30
0
11
884.953261710188
21
435.046920016485
31
0
0
LINE
8
layer0
10
884.953261710188
20
435.046920016485
30
0
11
892.24760647451
21
432.093498055102
31
0
0
LINE
8
layer0
10
925.934023823721
20
444.00140268839
30
0
11
592.514243366712
21
540.25140268839
31
0
0
LINE
8
layer0
10
592.514243366712
20
540.25140268839
30
0
11
583.751594091245
21
541.93323564263
31
0
0
LINE
8
layer0
10
583.751594091245
20
541.93323564263
30
0
11
574.378389468683
21
542.178850062147
31
0
0
LINE
8
layer0
10
574.378389468683
20
542.178850062147
30
0
11
565.312144074438
21
540.964203496262
31
0
0
LINE
8
layer0
10
565.312144074438
20
540.964203496262
30
0
11
557.440325175947
21
538.408194013784
31
0
0
LINE
8
layer0
10
557.440325175947
20
538.408194013784
30
0
11
551.533481253179
21
534.761021631623
31
0
0
LINE
8
layer0
10
551.533481253179
20
534.761021631623
30
0
11
551.533481253179
21
534.761021631623
31
0
0
LINE
8
layer0
10
551.533481253179
20
534.761021631623
30
0
11
936.914785937254
21
423.511021631623
31
0
0
LINE
8
layer0
10
936.914785937254
20
423.511021631623
30
0
11
940.278451845735
21
427.892346269357
31
0
0
LINE
8
layer0
10
940.278451845735
20
427.892346269357
30
0
11
940.769680684769
21
432.578948580638
31
0
0
LINE
8
layer0
10
940.769680684769
20
432.578948580638
30
0
11
938.340387552999
21
437.11207127776
31
0
0
LINE
8
layer0
10
938.340387552999
20
437.11207127776
30
0
11
933.228368588043
21
441.047980727006
31
0
0
LINE
8
layer0
10
933.228368588043
20
441.047980727006
30
0
11
925.934023823721
21
444.00140268839
31
0
0
LINE
8
layer0
10
546.781948043443
20
530.646073165066
30
0
11
603.495005480245
21
519.761021631623
31
0
0
LINE
8
layer0
10
603.495005480245
20
519.761021631623
30
0
11
551.533481253179
21
534.761021631623
31
0
0
LINE
8
layer0
10
551.533481253179
20
534.761021631623
30
0
11
546.781948043443
21
530.646073165066
31
0
0
LINE
8
layer0
10
537.875345857178
20
522.932729410359
30
0
11
594.732356204778
21
521.442854585864
31
0
0
LINE
8
layer0
10
594.732356204778
20
521.442854585864
30
0
11
546.781948043443
21
530.646073165066
31
0
0
LINE
8
layer0
10
546.781948043443
20
530.646073165066
30
0
11
537.875345857178
21
522.932729410359
31
0
0
LINE
8
layer0
10
527.485514953191
20
513.934871906481
30
0
11
585.359151582216
21
521.688469005381
31
0
0
LINE
8
layer0
10
585.359151582216
20
521.688469005381
30
0
11
537.875345857178
21
522.932729410359
31
0
0
LINE
8
layer0
10
537.875345857178
20
522.932729410359
30
0
11
527.485514953191
21
513.934871906481
31
0
0
LINE
8
layer0
10
510.288723656799
20
499.042013780226
30
0
11
576.292906187971
21
520.473822439495
31
0
0
LINE
8
layer0
10
576.292906187971
20
520.473822439495
30
0
11
527.485514953191
21
513.934871906481
31
0
0
LINE
8
layer0
10
527.485514953191
20
513.934871906481
30
0
11
510.288723656799
21
499.042013780226
31
0
0
LINE
8
layer0
10
441.827208533054
20
439.75260250149
30
0
11
568.42108728948
21
517.917812957017
31
0
0
LINE
8
layer0
10
568.42108728948
20
517.917812957017
30
0
11
510.288723656799
21
499.042013780226
31
0
0
LINE
8
layer0
10
510.288723656799
20
499.042013780226
30
0
11
441.827208533054
21
439.75260250149
31
0
0
LINE
8
layer0
10
396.014243366712
20
370.077410844747
30
0
11
562.514243366712
21
514.270640574856
31
0
0
LINE
8
layer0
10
562.514243366712
20
514.270640574856
30
0
11
441.827208533054
21
439.75260250149
31
0
0
LINE
8
layer0
10
441.827208533054
20
439.75260250149
30
0
11
385.033481253179
21
390.567791901514
31
0
0
LINE
8
layer0
10
385.033481253179
20
390.567791901514
30
0
11
381.669815344698
21
386.18646726378
31
0
0
LINE
8
layer0
10
381.669815344698
20
386.18646726378
30
0
11
381.178586505664
21
381.499864952499
31
0
0
LINE
8
layer0
10
381.178586505664
20
381.499864952499
30
0
11
383.607879637434
21
376.966742255377
31
0
0
LINE
8
layer0
10
383.607879637434
20
376.966742255377
30
0
11
388.719898602391
21
373.030832806131
31
0
0
LINE
8
layer0
10
388.719898602391
20
373.030832806131
30
0
11
396.014243366712
21
370.077410844747
31
0
0
LINE
8
layer0
10
396.014243366712
20
370.077410844747
30
0
11
396.014243366712
21
370.077410844747
31
0
0
LINE
8
layer0
10
404.244140299826
20
367.701644239879
30
0
11
426.014243366712
21
396.058172958281
31
0
0
LINE
8
layer0
10
426.014243366712
20
396.058172958281
30
0
11
396.014243366712
21
370.077410844747
31
0
0
LINE
8
layer0
10
396.014243366712
20
370.077410844747
30
0
11
404.244140299826
21
367.701644239879
31
0
0
LINE
8
layer0
10
419.670827809241
20
363.248343146747
30
0
11
422.650577458231
21
391.676848320547
31
0
0
LINE
8
layer0
10
422.650577458231
20
391.676848320547
30
0
11
404.244140299826
21
367.701644239879
31
0
0
LINE
8
layer0
10
404.244140299826
20
367.701644239879
30
0
11
419.670827809241
21
363.248343146747
31
0
0
LINE
8
layer0
10
437.666542816997
20
358.053427694753
30
0
11
422.159348619197
21
386.990246009266
31
0
0
LINE
8
layer0
10
422.159348619197
20
386.990246009266
30
0
11
419.670827809241
21
363.248343146747
31
0
0
LINE
8
layer0
10
419.670827809241
20
363.248343146747
30
0
11
437.666542816997
21
358.053427694753
31
0
0
LINE
8
layer0
10
467.452259069506
20
349.455032046557
30
0
11
424.588641750968
21
382.457123312144
31
0
0
LINE
8
layer0
10
424.588641750968
20
382.457123312144
30
0
11
437.666542816997
21
358.053427694753
31
0
0
LINE
8
layer0
10
437.666542816997
20
358.053427694753
30
0
11
467.452259069506
21
349.455032046557
31
0
0
LINE
8
layer0
10
586.031081626978
20
315.224274484685
30
0
11
429.700660715924
21
378.521213862898
31
0
0
LINE
8
layer0
10
429.700660715924
20
378.521213862898
30
0
11
467.452259069506
21
349.455032046557
31
0
0
LINE
8
layer0
10
467.452259069506
20
349.455032046557
30
0
11
586.031081626978
21
315.224274484685
31
0
0
LINE
8
layer0
10
770.414785937254
20
279.317791901514
30
0
11
436.995005480246
21
375.567791901514
31
0
0
LINE
8
layer0
10
436.995005480246
20
375.567791901514
30
0
11
586.031081626978
21
315.224274484685
31
0
0
LINE
8
layer0
10
586.031081626978
20
315.224274484685
30
0
11
729.434023823721
21
273.827410844747
31
0
0
LINE
8
layer0
10
729.434023823721
20
273.827410844747
30
0
11
738.196673099189
21
272.145577890507
31
0
0
LINE
8
layer0
10
738.196673099189
20
272.145577890507
30
0
11
747.569877721751
21
271.89996347099
31
0
0
LINE
8
layer0
10
747.569877721751
20
271.89996347099
30
0
11
756.636123115995
21
273.114610036875
31
0
0
LINE
8
layer0
10
756.636123115995
20
273.114610036875
30
0
11
764.507942014487
21
275.670619519353
31
0
0
LINE
8
layer0
10
764.507942014487
20
275.670619519353
30
0
11
770.414785937254
21
279.317791901514
31
0
0
LINE
8
layer0
10
770.414785937254
20
279.317791901514
30
0
11
770.414785937254
21
279.317791901514
31
0
0
LINE
8
layer0
10
775.166319146991
20
283.432740368071
30
0
11
718.453261710188
21
294.317791901514
31
0
0
LINE
8
layer0
10
718.453261710188
20
294.317791901514
30
0
11
770.414785937254
21
279.317791901514
31
0
0
LINE
8
layer0
10
770.414785937254
20
279.317791901514
30
0
11
775.166319146991
21
283.432740368071
31
0
0
LINE
8
layer0
10
784.072921333255
20
291.146084122778
30
0
11
727.215910985655
21
292.635958947273
31
0
0
LINE
8
layer0
10
727.215910985655
20
292.635958947273
30
0
11
775.166319146991
21
283.432740368071
31
0
0
LINE
8
layer0
10
775.166319146991
20
283.432740368071
30
0
11
784.072921333255
21
291.146084122778
31
0
0
LINE
8
layer0
10
794.462752237243
20
300.143941626656
30
0
11
736.589115608217
21
292.390344527757
31
0
0
LINE
8
layer0
10
736.589115608217
20
292.390344527757
30
0
11
784.072921333255
21
291.146084122778
31
0
0
LINE
8
layer0
10
784.072921333255
20
291.146084122778
30
0
11
794.462752237243
21
300.143941626656
31
0
0
LINE
8
layer0
10
811.659543533635
20
315.036799752911
30
0
11
745.655361002462
21
293.604991093642
31
0
0
LINE
8
layer0
10
745.655361002462
20
293.604991093642
30
0
11
794.462752237243
21
300.143941626656
31
0
0
LINE
8
layer0
10
794.462752237243
20
300.143941626656
30
0
11
811.659543533635
21
315.036799752911
31
0
0
LINE
8
layer0
10
880.12105865738
20
374.326211031647
30
0
11
753.527179900954
21
296.16100057612
31
0
0
LINE
8
layer0
10
753.527179900954
20
296.16100057612
30
0
11
811.659543533635
21
315.036799752911
31
0
0
LINE
8
layer0
10
811.659543533635
20
315.036799752911
30
0
11
880.12105865738
21
374.326211031647
31
0
0
LINE
8
layer0
10
936.914785937254
20
423.511021631623
30
0
11
910.934023823721
21
431.011021631623
31
0
0
LINE
8
layer0
10
910.934023823721
20
431.011021631623
30
0
11
759.434023823721
21
299.808172958281
31
0
0
LINE
8
layer0
10
759.434023823721
20
299.808172958281
30
0
11
880.12105865738
21
374.326211031647
31
0
0
LINE
8
layer0
10
880.12105865738
20
374.326211031647
30
0
11
936.914785937254
21
423.511021631623
31
0
0
LINE
8
layer0
10
936.914785937254
20
423.511021631623
30
0
11
936.914785937254
21
423.511021631623
31
0
0
LINE
8
layer0
10
906.819075357164
20
432.198904934057
30
0
11
895.934023823721
21
418.020640574856
31
0
0
LINE
8
layer0
10
895.934023823721
20
418.020640574856
30
0
11
910.934023823721
21
431.011021631623
31
0
0
LINE
8
layer0
10
910.934023823721
20
431.011021631623
30
0
11
906.819075357164
21
432.198904934057
31
0
0
LINE
8
layer0
10
900.515298875299
20
434.018648458415
30
0
11
899.297689732202
21
422.40196521259
31
0
0
LINE
8
layer0
10
899.297689732202
20
422.40196521259
30
0
11
906.819075357164
21
432.198904934057
31
0
0
LINE
8
layer0
10
906.819075357164
20
432.198904934057
30
0
11
900.515298875299
21
434.018648458415
31
0
0
LINE
8
layer0
10
895.26248648697
20
435.535004781617
30
0
11
899.788918571236
21
427.088567523871
31
0
0
LINE
8
layer0
10
899.788918571236
20
427.088567523871
30
0
11
900.515298875299
21
434.018648458415
31
0
0
LINE
8
layer0
10
900.515298875299
20
434.018648458415
30
0
11
895.26248648697
21
435.535004781617
31
0
0
LINE
8
layer0
10
890.486124785979
20
436.913821638525
30
0
11
897.359625439466
21
431.621690220993
31
0
0
LINE
8
layer0
10
897.359625439466
20
431.621690220993
30
0
11
895.26248648697
21
435.535004781617
31
0
0
LINE
8
layer0
10
895.26248648697
20
435.535004781617
30
0
11
890.486124785979
21
436.913821638525
31
0
0
LINE
8
layer0
10
884.953261710188
20
438.511021631623
30
0
11
892.24760647451
21
435.557599670239
31
0
0
LINE
8
layer0
10
892.24760647451
20
435.557599670239
30
0
11
890.486124785979
21
436.913821638525
31
0
0
LINE
8
layer0
10
890.486124785979
20
436.913821638525
30
0
11
884.953261710188
21
438.511021631623
31
0
0
ENDBLK
0
BLOCK
8
layer0
2
PF_OBJECT79
70
0
10
0
20
0
30
0
0
LINE
8
layer0
10
602.579941970784
20
388.10064120355
30
0
11
892.698452238571
21
304.35064120355
31
0
0
LINE
8
layer0
10
892.698452238571
20
304.35064120355
30
0
11
899.992797002893
21
301.397219242166
31
0
0
LINE
8
layer0
10
899.992797002893
20
301.397219242166
30
0
11
905.104815967849
21
297.46130979292
31
0
0
LINE
8
layer0
10
905.104815967849
20
297.46130979292
30
0
11
907.53410909962
21
292.928187095798
31
0
0
LINE
8
layer0
10
907.53410909962
20
292.928187095798
30
0
11
907.042880260586
21
288.241584784517
31
0
0
LINE
8
layer0
10
907.042880260586
20
288.241584784517
30
0
11
903.679214352105
21
283.860260146783
31
0
0
LINE
8
layer0
10
903.679214352105
20
283.860260146783
30
0
11
762.179214352105
21
161.317665511285
31
0
0
LINE
8
layer0
10
762.179214352105
20
161.317665511285
30
0
11
756.272370429337
21
157.670493129124
31
0
0
LINE
8
layer0
10
756.272370429337
20
157.670493129124
30
0
11
748.400551530845
21
155.114483646646
31
0
0
LINE
8
layer0
10
748.400551530845
20
155.114483646646
30
0
11
739.334306136601
21
153.899837080761
31
0
0
LINE
8
layer0
10
739.334306136601
20
153.899837080761
30
0
11
729.961101514039
21
154.145451500278
31
0
0
LINE
8
layer0
10
729.961101514039
20
154.145451500278
30
0
11
721.198452238571
21
155.827284454519
31
0
0
LINE
8
layer0
10
721.198452238571
20
155.827284454519
30
0
11
431.079941970784
21
239.577284454519
31
0
0
LINE
8
layer0
10
431.079941970784
20
239.577284454519
30
0
11
423.785597206463
21
242.530706415903
31
0
0
LINE
8
layer0
10
423.785597206463
20
242.530706415903
30
0
11
418.673578241506
21
246.466615865148
31
0
0
LINE
8
layer0
10
418.673578241506
20
246.466615865148
30
0
11
416.244285109736
21
250.999738562271
31
0
0
LINE
8
layer0
10
416.244285109736
20
250.999738562271
30
0
11
416.73551394877
21
255.686340873552
31
0
0
LINE
8
layer0
10
416.73551394877
20
255.686340873552
30
0
11
420.099179857251
21
260.067665511285
31
0
0
LINE
8
layer0
10
420.099179857251
20
260.067665511285
30
0
11
561.599179857251
21
382.610260146783
31
0
0
LINE
8
layer0
10
561.599179857251
20
382.610260146783
30
0
11
567.506023780019
21
386.257432528944
31
0
0
LINE
8
layer0
10
567.506023780019
20
386.257432528944
30
0
11
575.37784267851
21
388.813442011422
31
0
0
LINE
8
layer0
10
575.37784267851
20
388.813442011422
30
0
11
584.444088072755
21
390.028088577308
31
0
0
LINE
8
layer0
10
584.444088072755
20
390.028088577308
30
0
11
593.817292695317
21
389.78247415779
31
0
0
LINE
8
layer0
10
593.817292695317
20
389.78247415779
30
0
11
602.579941970784
21
388.10064120355
31
0
0
LINE
8
layer0
10
602.579941970784
20
392.430768222472
30
0
11
892.698452238571
21
308.680768222472
31
0
0
LINE
8
layer0
10
892.698452238571
20
308.680768222472
30
0
11
892.698452238571
21
304.35064120355
31
0
0
LINE
8
layer0
10
892.698452238571
20
304.35064120355
30
0
11
602.579941970784
21
388.10064120355
31
0
0
LINE
8
layer0
10
602.579941970784
20
388.10064120355
30
0
11
602.579941970784
21
392.430768222472
31
0
0
LINE
8
layer0
10
892.698452238571
20
434.254451771216
30
0
11
892.698452238571
21
308.680768222472
31
0
0
LINE
8
layer0
10
892.698452238571
20
308.680768222472
30
0
11
602.579941970784
21
392.430768222472
31
0
0
LINE
8
layer0
10
602.579941970784
20
392.430768222472
30
0
11
602.579941970784
21
518.004451771216
31
0
0
LINE
8
layer0
10
602.579941970784
20
518.004451771216
30
0
11
892.698452238571
21
434.254451771216
31
0
0
LINE
8
layer0
10
593.817292695317
20
394.112601176713
30
0
11
602.579941970784
21
392.430768222472
31
0
0
LINE
8
layer0
10
602.579941970784
20
392.430768222472
30
0
11
602.579941970784
21
388.10064120355
31
0
0
LINE
8
layer0
10
602.579941970784
20
388.10064120355
30
0
11
593.817292695317
21
389.78247415779
31
0
0
LINE
8
layer0
10
593.817292695317
20
389.78247415779
30
0
11
593.817292695317
21
394.112601176713
31
0
0
LINE
8
layer0
10
602.579941970784
20
518.004451771216
30
0
11
602.579941970784
21
392.430768222472
31
0
0
LINE
8
layer0
10
602.579941970784
20
392.430768222472
30
0
11
593.817292695317
21
394.112601176713
31
0
0
LINE
8
layer0
10
593.817292695317
20
394.112601176713
30
0
11
593.817292695317
21
519.686284725456
31
0
0
LINE
8
layer0
10
593.817292695317
20
519.686284725456
30
0
11
602.579941970784
21
518.004451771216
31
0
0
LINE
8
layer0
10
584.444088072755
20
394.35821559623
30
0
11
593.817292695317
21
394.112601176713
31
0
0
LINE
8
layer0
10
593.817292695317
20
394.112601176713
30
0
11
593.817292695317
21
389.78247415779
31
0
0
LINE
8
layer0
10
593.817292695317
20
389.78247415779
30
0
11
584.444088072755
21
390.028088577308
31
0
0
LINE
8
layer0
10
584.444088072755
20
390.028088577308
30
0
11
584.444088072755
21
394.35821559623
31
0
0
LINE
8
layer0
10
593.817292695317
20
519.686284725456
30
0
11
593.817292695317
21
394.112601176713
31
0
0
LINE
8
layer0
10
593.817292695317
20
394.112601176713
30
0
11
591.54790250624
21
394.172068026781
31
0
0
LINE
8
layer0
10
591.54790250624
20
394.172068026781
30
0
11
591.54790250624
21
519.745751575524
31
0
0
LINE
8
layer0
10
591.54790250624
20
519.745751575524
30
0
11
593.817292695317
21
519.686284725456
31
0
0
LINE
8
layer0
10
591.54790250624
20
519.745751575524
30
0
11
591.54790250624
21
394.172068026781
31
0
0
LINE
8
layer0
10
591.54790250624
20
394.172068026781
30
0
11
584.573829990258
21
394.354815853342
31
0
0
LINE
8
layer0
10
584.573829990258
20
394.354815853342
30
0
11
584.573829990258
21
519.928499402085
31
0
0
LINE
8
layer0
10
584.573829990258
20
519.928499402085
30
0
11
591.54790250624
21
519.745751575524
31
0
0
LINE
8
layer0
10
584.573829990258
20
519.928499402085
30
0
11
584.573829990258
21
394.354815853342
31
0
0
LINE
8
layer0
10
584.573829990258
20
394.354815853342
30
0
11
584.444088072755
21
394.35821559623
31
0
0
LINE
8
layer0
10
584.444088072755
20
394.35821559623
30
0
11
584.444088072755
21
519.931899144973
31
0
0
LINE
8
layer0
10
584.444088072755
20
519.931899144973
30
0
11
584.573829990258
21
519.928499402085
31
0
0
LINE
8
layer0
10
575.37784267851
20
393.143569030345
30
0
11
584.444088072755
21
394.35821559623
31
0
0
LINE
8
layer0
10
584.444088072755
20
394.35821559623
30
0
11
584.444088072755
21
390.028088577308
31
0
0
LINE
8
layer0
10
584.444088072755
20
390.028088577308
30
0
11
575.37784267851
21
388.813442011422
31
0
0
LINE
8
layer0
10
575.37784267851
20
388.813442011422
30
0
11
575.37784267851
21
393.143569030345
31
0
0
LINE
8
layer0
10
584.444088072755
20
519.931899144973
30
0
11
584.444088072755
21
394.35821559623
31
0
0
LINE
8
layer0
10
584.444088072755
20
394.35821559623
30
0
11
575.37784267851
21
393.143569030345
31
0
0
LINE
8
layer0
10
575.37784267851
20
393.143569030345
30
0
11
575.37784267851
21
518.717252579088
31
0
0
LINE
8
layer0
10
575.37784267851
20
518.717252579088
30
0
11
584.444088072755
21
519.931899144973
31
0
0
LINE
8
layer0
10
567.506023780019
20
390.587559547867
30
0
11
575.37784267851
21
393.143569030345
31
0
0
LINE
8
layer0
10
575.37784267851
20
393.143569030345
30
0
11
575.37784267851
21
388.813442011422
31
0
0
LINE
8
layer0
10
575.37784267851
20
388.813442011422
30
0
11
567.506023780019
21
386.257432528944
31
0
0
LINE
8
layer0
10
567.506023780019
20
386.257432528944
30
0
11
567.506023780019
21
390.587559547867
31
0
0
LINE
8
layer0
10
575.37784267851
20
518.717252579088
30
0
11
575.37784267851
21
393.143569030345
31
0
0
LINE
8
layer0
10
575.37784267851
20
393.143569030345
30
0
11
574.718592166407
21
392.929507886155
31
0
0
LINE
8
layer0
10
574.718592166407
20
392.929507886155
30
0
11
574.718592166407
21
518.503191434899
31
0
0
LINE
8
layer0
10
574.718592166407
20
518.503191434899
30
0
11
575.37784267851
21
518.717252579088
31
0
0
LINE
8
layer0
10
574.718592166407
20
518.503191434899
30
0
11
574.718592166407
21
392.929507886155
31
0
0
LINE
8
layer0
10
574.718592166407
20
392.929507886155
30
0
11
567.506023780019
21
390.587559547867
31
0
0
LINE
8
layer0
10
567.506023780019
20
390.587559547867
30
0
11
567.506023780019
21
516.16124309661
31
0
0
LINE
8
layer0
10
567.506023780019
20
516.16124309661
30
0
11
574.718592166407
21
518.503191434899
31
0
0
LINE
8
layer0
10
561.599179857251
20
386.940387165706
30
0
11
567.506023780019
21
390.587559547867
31
0
0
LINE
8
layer0
10
567.506023780019
20
390.587559547867
30
0
11
567.506023780019
21
386.257432528944
31
0
0
LINE
8
layer0
10
567.506023780019
20
386.257432528944
30
0
11
561.599179857251
21
382.610260146783
31
0
0
LINE
8
layer0
10
561.599179857251
20
382.610260146783
30
0
11
561.599179857251
21
386.940387165706
31
0
0
LINE
8
layer0
10
567.506023780019
20
516.16124309661
30
0
11
567.506023780019
21
390.587559547867
31
0
0
LINE
8
layer0
10
567.506023780019
20
390.587559547867
30
0
11
566.826067242427
21
390.167721350447
31
0
0
LINE
8
layer0
10
566.826067242427
20
390.167721350447
30
0
11
566.826067242427
21
515.741404899191
31
0
0
LINE
8
layer0
10
566.826067242427
20
515.741404899191
30
0
11
567.506023780019
21
516.16124309661
31
0
0
LINE
8
layer0
10
566.826067242427
20
515.741404899191
30
0
11
566.826067242427
21
390.167721350447
31
0
0
LINE
8
layer0
10
566.826067242427
20
390.167721350447
30
0
11
561.599179857251
21
386.940387165706
31
0
0
LINE
8
layer0
10
561.599179857251
20
386.940387165706
30
0
11
561.599179857251
21
512.514070714449
31
0
0
LINE
8
layer0
10
561.599179857251
20
512.514070714449
30
0
11
566.826067242427
21
515.741404899191
31
0
0
LINE
8
layer0
10
420.099179857251
20
264.397792530208
30
0
11
561.599179857251
21
386.940387165706
31
0
0
LINE
8
layer0
10
561.599179857251
20
386.940387165706
30
0
11
561.599179857251
21
382.610260146783
31
0
0
LINE
8
layer0
10
561.599179857251
20
382.610260146783
30
0
11
420.099179857251
21
260.067665511285
31
0
0
LINE
8
layer0
10
420.099179857251
20
260.067665511285
30
0
11
420.099179857251
21
264.397792530208
31
0
0
LINE
8
layer0
10
561.599179857251
20
512.514070714449
30
0
11
561.599179857251
21
386.940387165706
31
0
0
LINE
8
layer0
10
561.599179857251
20
386.940387165706
30
0
11
561.090316711567
21
386.499698754493
31
0
0
LINE
8
layer0
10
561.090316711567
20
386.499698754493
30
0
11
561.090316711567
21
512.073382303237
31
0
0
LINE
8
layer0
10
561.090316711567
20
512.073382303237
30
0
11
561.599179857251
21
512.514070714449
31
0
0
LINE
8
layer0
10
561.090316711567
20
512.073382303237
30
0
11
561.090316711567
21
386.499698754493
31
0
0
LINE
8
layer0
10
561.090316711567
20
386.499698754493
30
0
11
552.456990463907
21
379.023018904861
31
0
0
LINE
8
layer0
10
552.456990463907
20
379.023018904861
30
0
11
552.456990463907
21
504.596702453605
31
0
0
LINE
8
layer0
10
552.456990463907
20
504.596702453605
30
0
11
561.090316711567
21
512.073382303237
31
0
0
LINE
8
layer0
10
552.456990463907
20
504.596702453605
30
0
11
552.456990463907
21
379.023018904861
31
0
0
LINE
8
layer0
10
552.456990463907
20
379.023018904861
30
0
11
420.099179857251
21
264.397792530208
31
0
0
LINE
8
layer0
10
420.099179857251
20
264.397792530208
30
0
11
420.099179857251
21
389.971476078951
31
0
0
LINE
8
layer0
10
420.099179857251
20
389.971476078951
30
0
11
552.456990463907
21
504.596702453605
31
0
0
LINE
8
layer0
10
416.73551394877
20
260.016467892474
30
0
11
420.099179857251
21
264.397792530208
31
0
0
LINE
8
layer0
10
420.099179857251
20
264.397792530208
30
0
11
420.099179857251
21
260.067665511285
31
0
0
LINE
8
layer0
10
420.099179857251
20
260.067665511285
30
0
11
416.73551394877
21
255.686340873552
31
0
0
LINE
8
layer0
10
416.73551394877
20
255.686340873552
30
0
11
416.73551394877
21
260.016467892474
31
0
0
LINE
8
layer0
10
420.099179857251
20
389.971476078951
30
0
11
420.099179857251
21
264.397792530208
31
0
0
LINE
8
layer0
10
420.099179857251
20
264.397792530208
30
0
11
416.73551394877
21
260.016467892474
31
0
0
LINE
8
layer0
10
416.73551394877
20
260.016467892474
30
0
11
416.73551394877
21
385.590151441218
31
0
0
LINE
8
layer0
10
416.73551394877
20
385.590151441218
30
0
11
420.099179857251
21
389.971476078951
31
0
0
LINE
8
layer0
10
416.244285109736
20
255.329865581193
30
0
11
416.73551394877
21
260.016467892474
31
0
0
LINE
8
layer0
10
416.73551394877
20
260.016467892474
30
0
11
416.73551394877
21
255.686340873552
31
0
0
LINE
8
layer0
10
416.73551394877
20
255.686340873552
30
0
11
416.244285109736
21
250.999738562271
31
0
0
LINE
8
layer0
10
416.244285109736
20
250.999738562271
30
0
11
416.244285109736
21
255.329865581193
31
0
0
LINE
8
layer0
10
416.73551394877
20
385.590151441218
30
0
11
416.73551394877
21
260.016467892474
31
0
0
LINE
8
layer0
10
416.73551394877
20
260.016467892474
30
0
11
416.616580248634
21
258.881772797935
31
0
0
LINE
8
layer0
10
416.616580248634
20
258.881772797935
30
0
11
416.616580248634
21
384.455456346679
31
0
0
LINE
8
layer0
10
416.616580248634
20
384.455456346679
30
0
11
416.73551394877
21
385.590151441218
31
0
0
LINE
8
layer0
10
416.616580248634
20
384.455456346679
30
0
11
416.616580248634
21
258.881772797935
31
0
0
LINE
8
layer0
10
416.616580248634
20
258.881772797935
30
0
11
416.244285109736
21
255.329865581193
31
0
0
LINE
8
layer0
10
416.244285109736
20
255.329865581193
30
0
11
416.244285109736
21
380.903549129936
31
0
0
LINE
8
layer0
10
416.244285109736
20
380.903549129936
30
0
11
416.616580248634
21
384.455456346679
31
0
0
LINE
8
layer0
10
418.673578241506
20
250.796742884071
30
0
11
416.244285109736
21
255.329865581193
31
0
0
LINE
8
layer0
10
416.244285109736
20
255.329865581193
30
0
11
416.244285109736
21
250.999738562271
31
0
0
LINE
8
layer0
10
416.244285109736
20
250.999738562271
30
0
11
418.673578241506
21
246.466615865148
31
0
0
LINE
8
layer0
10
418.673578241506
20
246.466615865148
30
0
11
418.673578241506
21
250.796742884071
31
0
0
LINE
8
layer0
10
416.244285109736
20
380.903549129936
30
0
11
416.244285109736
21
255.329865581193
31
0
0
LINE
8
layer0
10
416.244285109736
20
255.329865581193
30
0
11
416.571020361457
21
254.720169301171
31
0
0
LINE
8
layer0
10
416.571020361457
20
254.720169301171
30
0
11
416.571020361457
21
380.293852849914
31
0
0
LINE
8
layer0
10
416.571020361457
20
380.293852849914
30
0
11
416.244285109736
21
380.903549129936
31
0
0
LINE
8
layer0
10
416.571020361457
20
380.293852849914
30
0
11
416.571020361457
21
254.720169301171
31
0
0
LINE
8
layer0
10
416.571020361457
20
254.720169301171
30
0
11
418.673578241506
21
250.796742884071
31
0
0
LINE
8
layer0
10
418.673578241506
20
250.796742884071
30
0
11
418.673578241506
21
376.370426432814
31
0
0
LINE
8
layer0
10
418.673578241506
20
376.370426432814
30
0
11
416.571020361457
21
380.293852849914
31
0
0
LINE
8
layer0
10
423.785597206463
20
246.860833434825
30
0
11
418.673578241506
21
250.796742884071
31
0
0
LINE
8
layer0
10
418.673578241506
20
250.796742884071
30
0
11
418.673578241506
21
246.466615865148
31
0
0
LINE
8
layer0
10
418.673578241506
20
246.466615865148
30
0
11
423.785597206463
21
242.530706415903
31
0
0
LINE
8
layer0
10
423.785597206463
20
242.530706415903
30
0
11
423.785597206463
21
246.860833434825
31
0
0
LINE
8
layer0
10
418.673578241506
20
376.370426432814
30
0
11
418.673578241506
21
250.796742884071
31
0
0
LINE
8
layer0
10
418.673578241506
20
250.796742884071
30
0
11
421.2050277801
21
248.847697657998
31
0
0
LINE
8
layer0
10
421.2050277801
20
248.847697657998
30
0
11
421.2050277801
21
374.421381206742
31
0
0
LINE
8
layer0
10
421.2050277801
20
374.421381206742
30
0
11
418.673578241506
21
376.370426432814
31
0
0
LINE
8
layer0
10
421.2050277801
20
374.421381206742
30
0
11
421.2050277801
21
248.847697657998
31
0
0
LINE
8
layer0
10
421.2050277801
20
248.847697657998
30
0
11
423.785597206463
21
246.860833434825
31
0
0
LINE
8
layer0
10
423.785597206463
20
246.860833434825
30
0
11
423.785597206463
21
372.434516983568
31
0
0
LINE
8
layer0
10
423.785597206463
20
372.434516983568
30
0
11
421.2050277801
21
374.421381206742
31
0
0
LINE
8
layer0
10
431.079941970784
20
243.907411473441
30
0
11
423.785597206463
21
246.860833434825
31
0
0
LINE
8
layer0
10
423.785597206463
20
246.860833434825
30
0
11
423.785597206463
21
242.530706415903
31
0
0
LINE
8
layer0
10
423.785597206463
20
242.530706415903
30
0
11
431.079941970784
21
239.577284454519
31
0
0
LINE
8
layer0
10
431.079941970784
20
239.577284454519
30
0
11
431.079941970784
21
243.907411473441
31
0
0
LINE
8
layer0
10
423.785597206463
20
372.434516983568
30
0
11
423.785597206463
21
246.860833434825
31
0
0
LINE
8
layer0
10
423.785597206463
20
246.860833434825
30
0
11
429.299813981268
21
244.628171084918
31
0
0
LINE
8
layer0
10
429.299813981268
20
244.628171084918
30
0
11
429.299813981268
21
370.201854633662
31
0
0
LINE
8
layer0
10
429.299813981268
20
370.201854633662
30
0
11
423.785597206463
21
372.434516983568
31
0
0
LINE
8
layer0
10
429.299813981268
20
370.201854633662
30
0
11
429.299813981268
21
244.628171084918
31
0
0
LINE
8
layer0
10
429.299813981268
20
244.628171084918
30
0
11
431.079941970784
21
243.907411473441
31
0
0
LINE
8
layer0
10
431.079941970784
20
243.907411473441
30
0
11
431.079941970784
21
369.481095022185
31
0
0
LINE
8
layer0
10
431.079941970784
20
369.481095022185
30
0
11
429.299813981268
21
370.201854633662
31
0
0
LINE
8
layer0
10
721.198452238571
20
160.157411473441
30
0
11
431.079941970784
21
243.907411473441
31
0
0
LINE
8
layer0
10
431.079941970784
20
243.907411473441
30
0
11
431.079941970784
21
239.577284454519
31
0
0
LINE
8
layer0
10
431.079941970784
20
239.577284454519
30
0
11
721.198452238571
21
155.827284454519
31
0
0
LINE
8
layer0
10
721.198452238571
20
155.827284454519
30
0
11
721.198452238571
21
160.157411473441
31
0
0
LINE
8
layer0
10
431.079941970784
20
369.481095022185
30
0
11
431.079941970784
21
243.907411473441
31
0
0
LINE
8
layer0
10
431.079941970784
20
243.907411473441
30
0
11
440.459671570718
21
241.199716768717
31
0
0
LINE
8
layer0
10
440.459671570718
20
241.199716768717
30
0
11
440.459671570718
21
366.773400317461
31
0
0
LINE
8
layer0
10
440.459671570718
20
366.773400317461
30
0
11
431.079941970784
21
369.481095022185
31
0
0
LINE
8
layer0
10
440.459671570718
20
366.773400317461
30
0
11
440.459671570718
21
241.199716768717
31
0
0
LINE
8
layer0
10
440.459671570718
20
241.199716768717
30
0
11
474.254024516928
21
231.444127383425
31
0
0
LINE
8
layer0
10
474.254024516928
20
231.444127383425
30
0
11
474.254024516928
21
357.017810932169
31
0
0
LINE
8
layer0
10
474.254024516928
20
357.017810932169
30
0
11
440.459671570718
21
366.773400317461
31
0
0
LINE
8
layer0
10
474.254024516928
20
357.017810932169
30
0
11
474.254024516928
21
231.444127383425
31
0
0
LINE
8
layer0
10
474.254024516928
20
231.444127383425
30
0
11
721.198452238571
21
160.157411473441
31
0
0
LINE
8
layer0
10
721.198452238571
20
160.157411473441
30
0
11
721.198452238571
21
285.731095022185
31
0
0
LINE
8
layer0
10
721.198452238571
20
285.731095022185
30
0
11
474.254024516928
21
357.017810932169
31
0
0
LINE
8
layer0
10
729.961101514039
20
158.4755785192
30
0
11
721.198452238571
21
160.157411473441
31
0
0
LINE
8
layer0
10
721.198452238571
20
160.157411473441
30
0
11
721.198452238571
21
155.827284454519
31
0
0
LINE
8
layer0
10
721.198452238571
20
155.827284454519
30
0
11
729.961101514039
21
154.145451500278
31
0
0
LINE
8
layer0
10
729.961101514039
20
154.145451500278
30
0
11
729.961101514039
21
158.4755785192
31
0
0
LINE
8
layer0
10
721.198452238571
20
285.731095022185
30
0
11
721.198452238571
21
160.157411473441
31
0
0
LINE
8
layer0
10
721.198452238571
20
160.157411473441
30
0
11
729.961101514039
21
158.4755785192
31
0
0
LINE
8
layer0
10
729.961101514039
20
158.4755785192
30
0
11
729.961101514039
21
284.049262067944
31
0
0
LINE
8
layer0
10
729.961101514039
20
284.049262067944
30
0
11
721.198452238571
21
285.731095022185
31
0
0
LINE
8
layer0
10
739.334306136601
20
158.229964099683
30
0
11
729.961101514039
21
158.4755785192
31
0
0
LINE
8
layer0
10
729.961101514039
20
158.4755785192
30
0
11
729.961101514039
21
154.145451500278
31
0
0
LINE
8
layer0
10
729.961101514039
20
154.145451500278
30
0
11
739.334306136601
21
153.899837080761
31
0
0
LINE
8
layer0
10
739.334306136601
20
153.899837080761
30
0
11
739.334306136601
21
158.229964099683
31
0
0
LINE
8
layer0
10
729.961101514039
20
284.049262067944
30
0
11
729.961101514039
21
158.4755785192
31
0
0
LINE
8
layer0
10
729.961101514039
20
158.4755785192
30
0
11
739.334306136601
21
158.229964099683
31
0
0
LINE
8
layer0
10
739.334306136601
20
158.229964099683
30
0
11
739.334306136601
21
283.803647648427
31
0
0
LINE
8
layer0
10
739.334306136601
20
283.803647648427
30
0
11
729.961101514039
21
284.049262067944
31
0
0
LINE
8
layer0
10
748.400551530845
20
159.444610665569
30
0
11
739.334306136601
21
158.229964099683
31
0
0
LINE
8
layer0
10
739.334306136601
20
158.229964099683
30
0
11
739.334306136601
21
153.899837080761
31
0
0
LINE
8
layer0
10
739.334306136601
20
153.899837080761
30
0
11
748.400551530845
21
155.114483646646
31
0
0
LINE
8
layer0
10
748.400551530845
20
155.114483646646
30
0
11
748.400551530845
21
159.444610665569
31
0
0
LINE
8
layer0
10
739.334306136601
20
283.803647648427
30
0
11
739.334306136601
21
158.229964099683
31
0
0
LINE
8
layer0
10
739.334306136601
20
158.229964099683
30
0
11
741.752867543736
21
158.553989887627
31
0
0
LINE
8
layer0
10
741.752867543736
20
158.553989887627
30
0
11
741.752867543736
21
284.127673436371
31
0
0
LINE
8
layer0
10
741.752867543736
20
284.127673436371
30
0
11
739.334306136601
21
283.803647648427
31
0
0
LINE
8
layer0
10
741.752867543736
20
284.127673436371
30
0
11
741.752867543736
21
158.553989887627
31
0
0
LINE
8
layer0
10
741.752867543736
20
158.553989887627
30
0
11
748.400551530845
21
159.444610665569
31
0
0
LINE
8
layer0
10
748.400551530845
20
159.444610665569
30
0
11
748.400551530845
21
285.018294214312
31
0
0
LINE
8
layer0
10
748.400551530845
20
285.018294214312
30
0
11
741.752867543736
21
284.127673436371
31
0
0
LINE
8
layer0
10
756.272370429337
20
162.000620148047
30
0
11
748.400551530845
21
159.444610665569
31
0
0
LINE
8
layer0
10
748.400551530845
20
159.444610665569
30
0
11
748.400551530845
21
155.114483646646
31
0
0
LINE
8
layer0
10
748.400551530845
20
155.114483646646
30
0
11
756.272370429337
21
157.670493129124
31
0
0
LINE
8
layer0
10
756.272370429337
20
157.670493129124
30
0
11
756.272370429337
21
162.000620148047
31
0
0
LINE
8
layer0
10
748.400551530845
20
285.018294214312
30
0
11
748.400551530845
21
159.444610665569
31
0
0
LINE
8
layer0
10
748.400551530845
20
159.444610665569
30
0
11
748.570017749031
21
159.499636990009
31
0
0
LINE
8
layer0
10
748.570017749031
20
159.499636990009
30
0
11
748.570017749031
21
285.073320538752
31
0
0
LINE
8
layer0
10
748.570017749031
20
285.073320538752
30
0
11
748.400551530845
21
285.018294214312
31
0
0
LINE
8
layer0
10
748.570017749031
20
285.073320538752
30
0
11
748.570017749031
21
159.499636990009
31
0
0
LINE
8
layer0
10
748.570017749031
20
159.499636990009
30
0
11
756.272370429337
21
162.000620148047
31
0
0
LINE
8
layer0
10
756.272370429337
20
162.000620148047
30
0
11
756.272370429337
21
287.57430369679
31
0
0
LINE
8
layer0
10
756.272370429337
20
287.57430369679
30
0
11
748.570017749031
21
285.073320538752
31
0
0
LINE
8
layer0
10
762.179214352105
20
165.647792530208
30
0
11
756.272370429337
21
162.000620148047
31
0
0
LINE
8
layer0
10
756.272370429337
20
162.000620148047
30
0
11
756.272370429337
21
157.670493129124
31
0
0
LINE
8
layer0
10
756.272370429337
20
157.670493129124
30
0
11
762.179214352105
21
161.317665511285
31
0
0
LINE
8
layer0
10
762.179214352105
20
161.317665511285
30
0
11
762.179214352105
21
165.647792530208
31
0
0
LINE
8
layer0
10
756.272370429337
20
287.57430369679
30
0
11
756.272370429337
21
162.000620148047
31
0
0
LINE
8
layer0
10
756.272370429337
20
162.000620148047
30
0
11
757.571458711289
21
162.802740360782
31
0
0
LINE
8
layer0
10
757.571458711289
20
162.802740360782
30
0
11
757.571458711289
21
288.376423909525
31
0
0
LINE
8
layer0
10
757.571458711289
20
288.376423909525
30
0
11
756.272370429337
21
287.57430369679
31
0
0
LINE
8
layer0
10
757.571458711289
20
288.376423909525
30
0
11
757.571458711289
21
162.802740360782
31
0
0
LINE
8
layer0
10
757.571458711289
20
162.802740360782
30
0
11
762.179214352105
21
165.647792530208
31
0
0
LINE
8
layer0
10
762.179214352105
20
165.647792530208
30
0
11
762.179214352105
21
291.221476078951
31
0
0
LINE
8
layer0
10
762.179214352105
20
291.221476078951
30
0
11
757.571458711289
21
288.376423909525
31
0
0
LINE
8
layer0
10
903.679214352105
20
288.190387165706
30
0
11
762.179214352105
21
165.647792530208
31
0
0
LINE
8
layer0
10
762.179214352105
20
165.647792530208
30
0
11
762.179214352105
21
161.317665511285
31
0
0
LINE
8
layer0
10
762.179214352105
20
161.317665511285
30
0
11
903.679214352105
21
283.860260146783
31
0
0
LINE
8
layer0
10
903.679214352105
20
283.860260146783
30
0
11
903.679214352105
21
288.190387165706
31
0
0
LINE
8
layer0
10
762.179214352105
20
291.221476078951
30
0
11
762.179214352105
21
165.647792530208
31
0
0
LINE
8
layer0
10
762.179214352105
20
165.647792530208
30
0
11
763.727180652093
21
166.9883706702
31
0
0
LINE
8
layer0
10
763.727180652093
20
166.9883706702
30
0
11
763.727180652093
21
292.562054218944
31
0
0
LINE
8
layer0
10
763.727180652093
20
292.562054218944
30
0
11
762.179214352105
21
291.221476078951
31
0
0
LINE
8
layer0
10
763.727180652093
20
292.562054218944
30
0
11
763.727180652093
21
166.9883706702
31
0
0
LINE
8
layer0
10
763.727180652093
20
166.9883706702
30
0
11
770.094603761552
21
172.502720839635
31
0
0
LINE
8
layer0
10
770.094603761552
20
172.502720839635
30
0
11
770.094603761552
21
298.076404388379
31
0
0
LINE
8
layer0
10
770.094603761552
20
298.076404388379
30
0
11
763.727180652093
21
292.562054218944
31
0
0
LINE
8
layer0
10
770.094603761552
20
298.076404388379
30
0
11
770.094603761552
21
172.502720839635
31
0
0
LINE
8
layer0
10
770.094603761552
20
172.502720839635
30
0
11
789.605782532136
21
189.399897312741
31
0
0
LINE
8
layer0
10
789.605782532136
20
189.399897312741
30
0
11
789.605782532136
21
314.973580861484
31
0
0
LINE
8
layer0
10
789.605782532136
20
314.973580861484
30
0
11
770.094603761552
21
298.076404388379
31
0
0
LINE
8
layer0
10
789.605782532136
20
314.973580861484
30
0
11
789.605782532136
21
189.399897312741
31
0
0
LINE
8
layer0
10
789.605782532136
20
189.399897312741
30
0
11
903.679214352105
21
288.190387165706
31
0
0
LINE
8
layer0
10
903.679214352105
20
288.190387165706
30
0
11
903.679214352105
21
413.764070714449
31
0
0
LINE
8
layer0
10
903.679214352105
20
413.764070714449
30
0
11
789.605782532136
21
314.973580861484
31
0
0
LINE
8
layer0
10
907.042880260586
20
292.571711803439
30
0
11
903.679214352105
21
288.190387165706
31
0
0
LINE
8
layer0
10
903.679214352105
20
288.190387165706
30
0
11
903.679214352105
21
283.860260146783
31
0
0
LINE
8
layer0
10
903.679214352105
20
283.860260146783
30
0
11
907.042880260586
21
288.241584784517
31
0
0
LINE
8
layer0
10
907.042880260586
20
288.241584784517
30
0
11
907.042880260586
21
292.571711803439
31
0
0
LINE
8
layer0
10
903.679214352105
20
413.764070714449
30
0
11
903.679214352105
21
288.190387165706
31
0
0
LINE
8
layer0
10
903.679214352105
20
288.190387165706
30
0
11
907.042880260586
21
292.571711803439
31
0
0
LINE
8
layer0
10
907.042880260586
20
292.571711803439
30
0
11
907.042880260586
21
418.145395352183
31
0
0
LINE
8
layer0
10
907.042880260586
20
418.145395352183
30
0
11
903.679214352105
21
413.764070714449
31
0
0
LINE
8
layer0
10
907.53410909962
20
297.25831411472
30
0
11
907.042880260586
21
292.571711803439
31
0
0
LINE
8
layer0
10
907.042880260586
20
292.571711803439
30
0
11
907.042880260586
21
288.241584784517
31
0
0
LINE
8
layer0
10
907.042880260586
20
288.241584784517
30
0
11
907.53410909962
21
292.928187095798
31
0
0
LINE
8
layer0
10
907.53410909962
20
292.928187095798
30
0
11
907.53410909962
21
297.25831411472
31
0
0
LINE
8
layer0
10
907.042880260586
20
418.145395352183
30
0
11
907.042880260586
21
292.571711803439
31
0
0
LINE
8
layer0
10
907.042880260586
20
292.571711803439
30
0
11
907.53410909962
21
297.25831411472
31
0
0
LINE
8
layer0
10
907.53410909962
20
297.25831411472
30
0
11
907.53410909962
21
422.831997663464
31
0
0
LINE
8
layer0
10
907.53410909962
20
422.831997663464
30
0
11
907.042880260586
21
418.145395352183
31
0
0
LINE
8
layer0
10
905.104815967849
20
301.791436811843
30
0
11
907.53410909962
21
297.25831411472
31
0
0
LINE
8
layer0
10
907.53410909962
20
297.25831411472
30
0
11
907.53410909962
21
292.928187095798
31
0
0
LINE
8
layer0
10
907.53410909962
20
292.928187095798
30
0
11
905.104815967849
21
297.46130979292
31
0
0
LINE
8
layer0
10
905.104815967849
20
297.46130979292
30
0
11
905.104815967849
21
301.791436811843
31
0
0
LINE
8
layer0
10
907.53410909962
20
422.831997663464
30
0
11
907.53410909962
21
297.25831411472
31
0
0
LINE
8
layer0
10
907.53410909962
20
297.25831411472
30
0
11
906.886057523733
21
298.467594818288
31
0
0
LINE
8
layer0
10
906.886057523733
20
298.467594818288
30
0
11
906.886057523733
21
424.041278367032
31
0
0
LINE
8
layer0
10
906.886057523733
20
424.041278367032
30
0
11
907.53410909962
21
422.831997663464
31
0
0
LINE
8
layer0
10
906.886057523733
20
424.041278367032
30
0
11
906.886057523733
21
298.467594818288
31
0
0
LINE
8
layer0
10
906.886057523733
20
298.467594818288
30
0
11
905.377246828977
21
301.283073904203
31
0
0
LINE
8
layer0
10
905.377246828977
20
301.283073904203
30
0
11
905.377246828977
21
426.856757452947
31
0
0
LINE
8
layer0
10
905.377246828977
20
426.856757452947
30
0
11
906.886057523733
21
424.041278367032
31
0
0
LINE
8
layer0
10
905.377246828977
20
426.856757452947
30
0
11
905.377246828977
21
301.283073904203
31
0
0
LINE
8
layer0
10
905.377246828977
20
301.283073904203
30
0
11
905.104815967849
21
301.791436811843
31
0
0
LINE
8
layer0
10
905.104815967849
20
301.791436811843
30
0
11
905.104815967849
21
427.365120360586
31
0
0
LINE
8
layer0
10
905.104815967849
20
427.365120360586
30
0
11
905.377246828977
21
426.856757452947
31
0
0
LINE
8
layer0
10
899.992797002893
20
305.727346261088
30
0
11
905.104815967849
21
301.791436811843
31
0
0
LINE
8
layer0
10
905.104815967849
20
301.791436811843
30
0
11
905.104815967849
21
297.46130979292
31
0
0
LINE
8
layer0
10
905.104815967849
20
297.46130979292
30
0
11
899.992797002893
21
301.397219242166
31
0
0
LINE
8
layer0
10
899.992797002893
20
301.397219242166
30
0
11
899.992797002893
21
305.727346261088
31
0
0
LINE
8
layer0
10
901.230491703116
20
430.348088457446
30
0
11
901.230491703116
21
304.774404908702
31
0
0
LINE
8
layer0
10
901.230491703116
20
304.774404908702
30
0
11
899.992797002893
21
305.727346261088
31
0
0
LINE
8
layer0
10
899.992797002893
20
305.727346261088
30
0
11
899.992797002893
21
431.301029809832
31
0
0
LINE
8
layer0
10
899.992797002893
20
431.301029809832
30
0
11
901.230491703116
21
430.348088457446
31
0
0
LINE
8
layer0
10
905.104815967849
20
427.365120360586
30
0
11
905.104815967849
21
301.791436811843
31
0
0
LINE
8
layer0
10
905.104815967849
20
301.791436811843
30
0
11
901.230491703116
21
304.774404908702
31
0
0
LINE
8
layer0
10
901.230491703116
20
304.774404908702
30
0
11
901.230491703116
21
430.348088457446
31
0
0
LINE
8
layer0
10
901.230491703116
20
430.348088457446
30
0
11
905.104815967849
21
427.365120360586
31
0
0
LINE
8
layer0
10
892.698452238571
20
308.680768222472
30
0
11
899.992797002893
21
305.727346261088
31
0
0
LINE
8
layer0
10
899.992797002893
20
305.727346261088
30
0
11
899.992797002893
21
301.397219242166
31
0
0
LINE
8
layer0
10
899.992797002893
20
301.397219242166
30
0
11
892.698452238571
21
304.35064120355
31
0
0
LINE
8
layer0
10
892.698452238571
20
304.35064120355
30
0
11
892.698452238571
21
308.680768222472
31
0
0
LINE
8
layer0
10
899.992797002893
20
431.301029809832
30
0
11
899.992797002893
21
305.727346261088
31
0
0
LINE
8
layer0
10
899.992797002893
20
305.727346261088
30
0
11
892.698452238571
21
308.680768222472
31
0
0
LINE
8
layer0
10
892.698452238571
20
308.680768222472
30
0
11
892.698452238571
21
434.254451771216
31
0
0
LINE
8
layer0
10
892.698452238571
20
434.254451771216
30
0
11
899.992797002893
21
431.301029809832
31
0
0
LINE
8
layer0
10
884.953261710188
20
309.473236467742
30
0
11
603.495005480245
21
390.723236467742
31
0
0
LINE
8
layer0
10
603.495005480245
20
390.723236467742
30
0
11
594.732356204778
21
392.405069421982
31
0
0
LINE
8
layer0
10
594.732356204778
20
392.405069421982
30
0
11
585.359151582216
21
392.650683841499
31
0
0
LINE
8
layer0
10
585.359151582216
20
392.650683841499
30
0
11
576.292906187972
21
391.436037275614
31
0
0
LINE
8
layer0
10
576.292906187972
20
391.436037275614
30
0
11
568.42108728948
21
388.880027793136
31
0
0
LINE
8
layer0
10
568.42108728948
20
388.880027793136
30
0
11
562.514243366712
21
385.232855410975
31
0
0
LINE
8
layer0
10
562.514243366712
20
385.232855410975
30
0
11
426.014243366712
21
267.020387794399
31
0
0
LINE
8
layer0
10
426.014243366712
20
267.020387794399
30
0
11
422.650577458231
21
262.639063156666
31
0
0
LINE
8
layer0
10
422.650577458231
20
262.639063156666
30
0
11
422.159348619197
21
257.952460845384
31
0
0
LINE
8
layer0
10
422.159348619197
20
257.952460845384
30
0
11
424.588641750968
21
253.419338148262
31
0
0
LINE
8
layer0
10
424.588641750968
20
253.419338148262
30
0
11
429.700660715924
21
249.483428699016
31
0
0
LINE
8
layer0
10
429.700660715924
20
249.483428699016
30
0
11
436.995005480246
21
246.530006737633
31
0
0
LINE
8
layer0
10
436.995005480246
20
246.530006737633
30
0
11
718.453261710188
21
165.280006737633
31
0
0
LINE
8
layer0
10
718.453261710188
20
165.280006737633
30
0
11
727.215910985655
21
163.598173783392
31
0
0
LINE
8
layer0
10
727.215910985655
20
163.598173783392
30
0
11
736.589115608218
21
163.352559363875
31
0
0
LINE
8
layer0
10
736.589115608218
20
163.352559363875
30
0
11
745.655361002462
21
164.56720592976
31
0
0
LINE
8
layer0
10
745.655361002462
20
164.56720592976
30
0
11
753.527179900954
21
167.123215412238
31
0
0
LINE
8
layer0
10
753.527179900954
20
167.123215412238
30
0
11
759.434023823721
21
170.770387794399
31
0
0
LINE
8
layer0
10
759.434023823721
20
170.770387794399
30
0
11
895.934023823721
21
288.982855410975
31
0
0
LINE
8
layer0
10
895.934023823721
20
288.982855410975
30
0
11
899.297689732202
21
293.364180048709
31
0
0
LINE
8
layer0
10
899.297689732202
20
293.364180048709
30
0
11
899.788918571236
21
298.05078235999
31
0
0
LINE
8
layer0
10
899.788918571236
20
298.05078235999
30
0
11
897.359625439466
21
302.583905057112
31
0
0
LINE
8
layer0
10
897.359625439466
20
302.583905057112
30
0
11
892.24760647451
21
306.519814506358
31
0
0
LINE
8
layer0
10
892.24760647451
20
306.519814506358
30
0
11
884.953261710188
21
309.473236467742
31
0
0
LINE
8
layer0
10
884.953261710188
20
309.473236467742
30
0
11
884.953261710188
21
435.046920016485
31
0
0
LINE
8
layer0
10
884.953261710188
20
435.046920016485
30
0
11
603.495005480245
21
516.296920016485
31
0
0
LINE
8
layer0
10
603.495005480245
20
516.296920016485
30
0
11
603.495005480245
21
390.723236467742
31
0
0
LINE
8
layer0
10
603.495005480245
20
390.723236467742
30
0
11
884.953261710188
21
309.473236467742
31
0
0
LINE
8
layer0
10
603.495005480245
20
390.723236467742
30
0
11
603.495005480245
21
516.296920016485
31
0
0
LINE
8
layer0
10
603.495005480245
20
516.296920016485
30
0
11
594.732356204778
21
517.978752970726
31
0
0
LINE
8
layer0
10
594.732356204778
20
517.978752970726
30
0
11
594.732356204778
21
392.405069421982
31
0
0
LINE
8
layer0
10
594.732356204778
20
392.405069421982
30
0
11
603.495005480245
21
390.723236467742
31
0
0
LINE
8
layer0
10
594.732356204778
20
392.405069421982
30
0
11
594.732356204778
21
517.978752970726
31
0
0
LINE
8
layer0
10
594.732356204778
20
517.978752970726
30
0
11
585.359151582216
21
518.224367390243
31
0
0
LINE
8
layer0
10
585.359151582216
20
518.224367390243
30
0
11
585.359151582216
21
392.650683841499
31
0
0
LINE
8
layer0
10
585.359151582216
20
392.650683841499
30
0
11
594.732356204778
21
392.405069421982
31
0
0
LINE
8
layer0
10
585.359151582216
20
392.650683841499
30
0
11
585.359151582216
21
518.224367390243
31
0
0
LINE
8
layer0
10
585.359151582216
20
518.224367390243
30
0
11
576.292906187972
21
517.009720824358
31
0
0
LINE
8
layer0
10
576.292906187972
20
517.009720824358
30
0
11
576.292906187972
21
391.436037275614
31
0
0
LINE
8
layer0
10
576.292906187972
20
391.436037275614
30
0
11
585.359151582216
21
392.650683841499
31
0
0
LINE
8
layer0
10
576.292906187972
20
391.436037275614
30
0
11
576.292906187972
21
517.009720824358
31
0
0
LINE
8
layer0
10
576.292906187972
20
517.009720824358
30
0
11
568.42108728948
21
514.45371134188
31
0
0
LINE
8
layer0
10
568.42108728948
20
514.45371134188
30
0
11
568.42108728948
21
388.880027793136
31
0
0
LINE
8
layer0
10
568.42108728948
20
388.880027793136
30
0
11
576.292906187972
21
391.436037275614
31
0
0
LINE
8
layer0
10
568.42108728948
20
388.880027793136
30
0
11
568.42108728948
21
514.45371134188
31
0
0
LINE
8
layer0
10
568.42108728948
20
514.45371134188
30
0
11
562.514243366712
21
510.806538959719
31
0
0
LINE
8
layer0
10
562.514243366712
20
510.806538959719
30
0
11
562.514243366712
21
385.232855410975
31
0
0
LINE
8
layer0
10
562.514243366712
20
385.232855410975
30
0
11
568.42108728948
21
388.880027793136
31
0
0
LINE
8
layer0
10
562.514243366712
20
385.232855410975
30
0
11
562.514243366712
21
510.806538959719
31
0
0
LINE
8
layer0
10
562.514243366712
20
510.806538959719
30
0
11
426.014243366712
21
392.594071343143
31
0
0
LINE
8
layer0
10
426.014243366712
20
392.594071343143
30
0
11
426.014243366712
21
267.020387794399
31
0
0
LINE
8
layer0
10
426.014243366712
20
267.020387794399
30
0
11
562.514243366712
21
385.232855410975
31
0
0
LINE
8
layer0
10
426.014243366712
20
267.020387794399
30
0
11
426.014243366712
21
392.594071343143
31
0
0
LINE
8
layer0
10
426.014243366712
20
392.594071343143
30
0
11
422.650577458231
21
388.212746705409
31
0
0
LINE
8
layer0
10
422.650577458231
20
388.212746705409
30
0
11
422.650577458231
21
262.639063156666
31
0
0
LINE
8
layer0
10
422.650577458231
20
262.639063156666
30
0
11
426.014243366712
21
267.020387794399
31
0
0
LINE
8
layer0
10
422.650577458231
20
262.639063156666
30
0
11
422.650577458231
21
388.212746705409
31
0
0
LINE
8
layer0
10
422.650577458231
20
388.212746705409
30
0
11
422.159348619197
21
383.526144394128
31
0
0
LINE
8
layer0
10
422.159348619197
20
383.526144394128
30
0
11
422.159348619197
21
257.952460845384
31
0
0
LINE
8
layer0
10
422.159348619197
20
257.952460845384
30
0
11
422.650577458231
21
262.639063156666
31
0
0
LINE
8
layer0
10
422.159348619197
20
257.952460845384
30
0
11
422.159348619197
21
383.526144394128
31
0
0
LINE
8
layer0
10
422.159348619197
20
383.526144394128
30
0
11
424.588641750968
21
378.993021697006
31
0
0
LINE
8
layer0
10
424.588641750968
20
378.993021697006
30
0
11
424.588641750968
21
253.419338148262
31
0
0
LINE
8
layer0
10
424.588641750968
20
253.419338148262
30
0
11
422.159348619197
21
257.952460845384
31
0
0
LINE
8
layer0
10
424.588641750968
20
253.419338148262
30
0
11
424.588641750968
21
378.993021697006
31
0
0
LINE
8
layer0
10
424.588641750968
20
378.993021697006
30
0
11
429.700660715924
21
375.05711224776
31
0
0
LINE
8
layer0
10
429.700660715924
20
375.05711224776
30
0
11
429.700660715924
21
249.483428699016
31
0
0
LINE
8
layer0
10
429.700660715924
20
249.483428699016
30
0
11
424.588641750968
21
253.419338148262
31
0
0
LINE
8
layer0
10
429.700660715924
20
249.483428699016
30
0
11
429.700660715924
21
375.05711224776
31
0
0
LINE
8
layer0
10
429.700660715924
20
375.05711224776
30
0
11
436.995005480246
21
372.103690286376
31
0
0
LINE
8
layer0
10
436.995005480246
20
372.103690286376
30
0
11
436.995005480246
21
246.530006737633
31
0
0
LINE
8
layer0
10
436.995005480246
20
246.530006737633
30
0
11
429.700660715924
21
249.483428699016
31
0
0
LINE
8
layer0
10
436.995005480246
20
246.530006737633
30
0
11
436.995005480246
21
372.103690286376
31
0
0
LINE
8
layer0
10
436.995005480246
20
372.103690286376
30
0
11
718.453261710188
21
290.853690286376
31
0
0
LINE
8
layer0
10
718.453261710188
20
290.853690286376
30
0
11
718.453261710188
21
165.280006737633
31
0
0
LINE
8
layer0
10
718.453261710188
20
165.280006737633
30
0
11
436.995005480246
21
246.530006737633
31
0
0
LINE
8
layer0
10
718.453261710188
20
165.280006737633
30
0
11
718.453261710188
21
290.853690286376
31
0
0
LINE
8
layer0
10
718.453261710188
20
290.853690286376
30
0
11
727.215910985655
21
289.171857332136
31
0
0
LINE
8
layer0
10
727.215910985655
20
289.171857332136
30
0
11
727.215910985655
21
163.598173783392
31
0
0
LINE
8
layer0
10
727.215910985655
20
163.598173783392
30
0
11
718.453261710188
21
165.280006737633
31
0
0
LINE
8
layer0
10
727.215910985655
20
163.598173783392
30
0
11
727.215910985655
21
289.171857332136
31
0
0
LINE
8
layer0
10
727.215910985655
20
289.171857332136
30
0
11
736.589115608218
21
288.926242912619
31
0
0
LINE
8
layer0
10
736.589115608218
20
288.926242912619
30
0
11
736.589115608218
21
163.352559363875
31
0
0
LINE
8
layer0
10
736.589115608218
20
163.352559363875
30
0
11
727.215910985655
21
163.598173783392
31
0
0
LINE
8
layer0
10
736.589115608218
20
163.352559363875
30
0
11
736.589115608218
21
288.926242912619
31
0
0
LINE
8
layer0
10
736.589115608218
20
288.926242912619
30
0
11
745.655361002462
21
290.140889478504
31
0
0
LINE
8
layer0
10
745.655361002462
20
290.140889478504
30
0
11
745.655361002462
21
164.56720592976
31
0
0
LINE
8
layer0
10
745.655361002462
20
164.56720592976
30
0
11
736.589115608218
21
163.352559363875
31
0
0
LINE
8
layer0
10
745.655361002462
20
164.56720592976
30
0
11
745.655361002462
21
290.140889478504
31
0
0
LINE
8
layer0
10
745.655361002462
20
290.140889478504
30
0
11
753.527179900954
21
292.696898960982
31
0
0
LINE
8
layer0
10
753.527179900954
20
292.696898960982
30
0
11
753.527179900954
21
167.123215412238
31
0
0
LINE
8
layer0
10
753.527179900954
20
167.123215412238
30
0
11
745.655361002462
21
164.56720592976
31
0
0
LINE
8
layer0
10
753.527179900954
20
167.123215412238
30
0
11
753.527179900954
21
292.696898960982
31
0
0
LINE
8
layer0
10
753.527179900954
20
292.696898960982
30
0
11
759.434023823721
21
296.344071343143
31
0
0
LINE
8
layer0
10
759.434023823721
20
296.344071343143
30
0
11
759.434023823721
21
170.770387794399
31
0
0
LINE
8
layer0
10
759.434023823721
20
170.770387794399
30
0
11
753.527179900954
21
167.123215412238
31
0
0
LINE
8
layer0
10
759.434023823721
20
170.770387794399
30
0
11
759.434023823721
21
296.344071343143
31
0
0
LINE
8
layer0
10
759.434023823721
20
296.344071343143
30
0
11
895.934023823721
21
414.556538959719
31
0
0
LINE
8
layer0
10
895.934023823721
20
414.556538959719
30
0
11
895.934023823721
21
288.982855410975
31
0
0
LINE
8
layer0
10
895.934023823721
20
288.982855410975
30
0
11
759.434023823721
21
170.770387794399
31
0
0
LINE
8
layer0
10
895.934023823721
20
288.982855410975
30
0
11
895.934023823721
21
414.556538959719
31
0
0
LINE
8
layer0
10
895.934023823721
20
414.556538959719
30
0
11
899.297689732202
21
418.937863597452
31
0
0
LINE
8
layer0
10
899.297689732202
20
418.937863597452
30
0
11
899.297689732202
21
293.364180048709
31
0
0
LINE
8
layer0
10
899.297689732202
20
293.364180048709
30
0
11
895.934023823721
21
288.982855410975
31
0
0
LINE
8
layer0
10
899.297689732202
20
293.364180048709
30
0
11
899.297689732202
21
418.937863597452
31
0
0
LINE
8
layer0
10
899.297689732202
20
418.937863597452
30
0
11
899.788918571236
21
423.624465908734
31
0
0
LINE
8
layer0
10
899.788918571236
20
423.624465908734
30
0
11
899.788918571236
21
298.05078235999
31
0
0
LINE
8
layer0
10
899.788918571236
20
298.05078235999
30
0
11
899.297689732202
21
293.364180048709
31
0
0
LINE
8
layer0
10
899.788918571236
20
298.05078235999
30
0
11
899.788918571236
21
423.624465908734
31
0
0
LINE
8
layer0
10
899.788918571236
20
423.624465908734
30
0
11
897.359625439466
21
428.157588605856
31
0
0
LINE
8
layer0
10
897.359625439466
20
428.157588605856
30
0
11
897.359625439466
21
302.583905057112
31
0
0
LINE
8
layer0
10
897.359625439466
20
302.583905057112
30
0
11
899.788918571236
21
298.05078235999
31
0
0
LINE
8
layer0
10
897.359625439466
20
302.583905057112
30
0
11
897.359625439466
21
428.157588605856
31
0
0
LINE
8
layer0
10
897.359625439466
20
428.157588605856
30
0
11
892.24760647451
21
432.093498055102
31
0
0
LINE
8
layer0
10
892.24760647451
20
432.093498055102
30
0
11
892.24760647451
21
306.519814506358
31
0
0
LINE
8
layer0
10
892.24760647451
20
306.519814506358
30
0
11
897.359625439466
21
302.583905057112
31
0
0
LINE
8
layer0
10
892.24760647451
20
306.519814506358
30
0
11
892.24760647451
21
432.093498055102
31
0
0
LINE
8
layer0
10
892.24760647451
20
432.093498055102
30
0
11
884.953261710188
21
435.046920016485
31
0
0
LINE
8
layer0
10
884.953261710188
20
435.046920016485
30
0
11
884.953261710188
21
309.473236467742
31
0
0
LINE
8
layer0
10
884.953261710188
20
309.473236467742
30
0
11
892.24760647451
21
306.519814506358
31
0
0
LINE
8
layer0
10
892.698452238571
20
434.254451771216
30
0
11
602.579941970784
21
518.004451771216
31
0
0
LINE
8
layer0
10
602.579941970784
20
518.004451771216
30
0
11
593.817292695317
21
519.686284725456
31
0
0
LINE
8
layer0
10
593.817292695317
20
519.686284725456
30
0
11
591.54790250624
21
519.745751575524
31
0
0
LINE
8
layer0
10
591.54790250624
20
519.745751575524
30
0
11
901.230491703116
21
430.348088457446
31
0
0
LINE
8
layer0
10
901.230491703116
20
430.348088457446
30
0
11
899.992797002893
21
431.301029809832
31
0
0
LINE
8
layer0
10
899.992797002893
20
431.301029809832
30
0
11
892.698452238571
21
434.254451771216
31
0
0
LINE
8
layer0
10
584.573829990258
20
519.928499402085
30
0
11
603.495005480245
21
516.296920016485
31
0
0
LINE
8
layer0
10
603.495005480245
20
516.296920016485
30
0
11
591.54790250624
21
519.745751575524
31
0
0
LINE
8
layer0
10
591.54790250624
20
519.745751575524
30
0
11
584.573829990258
21
519.928499402085
31
0
0
LINE
8
layer0
10
574.718592166407
20
518.503191434899
30
0
11
594.732356204778
21
517.978752970726
31
0
0
LINE
8
layer0
10
594.732356204778
20
517.978752970726
30
0
11
584.573829990258
21
519.928499402085
31
0
0
LINE
8
layer0
10
584.573829990258
20
519.928499402085
30
0
11
584.444088072755
21
519.931899144973
31
0
0
LINE
8
layer0
10
584.444088072755
20
519.931899144973
30
0
11
575.37784267851
21
518.717252579088
31
0
0
LINE
8
layer0
10
575.37784267851
20
518.717252579088
30
0
11
574.718592166407
21
518.503191434899
31
0
0
LINE
8
layer0
10
566.826067242427
20
515.741404899191
30
0
11
585.359151582216
21
518.224367390243
31
0
0
LINE
8
layer0
10
585.359151582216
20
518.224367390243
30
0
11
574.718592166407
21
518.503191434899
31
0
0
LINE
8
layer0
10
574.718592166407
20
518.503191434899
30
0
11
567.506023780019
21
516.16124309661
31
0
0
LINE
8
layer0
10
567.506023780019
20
516.16124309661
30
0
11
566.826067242427
21
515.741404899191
31
0
0
LINE
8
layer0
10
561.090316711567
20
512.073382303237
30
0
11
576.292906187972
21
517.009720824358
31
0
0
LINE
8
layer0
10
576.292906187972
20
517.009720824358
30
0
11
566.826067242427
21
515.741404899191
31
0
0
LINE
8
layer0
10
566.826067242427
20
515.741404899191
30
0
11
561.599179857251
21
512.514070714449
31
0
0
LINE
8
layer0
10
561.599179857251
20
512.514070714449
30
0
11
561.090316711567
21
512.073382303237
31
0
0
LINE
8
layer0
10
552.456990463907
20
504.596702453605
30
0
11
568.42108728948
21
514.45371134188
31
0
0
LINE
8
layer0
10
568.42108728948
20
514.45371134188
30
0
11
561.090316711567
21
512.073382303237
31
0
0
LINE
8
layer0
10
561.090316711567
20
512.073382303237
30
0
11
552.456990463907
21
504.596702453605
31
0
0
LINE
8
layer0
10
416.616580248634
20
384.455456346679
30
0
11
562.514243366712
21
510.806538959719
31
0
0
LINE
8
layer0
10
562.514243366712
20
510.806538959719
30
0
11
552.456990463907
21
504.596702453605
31
0
0
LINE
8
layer0
10
552.456990463907
20
504.596702453605
30
0
11
420.099179857251
21
389.971476078951
31
0
0
LINE
8
layer0
10
420.099179857251
20
389.971476078951
30
0
11
416.73551394877
21
385.590151441218
31
0
0
LINE
8
layer0
10
416.73551394877
20
385.590151441218
30
0
11
416.616580248634
21
384.455456346679
31
0
0
LINE
8
layer0
10
416.571020361457
20
380.293852849914
30
0
11
426.014243366712
21
392.594071343143
31
0
0
LINE
8
layer0
10
426.014243366712
20
392.594071343143
30
0
11
416.616580248634
21
384.455456346679
31
0
0
LINE
8
layer0
10
416.616580248634
20
384.455456346679
30
0
11
416.244285109736
21
380.903549129936
31
0
0
LINE
8
layer0
10
416.244285109736
20
380.903549129936
30
0
11
416.571020361457
21
380.293852849914
31
0
0
LINE
8
layer0
10
421.2050277801
20
374.421381206742
30
0
11
422.650577458231
21
388.212746705409
31
0
0
LINE
8
layer0
10
422.650577458231
20
388.212746705409
30
0
11
416.571020361457
21
380.293852849914
31
0
0
LINE
8
layer0
10
416.571020361457
20
380.293852849914
30
0
11
418.673578241506
21
376.370426432814
31
0
0
LINE
8
layer0
10
418.673578241506
20
376.370426432814
30
0
11
421.2050277801
21
374.421381206742
31
0
0
LINE
8
layer0
10
429.299813981268
20
370.201854633662
30
0
11
422.159348619197
21
383.526144394128
31
0
0
LINE
8
layer0
10
422.159348619197
20
383.526144394128
30
0
11
421.2050277801
21
374.421381206742
31
0
0
LINE
8
layer0
10
421.2050277801
20
374.421381206742
30
0
11
423.785597206463
21
372.434516983568
31
0
0
LINE
8
layer0
10
423.785597206463
20
372.434516983568
30
0
11
429.299813981268
21
370.201854633662
31
0
0
LINE
8
layer0
10
440.459671570718
20
366.773400317461
30
0
11
424.588641750968
21
378.993021697006
31
0
0
LINE
8
layer0
10
424.588641750968
20
378.993021697006
30
0
11
429.299813981268
21
370.201854633662
31
0
0
LINE
8
layer0
10
429.299813981268
20
370.201854633662
30
0
11
431.079941970784
21
369.481095022185
31
0
0
LINE
8
layer0
10
431.079941970784
20
369.481095022185
30
0
11
440.459671570718
21
366.773400317461
31
0
0
LINE
8
layer0
10
474.254024516928
20
357.017810932169
30
0
11
429.700660715924
21
375.05711224776
31
0
0
LINE
8
layer0
10
429.700660715924
20
375.05711224776
30
0
11
440.459671570718
21
366.773400317461
31
0
0
LINE
8
layer0
10
440.459671570718
20
366.773400317461
30
0
11
474.254024516928
21
357.017810932169
31
0
0
LINE
8
layer0
10
741.752867543736
20
284.127673436371
30
0
11
436.995005480245
21
372.103690286376
31
0
0
LINE
8
layer0
10
436.995005480245
20
372.103690286376
30
0
11
474.254024516928
21
357.017810932169
31
0
0
LINE
8
layer0
10
474.254024516928
20
357.017810932169
30
0
11
721.198452238571
21
285.731095022185
31
0
0
LINE
8
layer0
10
721.198452238571
20
285.731095022185
30
0
11
729.961101514039
21
284.049262067944
31
0
0
LINE
8
layer0
10
729.961101514039
20
284.049262067944
30
0
11
739.334306136601
21
283.803647648427
31
0
0
LINE
8
layer0
10
739.334306136601
20
283.803647648427
30
0
11
741.752867543736
21
284.127673436371
31
0
0
LINE
8
layer0
10
748.570017749031
20
285.073320538752
30
0
11
718.453261710188
21
290.853690286376
31
0
0
LINE
8
layer0
10
718.453261710188
20
290.853690286376
30
0
11
741.752867543736
21
284.127673436371
31
0
0
LINE
8
layer0
10
741.752867543736
20
284.127673436371
30
0
11
748.400551530845
21
285.018294214312
31
0
0
LINE
8
layer0
10
748.400551530845
20
285.018294214312
30
0
11
748.570017749031
21
285.073320538752
31
0
0
LINE
8
layer0
10
757.571458711289
20
288.376423909525
30
0
11
727.215910985655
21
289.171857332136
31
0
0
LINE
8
layer0
10
727.215910985655
20
289.171857332136
30
0
11
748.570017749031
21
285.073320538752
31
0
0
LINE
8
layer0
10
748.570017749031
20
285.073320538752
30
0
11
756.272370429337
21
287.57430369679
31
0
0
LINE
8
layer0
10
756.272370429337
20
287.57430369679
30
0
11
757.571458711289
21
288.376423909525
31
0
0
LINE
8
layer0
10
763.727180652093
20
292.562054218944
30
0
11
736.589115608218
21
288.926242912619
31
0
0
LINE
8
layer0
10
736.589115608218
20
288.926242912619
30
0
11
757.571458711289
21
288.376423909525
31
0
0
LINE
8
layer0
10
757.571458711289
20
288.376423909525
30
0
11
762.179214352105
21
291.221476078951
31
0
0
LINE
8
layer0
10
762.179214352105
20
291.221476078951
30
0
11
763.727180652093
21
292.562054218944
31
0
0
LINE
8
layer0
10
770.094603761552
20
298.076404388379
30
0
11
745.655361002462
21
290.140889478504
31
0
0
LINE
8
layer0
10
745.655361002462
20
290.140889478504
30
0
11
763.727180652093
21
292.562054218944
31
0
0
LINE
8
layer0
10
763.727180652093
20
292.562054218944
30
0
11
770.094603761552
21
298.076404388379
31
0
0
LINE
8
layer0
10
789.605782532136
20
314.973580861484
30
0
11
753.527179900954
21
292.696898960982
31
0
0
LINE
8
layer0
10
753.527179900954
20
292.696898960982
30
0
11
770.094603761552
21
298.076404388379
31
0
0
LINE
8
layer0
10
770.094603761552
20
298.076404388379
30
0
11
789.605782532136
21
314.973580861484
31
0
0
LINE
8
layer0
10
906.886057523733
20
424.041278367032
30
0
11
759.434023823721
21
296.344071343143
31
0
0
LINE
8
layer0
10
759.434023823721
20
296.344071343143
30
0
11
789.605782532136
21
314.973580861484
31
0
0
LINE
8
layer0
10
789.605782532136
20
314.973580861484
30
0
11
903.679214352105
21
413.764070714449
31
0
0
LINE
8
layer0
10
903.679214352105
20
413.764070714449
30
0
11
907.042880260586
21
418.145395352183
31
0
0
LINE
8
layer0
10
907.042880260586
20
418.145395352183
30
0
11
907.53410909962
21
422.831997663464
31
0
0
LINE
8
layer0
10
907.53410909962
20
422.831997663464
30
0
11
906.886057523733
21
424.041278367032
31
0
0
LINE
8
layer0
10
905.377246828977
20
426.856757452947
30
0
11
895.934023823721
21
414.556538959719
31
0
0
LINE
8
layer0
10
895.934023823721
20
414.556538959719
30
0
11
906.886057523733
21
424.041278367032
31
0
0
LINE
8
layer0
10
906.886057523733
20
424.041278367032
30
0
11
905.377246828977
21
426.856757452947
31
0
0
LINE
8
layer0
10
901.230491703116
20
430.348088457446
30
0
11
900.515298875299
21
430.554546843277
31
0
0
LINE
8
layer0
10
900.515298875299
20
430.554546843277
30
0
11
899.297689732202
21
418.937863597452
31
0
0
LINE
8
layer0
10
899.297689732202
20
418.937863597452
30
0
11
905.377246828977
21
426.856757452947
31
0
0
LINE
8
layer0
10
905.377246828977
20
426.856757452947
30
0
11
905.104815967849
21
427.365120360586
31
0
0
LINE
8
layer0
10
905.104815967849
20
427.365120360586
30
0
11
901.230491703116
21
430.348088457446
31
0
0
LINE
8
layer0
10
895.26248648697
20
432.07090316648
30
0
11
899.788918571236
21
423.624465908734
31
0
0
LINE
8
layer0
10
899.788918571236
20
423.624465908734
30
0
11
900.515298875299
21
430.554546843277
31
0
0
LINE
8
layer0
10
900.515298875299
20
430.554546843277
30
0
11
895.26248648697
21
432.07090316648
31
0
0
LINE
8
layer0
10
890.486124785979
20
433.449720023387
30
0
11
897.359625439466
21
428.157588605856
31
0
0
LINE
8
layer0
10
897.359625439466
20
428.157588605856
30
0
11
895.26248648697
21
432.07090316648
31
0
0
LINE
8
layer0
10
895.26248648697
20
432.07090316648
30
0
11
890.486124785979
21
433.449720023387
31
0
0
LINE
8
layer0
10
884.953261710188
20
435.046920016485
30
0
11
892.24760647451
21
432.093498055102
31
0
0
LINE
8
layer0
10
892.24760647451
20
432.093498055102
30
0
11
890.486124785979
21
433.449720023387
31
0
0
LINE
8
layer0
10
890.486124785979
20
433.449720023387
30
0
11
884.953261710188
21
435.046920016485
31
0
0
ENDBLK
0
BLOCK
8
layer0
2
PF_OBJECT80
70
0
10
0
20
0
30
0
0
LINE
8
layer0
10
798.713020989553
20
512.254079006132
30
0
11
791.724133595217
21
516.808126696246
31
0
0
LINE
8
layer0
10
791.724133595217
20
516.808126696246
30
0
11
791.724133595217
21
646.711937263912
31
0
0
LINE
8
layer0
10
791.724133595217
20
646.711937263912
30
0
11
798.713020989553
21
642.157889573798
31
0
0
LINE
8
layer0
10
798.713020989553
20
642.157889573798
30
0
11
798.713020989553
21
512.254079006132
31
0
0
LINE
8
layer0
10
797.214514651983
20
506.562936167863
30
0
11
798.713020989553
21
512.254079006132
31
0
0
LINE
8
layer0
10
798.713020989553
20
512.254079006132
30
0
11
798.713020989553
21
642.157889573798
31
0
0
LINE
8
layer0
10
798.713020989553
20
642.157889573798
30
0
11
797.214514651983
21
636.466746735529
31
0
0
LINE
8
layer0
10
797.214514651983
20
636.466746735529
30
0
11
797.214514651983
21
506.562936167863
31
0
0
LINE
8
layer0
10
788.106419271755
20
503.068492470695
30
0
11
797.214514651983
21
506.562936167863
31
0
0
LINE
8
layer0
10
797.214514651983
20
506.562936167863
30
0
11
797.214514651983
21
636.466746735529
31
0
0
LINE
8
layer0
10
797.214514651983
20
636.466746735529
30
0
11
788.106419271755
21
632.972303038361
31
0
0
LINE
8
layer0
10
788.106419271755
20
632.972303038361
30
0
11
788.106419271755
21
503.068492470695
31
0
0
LINE
8
layer0
10
776.724133595217
20
503.81774563948
30
0
11
788.106419271755
21
503.068492470695
31
0
0
LINE
8
layer0
10
788.106419271755
20
503.068492470695
30
0
11
788.106419271755
21
632.972303038361
31
0
0
LINE
8
layer0
10
788.106419271755
20
632.972303038361
30
0
11
776.724133595217
21
633.721556207145
31
0
0
LINE
8
layer0
10
776.724133595217
20
633.721556207145
30
0
11
776.724133595217
21
503.81774563948
31
0
0
LINE
8
layer0
10
769.735246200881
20
508.371793329594
30
0
11
776.724133595217
21
503.81774563948
31
0
0
LINE
8
layer0
10
776.724133595217
20
503.81774563948
30
0
11
776.724133595217
21
633.721556207145
31
0
0
LINE
8
layer0
10
776.724133595217
20
633.721556207145
30
0
11
769.735246200881
21
638.27560389726
31
0
0
LINE
8
layer0
10
769.735246200881
20
638.27560389726
30
0
11
769.735246200881
21
508.371793329594
31
0
0
LINE
8
layer0
10
771.23375253845
20
514.062936167863
30
0
11
769.735246200881
21
508.371793329594
31
0
0
LINE
8
layer0
10
769.735246200881
20
508.371793329594
30
0
11
769.735246200881
21
638.27560389726
31
0
0
LINE
8
layer0
10
769.735246200881
20
638.27560389726
30
0
11
771.23375253845
21
643.966746735529
31
0
0
LINE
8
layer0
10
771.23375253845
20
643.966746735529
30
0
11
771.23375253845
21
514.062936167863
31
0
0
LINE
8
layer0
10
780.341847918679
20
517.557379865031
30
0
11
771.23375253845
21
514.062936167863
31
0
0
LINE
8
layer0
10
771.23375253845
20
514.062936167863
30
0
11
771.23375253845
21
643.966746735529
31
0
0
LINE
8
layer0
10
771.23375253845
20
643.966746735529
30
0
11
780.341847918679
21
647.461190432697
31
0
0
LINE
8
layer0
10
780.341847918679
20
647.461190432697
30
0
11
780.341847918679
21
517.557379865031
31
0
0
LINE
8
layer0
10
791.724133595217
20
516.808126696246
30
0
11
780.341847918679
21
517.557379865031
31
0
0
LINE
8
layer0
10
780.341847918679
20
517.557379865031
30
0
11
780.341847918679
21
647.461190432697
31
0
0
LINE
8
layer0
10
780.341847918679
20
647.461190432697
30
0
11
791.724133595217
21
646.711937263912
31
0
0
LINE
8
layer0
10
791.724133595217
20
646.711937263912
30
0
11
791.724133595217
21
516.808126696246
31
0
0
LINE
8
layer0
10
791.724133595217
20
646.711937263912
30
0
11
780.341847918679
21
647.461190432697
31
0
0
LINE
8
layer0
10
780.341847918679
20
647.461190432697
30
0
11
771.23375253845
21
643.966746735529
31
0
0
LINE
8
layer0
10
771.23375253845
20
643.966746735529
30
0
11
769.735246200881
21
638.27560389726
31
0
0
LINE
8
layer0
10
769.735246200881
20
638.27560389726
30
0
11
776.724133595217
21
633.721556207145
31
0
0
LINE
8
layer0
10
776.724133595217
20
633.721556207145
30
0
11
788.106419271755
21
632.972303038361
31
0
0
LINE
8
layer0
10
788.106419271755
20
632.972303038361
30
0
11
797.214514651983
21
636.466746735529
31
0
0
LINE
8
layer0
10
797.214514651983
20
636.466746735529
30
0
11
798.713020989553
21
642.157889573798
31
0
0
LINE
8
layer0
10
798.713020989553
20
642.157889573798
30
0
11
791.724133595217
21
646.711937263912
31
0
0
LINE
8
layer0
10
780.341847918679
20
517.557379865031
30
0
11
791.724133595217
21
516.808126696246
31
0
0
LINE
8
layer0
10
791.724133595217
20
516.808126696246
30
0
11
798.713020989553
21
512.254079006132
31
0
0
LINE
8
layer0
10
798.713020989553
20
512.254079006132
30
0
11
797.214514651983
21
506.562936167863
31
0
0
LINE
8
layer0
10
797.214514651983
20
506.562936167863
30
0
11
788.106419271755
21
503.068492470695
31
0
0
LINE
8
layer0
10
788.106419271755
20
503.068492470695
30
0
11
776.724133595217
21
503.81774563948
31
0
0
LINE
8
layer0
10
776.724133595217
20
503.81774563948
30
0
11
769.735246200881
21
508.371793329594
31
0
0
LINE
8
layer0
10
769.735246200881
20
508.371793329594
30
0
11
771.23375253845
21
514.062936167863
31
0
0
LINE
8
layer0
10
771.23375253845
20
514.062936167863
30
0
11
780.341847918679
21
517.557379865031
31
0
0
ENDBLK
0
BLOCK
8
layer0
2
PF_OBJECT81
70
0
10
0
20
0
30
0
0
LINE
8
layer0
10
788.884387633061
20
530.329596666258
30
0
11
792.884387633061
21
533.793698281396
31
0
0
LINE
8
layer0
10
792.884387633061
20
533.793698281396
30
0
11
752.884387633061
21
568.434714432774
31
0
0
LINE
8
layer0
10
752.884387633061
20
568.434714432774
30
0
11
750.590368133792
21
569.102948424054
31
0
0
LINE
8
layer0
10
750.590368133792
20
569.102948424054
30
0
11
747.884387633061
21
567.568689028989
31
0
0
LINE
8
layer0
10
747.884387633061
20
567.568689028989
30
0
11
742.884387633061
21
563.238562010067
31
0
0
LINE
8
layer0
10
742.884387633061
20
563.238562010067
30
0
11
742.884387633061
21
558.04240958736
31
0
0
LINE
8
layer0
10
742.884387633061
20
558.04240958736
30
0
11
747.884387633061
21
562.372536606282
31
0
0
LINE
8
layer0
10
747.884387633061
20
562.372536606282
30
0
11
749.864072943519
21
563.653527025984
31
0
0
LINE
8
layer0
10
749.864072943519
20
563.653527025984
30
0
11
751.384387633061
21
562.805549308175
31
0
0
LINE
8
layer0
10
751.384387633061
20
562.805549308175
30
0
11
788.884387633061
21
530.329596666258
31
0
0
LINE
8
layer0
10
775.563879557372
20
538.793698281396
30
0
11
771.563879557372
21
535.329596666258
31
0
0
LINE
8
layer0
10
771.563879557372
20
535.329596666258
30
0
11
734.063879557372
21
567.805549308175
31
0
0
LINE
8
layer0
10
734.063879557372
20
567.805549308175
30
0
11
732.54356486783
21
568.653527025984
31
0
0
LINE
8
layer0
10
732.54356486783
20
568.653527025984
30
0
11
730.563879557372
21
567.372536606282
31
0
0
LINE
8
layer0
10
730.563879557372
20
567.372536606282
30
0
11
725.563879557372
21
563.04240958736
31
0
0
LINE
8
layer0
10
725.563879557372
20
563.04240958736
30
0
11
725.563879557372
21
568.238562010067
31
0
0
LINE
8
layer0
10
725.563879557372
20
568.238562010067
30
0
11
730.563879557372
21
572.568689028989
31
0
0
LINE
8
layer0
10
730.563879557372
20
572.568689028989
30
0
11
733.269860058103
21
574.102948424054
31
0
0
LINE
8
layer0
10
733.269860058103
20
574.102948424054
30
0
11
735.563879557372
21
573.434714432774
31
0
0
LINE
8
layer0
10
735.563879557372
20
573.434714432774
30
0
11
775.563879557372
21
538.793698281396
31
0
0
LINE
8
layer0
10
775.563879557372
20
538.793698281396
30
0
11
792.884387633061
21
533.793698281396
31
0
0
LINE
8
layer0
10
792.884387633061
20
533.793698281396
30
0
11
788.884387633061
21
530.329596666258
31
0
0
LINE
8
layer0
10
788.884387633061
20
530.329596666258
30
0
11
771.563879557372
21
535.329596666258
31
0
0
LINE
8
layer0
10
771.563879557372
20
535.329596666258
30
0
11
775.563879557372
21
538.793698281396
31
0
0
LINE
8
layer0
10
771.563879557372
20
535.329596666258
30
0
11
788.884387633061
21
530.329596666258
31
0
0
LINE
8
layer0
10
788.884387633061
20
530.329596666258
30
0
11
751.384387633061
21
562.805549308175
31
0
0
LINE
8
layer0
10
751.384387633061
20
562.805549308175
30
0
11
734.063879557372
21
567.805549308175
31
0
0
LINE
8
layer0
10
734.063879557372
20
567.805549308175
30
0
11
771.563879557372
21
535.329596666258
31
0
0
LINE
8
layer0
10
734.063879557372
20
567.805549308175
30
0
11
751.384387633061
21
562.805549308175
31
0
0
LINE
8
layer0
10
751.384387633061
20
562.805549308175
30
0
11
749.864072943519
21
563.653527025984
31
0
0
LINE
8
layer0
10
749.864072943519
20
563.653527025984
30
0
11
732.54356486783
21
568.653527025984
31
0
0
LINE
8
layer0
10
732.54356486783
20
568.653527025984
30
0
11
734.063879557372
21
567.805549308175
31
0
0
LINE
8
layer0
10
732.54356486783
20
568.653527025984
30
0
11
749.864072943519
21
563.653527025984
31
0
0
LINE
8
layer0
10
749.864072943519
20
563.653527025984
30
0
11
747.884387633061
21
562.372536606282
31
0
0
LINE
8
layer0
10
747.884387633061
20
562.372536606282
30
0
11
730.563879557372
21
567.372536606282
31
0
0
LINE
8
layer0
10
730.563879557372
20
567.372536606282
30
0
11
732.54356486783
21
568.653527025984
31
0
0
LINE
8
layer0
10
730.563879557372
20
567.372536606282
30
0
11
747.884387633061
21
562.372536606282
31
0
0
LINE
8
layer0
10
747.884387633061
20
562.372536606282
30
0
11
742.884387633061
21
558.04240958736
31
0
0
LINE
8
layer0
10
742.884387633061
20
558.04240958736
30
0
11
725.563879557372
21
563.04240958736
31
0
0
LINE
8
layer0
10
725.563879557372
20
563.04240958736
30
0
11
730.563879557372
21
567.372536606282
31
0
0
LINE
8
layer0
10
725.563879557372
20
563.04240958736
30
0
11
742.884387633061
21
558.04240958736
31
0
0
LINE
8
layer0
10
742.884387633061
20
558.04240958736
30
0
11
742.884387633061
21
563.238562010067
31
0
0
LINE
8
layer0
10
742.884387633061
20
563.238562010067
30
0
11
725.563879557372
21
568.238562010067
31
0
0
LINE
8
layer0
10
725.563879557372
20
568.238562010067
30
0
11
725.563879557372
21
563.04240958736
31
0
0
LINE
8
layer0
10
725.563879557372
20
568.238562010067
30
0
11
742.884387633061
21
563.238562010067
31
0
0
LINE
8
layer0
10
742.884387633061
20
563.238562010067
30
0
11
747.884387633061
21
567.568689028989
31
0
0
LINE
8
layer0
10
747.884387633061
20
567.568689028989
30
0
11
730.563879557372
21
572.568689028989
31
0
0
LINE
8
layer0
10
730.563879557372
20
572.568689028989
30
0
11
725.563879557372
21
568.238562010067
31
0
0
LINE
8
layer0
10
730.563879557372
20
572.568689028989
30
0
11
747.884387633061
21
567.568689028989
31
0
0
LINE
8
layer0
10
747.884387633061
20
567.568689028989
30
0
11
750.590368133792
21
569.102948424054
31
0
0
LINE
8
layer0
10
750.590368133792
20
569.102948424054
30
0
11
733.269860058103
21
574.102948424054
31
0
0
LINE
8
layer0
10
733.269860058103
20
574.102948424054
30
0
11
730.563879557372
21
572.568689028989
31
0
0
LINE
8
layer0
10
733.269860058103
20
574.102948424054
30
0
11
750.590368133792
21
569.102948424054
31
0
0
LINE
8
layer0
10
750.590368133792
20
569.102948424054
30
0
11
752.884387633061
21
568.434714432774
31
0
0
LINE
8
layer0
10
752.884387633061
20
568.434714432774
30
0
11
735.563879557372
21
573.434714432774
31
0
0
LINE
8
layer0
10
735.563879557372
20
573.434714432774
30
0
11
733.269860058103
21
574.102948424054
31
0
0
LINE
8
layer0
10
735.563879557372
20
573.434714432774
30
0
11
752.884387633061
21
568.434714432774
31
0
0
LINE
8
layer0
10
752.884387633061
20
568.434714432774
30
0
11
792.884387633061
21
533.793698281396
31
0
0
LINE
8
layer0
10
792.884387633061
20
533.793698281396
30
0
11
775.563879557372
21
538.793698281396
31
0
0
LINE
8
layer0
10
775.563879557372
20
538.793698281396
30
0
11
735.563879557372
21
573.434714432774
31
0
0
ENDBLK
0
BLOCK
8
layer0
2
PF_OBJECT82
70
0
10
0
20
0
30
0
0
LINE
8
layer0
10
791.549451142522
20
625.400403784439
30
0
11
769.898816047911
21
631.650403784439
31
0
0
LINE
8
layer0
10
769.898816047911
20
631.650403784439
30
0
11
770.332936492079
21
636.290705777152
31
0
0
LINE
8
layer0
10
770.332936492079
20
636.290705777152
30
0
11
791.98357158669
21
630.040705777152
31
0
0
LINE
8
layer0
10
791.98357158669
20
630.040705777152
30
0
11
791.549451142522
21
625.400403784439
31
0
0
LINE
8
layer0
10
735.430544692484
20
612.326866488734
30
0
11
757.081179787095
21
606.076866488734
31
0
0
LINE
8
layer0
10
757.081179787095
20
606.076866488734
30
0
11
757.515300231262
21
610.717168481447
31
0
0
LINE
8
layer0
10
757.515300231262
20
610.717168481447
30
0
11
735.864665136651
21
616.967168481447
31
0
0
LINE
8
layer0
10
735.864665136651
20
616.967168481447
30
0
11
735.430544692484
21
612.326866488734
31
0
0
LINE
8
layer0
10
769.898816047911
20
631.650403784439
30
0
11
735.430544692484
21
612.326866488734
31
0
0
LINE
8
layer0
10
735.430544692484
20
612.326866488734
30
0
11
735.864665136651
21
616.967168481447
31
0
0
LINE
8
layer0
10
735.864665136651
20
616.967168481447
30
0
11
770.332936492079
21
636.290705777152
31
0
0
LINE
8
layer0
10
770.332936492079
20
636.290705777152
30
0
11
769.898816047911
21
631.650403784439
31
0
0
LINE
8
layer0
10
757.081179787095
20
606.076866488734
30
0
11
791.549451142522
21
625.400403784439
31
0
0
LINE
8
layer0
10
791.549451142522
20
625.400403784439
30
0
11
791.98357158669
21
630.040705777152
31
0
0
LINE
8
layer0
10
791.98357158669
20
630.040705777152
30
0
11
757.515300231262
21
610.717168481447
31
0
0
LINE
8
layer0
10
757.515300231262
20
610.717168481447
30
0
11
757.081179787095
21
606.076866488734
31
0
0
LINE
8
layer0
10
791.98357158669
20
630.040705777152
30
0
11
770.332936492079
21
636.290705777152
31
0
0
LINE
8
layer0
10
770.332936492079
20
636.290705777152
30
0
11
735.864665136651
21
616.967168481447
31
0
0
LINE
8
layer0
10
735.864665136651
20
616.967168481447
30
0
11
757.515300231262
21
610.717168481447
31
0
0
LINE
8
layer0
10
757.515300231262
20
610.717168481447
30
0
11
791.98357158669
21
630.040705777152
31
0
0
LINE
8
layer0
10
769.898816047911
20
631.650403784439
30
0
11
791.549451142522
21
625.400403784439
31
0
0
LINE
8
layer0
10
791.549451142522
20
625.400403784439
30
0
11
757.081179787095
21
606.076866488734
31
0
0
LINE
8
layer0
10
757.081179787095
20
606.076866488734
30
0
11
735.430544692484
21
612.326866488734
31
0
0
LINE
8
layer0
10
735.430544692484
20
612.326866488734
30
0
11
769.898816047911
21
631.650403784439
31
0
0
ENDBLK
0
BLOCK
8
layer0
2
PF_OBJECT83
70
0
10
0
20
0
30
0
0
LINE
8
layer0
10
1968.6622762815
20
164.353644024342
30
0
11
1719.24695999158
21
236.353644024342
31
0
0
LINE
8
layer0
10
1719.24695999158
20
236.353644024342
30
0
11
1719.24695999158
21
275.324787194642
31
0
0
LINE
8
layer0
10
1719.24695999158
20
275.324787194642
30
0
11
1968.6622762815
21
203.324787194642
31
0
0
LINE
8
layer0
10
1968.6622762815
20
203.324787194642
30
0
11
1968.6622762815
21
164.353644024342
31
0
0
LINE
8
layer0
10
1464.24695999158
20
15.5171660593099
30
0
11
1713.6622762815
21
-56.4828339406901
31
0
0
LINE
8
layer0
10
1713.6622762815
20
-56.4828339406901
30
0
11
1713.6622762815
21
-17.5116907703903
31
0
0
LINE
8
layer0
10
1713.6622762815
20
-17.5116907703903
30
0
11
1464.24695999158
21
54.4883092296097
31
0
0
LINE
8
layer0
10
1464.24695999158
20
54.4883092296097
30
0
11
1464.24695999158
21
15.5171660593099
31
0
0
LINE
8
layer0
10
1719.24695999158
20
236.353644024342
30
0
11
1464.24695999158
21
15.5171660593099
31
0
0
LINE
8
layer0
10
1464.24695999158
20
15.5171660593099
30
0
11
1464.24695999158
21
54.4883092296097
31
0
0
LINE
8
layer0
10
1464.24695999158
20
54.4883092296097
30
0
11
1719.24695999158
21
275.324787194642
31
0
0
LINE
8
layer0
10
1719.24695999158
20
275.324787194642
30
0
11
1719.24695999158
21
236.353644024342
31
0
0
LINE
8
layer0
10
1713.6622762815
20
-56.4828339406901
30
0
11
1968.6622762815
21
164.353644024342
31
0
0
LINE
8
layer0
10
1968.6622762815
20
164.353644024342
30
0
11
1968.6622762815
21
203.324787194642
31
0
0
LINE
8
layer0
10
1968.6622762815
20
203.324787194642
30
0
11
1713.6622762815
21
-17.5116907703903
31
0
0
LINE
8
layer0
10
1713.6622762815
20
-17.5116907703903
30
0
11
1713.6622762815
21
-56.4828339406901
31
0
0
LINE
8
layer0
10
1968.6622762815
20
203.324787194642
30
0
11
1719.24695999158
21
275.324787194642
31
0
0
LINE
8
layer0
10
1719.24695999158
20
275.324787194642
30
0
11
1464.24695999158
21
54.4883092296097
31
0
0
LINE
8
layer0
10
1464.24695999158
20
54.4883092296097
30
0
11
1713.6622762815
21
-17.5116907703903
31
0
0
LINE
8
layer0
10
1713.6622762815
20
-17.5116907703903
30
0
11
1968.6622762815
21
203.324787194642
31
0
0
LINE
8
layer0
10
1719.24695999158
20
236.353644024342
30
0
11
1968.6622762815
21
164.353644024342
31
0
0
LINE
8
layer0
10
1968.6622762815
20
164.353644024342
30
0
11
1713.6622762815
21
-56.4828339406901
31
0
0
LINE
8
layer0
10
1713.6622762815
20
-56.4828339406901
30
0
11
1464.24695999158
21
15.5171660593099
31
0
0
LINE
8
layer0
10
1464.24695999158
20
15.5171660593099
30
0
11
1719.24695999158
21
236.353644024342
31
0
0
ENDBLK
0
BLOCK
8
layer0
2
PF_OBJECT84
70
0
10
0
20
0
30
0
0
LINE
8
layer0
10
1361.5800097031
20
745.480438279292
30
0
11
1442.0800097031
21
945.099293851605
31
0
0
LINE
8
layer0
10
1442.0800097031
20
945.099293851605
30
0
11
1602.5800097031
21
1084.09637115901
31
0
0
LINE
8
layer0
10
1602.5800097031
20
1084.09637115901
30
0
11
1602.5800097031
21
954.192560591342
31
0
0
LINE
8
layer0
10
1602.5800097031
20
954.192560591342
30
0
11
1361.5800097031
21
728.159930203603
31
0
0
LINE
8
layer0
10
1361.5800097031
20
728.159930203603
30
0
11
1361.5800097031
21
745.480438279292
31
0
0
LINE
8
layer0
10
1961.69525197377
20
795.099293851605
30
0
11
1881.19525197377
21
595.480438279292
31
0
0
LINE
8
layer0
10
1881.19525197377
20
595.480438279292
30
0
11
1881.19525197377
21
578.159930203603
31
0
0
LINE
8
layer0
10
1881.19525197377
20
578.159930203603
30
0
11
2122.19525197377
21
804.192560591342
31
0
0
LINE
8
layer0
10
2122.19525197377
20
804.192560591342
30
0
11
2122.19525197377
21
934.096371159008
31
0
0
LINE
8
layer0
10
2122.19525197377
20
934.096371159008
30
0
11
1961.69525197377
21
795.099293851605
31
0
0
LINE
8
layer0
10
1961.69525197377
20
795.099293851605
30
0
11
1442.0800097031
21
945.099293851605
31
0
0
LINE
8
layer0
10
1442.0800097031
20
945.099293851605
30
0
11
1361.5800097031
21
745.480438279292
31
0
0
LINE
8
layer0
10
1361.5800097031
20
745.480438279292
30
0
11
1881.19525197377
21
595.480438279292
31
0
0
LINE
8
layer0
10
1881.19525197377
20
595.480438279292
30
0
11
1961.69525197377
21
795.099293851605
31
0
0
LINE
8
layer0
10
1881.19525197377
20
595.480438279292
30
0
11
1361.5800097031
21
745.480438279292
31
0
0
LINE
8
layer0
10
1361.5800097031
20
745.480438279292
30
0
11
1361.5800097031
21
728.159930203603
31
0
0
LINE
8
layer0
10
1361.5800097031
20
728.159930203603
30
0
11
1881.19525197377
21
578.159930203603
31
0
0
LINE
8
layer0
10
1881.19525197377
20
578.159930203603
30
0
11
1881.19525197377
21
595.480438279292
31
0
0
LINE
8
layer0
10
1881.19525197377
20
578.159930203603
30
0
11
1361.5800097031
21
728.159930203603
31
0
0
LINE
8
layer0
10
1361.5800097031
20
728.159930203603
30
0
11
1602.5800097031
21
954.192560591342
31
0
0
LINE
8
layer0
10
1602.5800097031
20
954.192560591342
30
0
11
2122.19525197377
21
804.192560591342
31
0
0
LINE
8
layer0
10
2122.19525197377
20
804.192560591342
30
0
11
1881.19525197377
21
578.159930203603
31
0
0
LINE
8
layer0
10
2122.19525197377
20
804.192560591342
30
0
11
1602.5800097031
21
954.192560591342
31
0
0
LINE
8
layer0
10
1602.5800097031
20
954.192560591342
30
0
11
1602.5800097031
21
1084.09637115901
31
0
0
LINE
8
layer0
10
1602.5800097031
20
1084.09637115901
30
0
11
2122.19525197377
21
934.096371159008
31
0
0
LINE
8
layer0
10
2122.19525197377
20
934.096371159008
30
0
11
2122.19525197377
21
804.192560591342
31
0
0
LINE
8
layer0
10
2122.19525197377
20
934.096371159008
30
0
11
1602.5800097031
21
1084.09637115901
31
0
0
LINE
8
layer0
10
1602.5800097031
20
1084.09637115901
30
0
11
1442.0800097031
21
945.099293851605
31
0
0
LINE
8
layer0
10
1442.0800097031
20
945.099293851605
30
0
11
1961.69525197377
21
795.099293851605
31
0
0
LINE
8
layer0
10
1961.69525197377
20
795.099293851605
30
0
11
2122.19525197377
21
934.096371159008
31
0
0
ENDBLK
0
ENDSEC
0
SECTION
2
ENTITIES
0
INSERT
2
PF_OBJECT0
8
0
10
0
20
0
30
0
0
INSERT
2
PF_OBJECT1
8
0
10
0
20
0
30
0
0
INSERT
2
PF_OBJECT2
8
0
10
0
20
0
30
0
0
INSERT
2
PF_OBJECT3
8
0
10
0
20
0
30
0
0
INSERT
2
PF_OBJECT4
8
0
10
0
20
0
30
0
0
INSERT
2
PF_OBJECT5
8
0
10
0
20
0
30
0
0
INSERT
2
PF_OBJECT6
8
0
10
0
20
0
30
0
0
INSERT
2
PF_OBJECT7
8
0
10
0
20
0
30
0
0
INSERT
2
PF_OBJECT8
8
0
10
0
20
0
30
0
0
INSERT
2
PF_OBJECT9
8
0
10
0
20
0
30
0
0
INSERT
2
PF_OBJECT10
8
0
10
0
20
0
30
0
0
INSERT
2
PF_OBJECT11
8
0
10
0
20
0
30
0
0
INSERT
2
PF_OBJECT12
8
0
10
0
20
0
30
0
0
INSERT
2
PF_OBJECT13
8
0
10
0
20
0
30
0
0
INSERT
2
PF_OBJECT14
8
0
10
0
20
0
30
0
0
INSERT
2
PF_SKETCH15
8
0
10
0
20
0
30
0
0
INSERT
2
PF_SKETCH16
8
0
10
0
20
0
30
0
0
INSERT
2
PF_SKETCH17
8
0
10
0
20
0
30
0
0
INSERT
2
PF_SKETCH18
8
0
10
0
20
0
30
0
0
INSERT
2
PF_SKETCH19
8
0
10
0
20
0
30
0
0
INSERT
2
PF_SKETCH20
8
0
10
0
20
0
30
0
0
INSERT
2
PF_OBJECT21
8
0
10
0
20
0
30
0
0
INSERT
2
PF_OBJECT22
8
0
10
0
20
0
30
0
0
INSERT
2
PF_OBJECT23
8
0
10
0
20
0
30
0
0
INSERT
2
PF_OBJECT24
8
0
10
0
20
0
30
0
0
INSERT
2
PF_OBJECT25
8
0
10
0
20
0
30
0
0
INSERT
2
PF_OBJECT26
8
0
10
0
20
0
30
0
0
INSERT
2
PF_OBJECT27
8
0
10
0
20
0
30
0
0
INSERT
2
PF_OBJECT28
8
0
10
0
20
0
30
0
0
INSERT
2
PF_OBJECT29
8
0
10
0
20
0
30
0
0
INSERT
2
PF_OBJECT30
8
0
10
0
20
0
30
0
0
INSERT
2
PF_OBJECT31
8
0
10
0
20
0
30
0
0
INSERT
2
PF_OBJECT32
8
0
10
0
20
0
30
0
0
INSERT
2
PF_SKETCH33
8
0
10
0
20
0
30
0
0
INSERT
2
PF_SKETCH34
8
0
10
0
20
0
30
0
0
INSERT
2
PF_SKETCH35
8
0
10
0
20
0
30
0
0
INSERT
2
PF_SKETCH36
8
0
10
0
20
0
30
0
0
INSERT
2
PF_SKETCH37
8
0
10
0
20
0
30
0
0
INSERT
2
PF_SKETCH38
8
0
10
0
20
0
30
0
0
INSERT
2
PF_OBJECT39
8
0
10
0
20
0
30
0
0
INSERT
2
PF_OBJECT40
8
0
10
0
20
0
30
0
0
INSERT
2
PF_OBJECT41
8
0
10
0
20
0
30
0
0
INSERT
2
PF_OBJECT42
8
0
10
0
20
0
30
0
0
INSERT
2
PF_OBJECT43
8
0
10
0
20
0
30
0
0
INSERT
2
PF_OBJECT44
8
0
10
0
20
0
30
0
0
INSERT
2
PF_OBJECT45
8
0
10
0
20
0
30
0
0
INSERT
2
PF_OBJECT46
8
0
10
0
20
0
30
0
0
INSERT
2
PF_OBJECT47
8
0
10
0
20
0
30
0
0
INSERT
2
PF_OBJECT48
8
0
10
0
20
0
30
0
0
INSERT
2
PF_SKETCH49
8
0
10
0
20
0
30
0
0
INSERT
2
PF_SKETCH50
8
0
10
0
20
0
30
0
0
INSERT
2
PF_OBJECT51
8
0
10
0
20
0
30
0
0
INSERT
2
PF_OBJECT52
8
0
10
0
20
0
30
0
0
INSERT
2
PF_OBJECT53
8
0
10
0
20
0
30
0
0
INSERT
2
PF_OBJECT54
8
0
10
0
20
0
30
0
0
INSERT
2
PF_OBJECT55
8
0
10
0
20
0
30
0
0
INSERT
2
PF_OBJECT56
8
0
10
0
20
0
30
0
0
INSERT
2
PF_OBJECT57
8
0
10
0
20
0
30
0
0
INSERT
2
PF_OBJECT58
8
0
10
0
20
0
30
0
0
INSERT
2
PF_OBJECT59
8
0
10
0
20
0
30
0
0
INSERT
2
PF_SKETCH60
8
0
10
0
20
0
30
0
0
INSERT
2
PF_SKETCH61
8
0
10
0
20
0
30
0
0
INSERT
2
PF_OBJECT62
8
0
10
0
20
0
30
0
0
INSERT
2
PF_OBJECT63
8
0
10
0
20
0
30
0
0
INSERT
2
PF_OBJECT64
8
0
10
0
20
0
30
0
0
INSERT
2
PF_OBJECT65
8
0
10
0
20
0
30
0
0
INSERT
2
PF_OBJECT66
8
0
10
0
20
0
30
0
0
INSERT
2
PF_OBJECT67
8
0
10
0
20
0
30
0
0
INSERT
2
PF_OBJECT68
8
0
10
0
20
0
30
0
0
INSERT
2
PF_OBJECT69
8
0
10
0
20
0
30
0
0
INSERT
2
PF_OBJECT70
8
0
10
0
20
0
30
0
0
INSERT
2
PF_OBJECT71
8
0
10
0
20
0
30
0
0
INSERT
2
PF_SKETCH72
8
0
10
0
20
0
30
0
0
INSERT
2
PF_SKETCH73
8
0
10
0
20
0
30
0
0
INSERT
2
PF_OBJECT74
8
0
10
0
20
0
30
0
0
INSERT
2
PF_OBJECT75
8
0
10
0
20
0
30
0
0
INSERT
2
PF_OBJECT76
8
0
10
0
20
0
30
0
0
INSERT
2
PF_OBJECT77
8
0
10
0
20
0
30
0
0
INSERT
2
PF_OBJECT78
8
0
10
0
20
0
30
0
0
INSERT
2
PF_OBJECT79
8
0
10
0
20
0
30
0
0
INSERT
2
PF_OBJECT80
8
0
10
0
20
0
30
0
0
INSERT
2
PF_OBJECT81
8
0
10
0
20
0
30
0
0
INSERT
2
PF_OBJECT82
8
0
10
0
20
0
30
0
0
INSERT
2
PF_OBJECT83
8
0
10
0
20
0
30
0
0
INSERT
2
PF_OBJECT84
8
0
10
0
20
0
30
0
0
ENDSEC
0
EOF
